  0
SECTION
  2
HEADER
  9
$ACADVER
  1
AC1009
  9
$INSBASE
 10
0.0
 20
0.0
 30
0.0
  9
$EXTMIN
 10
0.0
 20
-2.960436562073669
 30
0.0
  9
$EXTMAX
 10
290.0
 20
214.99999999999909
 30
0.0
  9
$LIMMIN
 10
0.0
 20
0.0
  9
$LIMMAX
 10
375.0
 20
270.0
  9
$ORTHOMODE
 70
     1
  9
$REGENMODE
 70
     1
  9
$FILLMODE
 70
     1
  9
$QTEXTMODE
 70
     0
  9
$MIRRTEXT
 70
     0
  9
$DRAGMODE
 70
     2
  9
$LTSCALE
 40
10.0
  9
$OSMODE
 70
    55
  9
$ATTMODE
 70
     1
  9
$TEXTSIZE
 40
5.0
  9
$TRACEWID
 40
0.05
  9
$TEXTSTYLE
  7
STANDARD
  9
$CLAYER
  8
0
  9
$CELTYPE
  6
BYLAYER
  9
$CECOLOR
 62
   256
  9
$DIMSCALE
 40
1.0
  9
$DIMASZ
 40
3.0
  9
$DIMEXO
 40
2.0
  9
$DIMDLI
 40
0.38
  9
$DIMRND
 40
0.0
  9
$DIMDLE
 40
0.0
  9
$DIMEXE
 40
2.0
  9
$DIMTP
 40
0.0
  9
$DIMTM
 40
0.0
  9
$DIMTXT
 40
3.2000000000000002
  9
$DIMCEN
 40
0.0
  9
$DIMTSZ
 40
0.0
  9
$DIMTOL
 70
     0
  9
$DIMLIM
 70
     0
  9
$DIMTIH
 70
     0
  9
$DIMTOH
 70
     0
  9
$DIMSE1
 70
     0
  9
$DIMSE2
 70
     0
  9
$DIMTAD
 70
     1
  9
$DIMZIN
 70
     0
  9
$DIMBLK
  1

  9
$DIMASO
 70
     1
  9
$DIMSHO
 70
     0
  9
$DIMPOST
  1

  9
$DIMAPOST
  1

  9
$DIMALT
 70
     0
  9
$DIMALTD
 70
     2
  9
$DIMALTF
 40
25.399999999999999
  9
$DIMLFAC
 40
1.0
  9
$DIMTOFL
 70
     1
  9
$DIMTVP
 40
1.6000000000000001
  9
$DIMTIX
 70
     1
  9
$DIMSOXD
 70
     0
  9
$DIMSAH
 70
     0
  9
$DIMBLK1
  1

  9
$DIMBLK2
  1

  9
$DIMSTYLE
  2
STANDARD
  9
$DIMCLRD
 70
     0
  9
$DIMCLRE
 70
     0
  9
$DIMCLRT
 70
     0
  9
$DIMTFAC
 40
1.0
  9
$DIMGAP
 40
0.09
  9
$LUNITS
 70
     2
  9
$LUPREC
 70
     4
  9
$SKETCHINC
 40
0.1
  9
$FILLETRAD
 40
1.0
  9
$AUNITS
 70
     1
  9
$AUPREC
 70
     4
  9
$MENU
  1
E:\r13\win\SUPPORT\ACAD
  9
$ELEVATION
 40
0.0
  9
$PELEVATION
 40
0.0
  9
$THICKNESS
 40
0.0
  9
$LIMCHECK
 70
     0
  9
$BLIPMODE
 70
     0
  9
$CHAMFERA
 40
0.0
  9
$CHAMFERB
 40
0.0
  9
$SKPOLY
 70
     0
  9
$TDCREATE
 40
2449839.7884490741
  9
$TDUPDATE
 40
2456598.4510040628
  9
$TDINDWG
 40
0.0001499537
  9
$TDUSRTIMER
 40
0.0001499537
  9
$USRTIMER
 70
     1
  9
$ANGBASE
 50
0.0
  9
$ANGDIR
 70
     0
  9
$PDMODE
 70
     0
  9
$PDSIZE
 40
0.0
  9
$PLINEWID
 40
0.0
  9
$COORDS
 70
     1
  9
$SPLFRAME
 70
     0
  9
$SPLINETYPE
 70
     6
  9
$SPLINESEGS
 70
     8
  9
$ATTDIA
 70
     0
  9
$ATTREQ
 70
     1
  9
$HANDLING
 70
     1
  9
$HANDSEED
  5
309
  9
$SURFTAB1
 70
     6
  9
$SURFTAB2
 70
     6
  9
$SURFTYPE
 70
     6
  9
$SURFU
 70
     6
  9
$SURFV
 70
     6
  9
$UCSNAME
  2

  9
$UCSORG
 10
0.0
 20
0.0
 30
0.0
  9
$UCSXDIR
 10
1.0
 20
0.0
 30
0.0
  9
$UCSYDIR
 10
0.0
 20
1.0
 30
0.0
  9
$PUCSNAME
  2

  9
$PUCSORG
 10
0.0
 20
0.0
 30
0.0
  9
$PUCSXDIR
 10
1.0
 20
0.0
 30
0.0
  9
$PUCSYDIR
 10
0.0
 20
1.0
 30
0.0
  9
$USERI1
 70
     0
  9
$USERI2
 70
     1
  9
$USERI3
 70
     1
  9
$USERI4
 70
     0
  9
$USERI5
 70
     0
  9
$USERR1
 40
0.0
  9
$USERR2
 40
0.0
  9
$USERR3
 40
0.0
  9
$USERR4
 40
0.0
  9
$USERR5
 40
0.0
  9
$WORLDVIEW
 70
     1
  9
$SHADEDGE
 70
     3
  9
$SHADEDIF
 70
    70
  9
$TILEMODE
 70
     1
  9
$MAXACTVP
 70
    16
  9
$PLIMCHECK
 70
     0
  9
$PEXTMIN
 10
1.0000000000000000E+020
 20
1.0000000000000000E+020
 30
1.0000000000000000E+020
  9
$PEXTMAX
 10
-1.0000000000000000E+020
 20
-1.0000000000000000E+020
 30
-1.0000000000000000E+020
  9
$PLIMMIN
 10
0.0
 20
0.0
  9
$PLIMMAX
 10
12.0
 20
9.0
  9
$UNITMODE
 70
     0
  9
$VISRETAIN
 70
     0
  9
$PLINEGEN
 70
     0
  9
$PSLTSCALE
 70
     0
  0
ENDSEC
  0
SECTION
  2
TABLES
  0
TABLE
  2
VPORT
 70
     1
  0
VPORT
  2
*ACTIVE
 70
     0
 10
0.0
 20
0.0
 11
1.0
 21
1.0
 12
187.4942783906524
 22
197.0509055860143
 13
0.0
 23
0.0
 14
10.0
 24
10.0
 15
10.0
 25
10.0
 16
0.0
 26
0.0
 36
1.0
 17
0.0
 27
0.0
 37
0.0
 40
403.57315882993248
 41
1.7807262569832401
 42
50.0
 43
0.0
 44
0.0
 50
0.0
 51
0.0
 71
     0
 72
   500
 73
     1
 74
     0
 75
     0
 76
     0
 77
     0
 78
     2
  0
ENDTAB
  0
TABLE
  2
LTYPE
 70
     4
  0
LTYPE
  2
CONTINUOUS
 70
     0
  3
Solid Line
 72
    65
 73
     0
 40
0.0
  0
LTYPE
  2
CENTER
 70
     0
  3
____ _ ____ _ ____ _ ____ _ ____ _ ____ _ ____
 72
    65
 73
     4
 40
2.0
 49
1.25
 49
-0.25
 49
0.25
 49
-0.25
  0
LTYPE
  2
HIDDEN
 70
     0
  3
_ _ _ _ _ _ _ _ _ _ _ _ _ _ _ _ _ _ _ _ _ _ _
 72
    65
 73
     2
 40
0.375
 49
0.25
 49
-0.125
  0
LTYPE
  2
PHANTOM2
 70
     0
  3
___ _ _ ___ _ _ ___ _ _ ___ _ _
 72
    65
 73
     6
 40
1.25
 49
0.625
 49
-0.125
 49
0.125
 49
-0.125
 49
0.125
 49
-0.125
  0
ENDTAB
  0
TABLE
  2
LAYER
 70
     4
  0
LAYER
  2
0
 70
     0
 62
     7
  6
CONTINUOUS
  0
LAYER
  2
1
 70
     0
 62
     1
  6
CENTER
  0
LAYER
  2
3
 70
     0
 62
     3
  6
CONTINUOUS
  0
LAYER
  2
2
 70
     0
 62
     2
  6
HIDDEN
  0
ENDTAB
  0
TABLE
  2
STYLE
 70
     2
  0
STYLE
  2
STANDARD
 70
     0
 40
0.0
 41
1.0
 50
0.0
 71
     0
 42
5.0
  3
TXT
  4
BIGFONT
  0
STYLE
  2
STANDARD1
 70
     0
 40
0.0
 41
1.0
 50
0.0
 71
     0
 42
3.0
  3
txt
  4

  0
ENDTAB
  0
TABLE
  2
VIEW
 70
     1
  0
VIEW
  2
ALL
 70
     0
 40
270.0
 10
220.99159663865549
 20
135.0
 41
0.0
 11
0.0
 21
0.0
 31
1.0
 12
0.0
 22
0.0
 32
0.0
 42
0.0
 43
0.0
 44
0.0
 50
0.0
 71
     0
  0
ENDTAB
  0
TABLE
  2
UCS
 70
     0
  0
ENDTAB
  0
TABLE
  2
APPID
 70
     3
  0
APPID
  2
ACAD
 70
     0
  0
APPID
  2
ACAD_MLEADERVER
 70
     0
  0
APPID
  2
ACAD_NAV_VCDISPLAY
 70
     0
  0
ENDTAB
  0
TABLE
  2
DIMSTYLE
 70
     1
  0
DIMSTYLE
  2
STANDARD
 70
     0
  3

  4

  5

  6

  7

 40
1.0
 41
0.18
 42
0.0625
 43
0.38
 44
0.18
 45
0.0
 46
0.0
 47
0.0
 48
0.0
140
0.18
141
0.09
142
0.0
143
25.399999999999999
144
1.0
145
0.0
146
1.0
147
0.09
 71
     0
 72
     0
 73
     1
 74
     1
 75
     0
 76
     0
 77
     0
 78
     0
170
     0
171
     2
172
     0
173
     0
174
     0
175
     0
176
     0
177
     0
178
     0
  0
ENDTAB
  0
ENDSEC
  0
SECTION
  2
BLOCKS
  0
BLOCK
  8
0
  2
$MODEL_SPACE
 70
     0
 10
0.0
 20
0.0
 30
0.0
  3
$MODEL_SPACE
  1

  0
ENDBLK
  5
14F
  8
0
  0
BLOCK
 67
     1
  8
0
  2
$PAPER_SPACE
 70
     0
 10
0.0
 20
0.0
 30
0.0
  3
$PAPER_SPACE
  1

  0
ENDBLK
  5
14D
 67
     1
  8
0
  0
ENDSEC
  0
SECTION
  2
ENTITIES
  0
LINE
  5
36
  8
0
 10
173.0
 20
101.5
 30
0.0
 11
173.0
 21
100.0
 31
0.0
  0
LINE
  5
37
  8
0
 10
173.0
 20
100.0
 30
0.0
 11
187.0
 21
100.0
 31
0.0
  0
LINE
  5
38
  8
0
 10
187.0
 20
100.0
 30
0.0
 11
187.0
 21
101.5
 31
0.0
  0
LINE
  5
39
  8
0
 10
170.5
 20
101.5
 30
0.0
 11
169.5
 21
102.5
 31
0.0
  0
LINE
  5
3A
  8
0
 10
169.5
 20
102.5
 30
0.0
 11
190.5
 21
102.5
 31
0.0
  0
LINE
  5
3B
  8
0
 10
190.5
 20
102.5
 30
0.0
 11
189.5
 21
101.5
 31
0.0
  0
LINE
  5
3C
  8
0
 10
169.5
 20
102.5
 30
0.0
 11
169.5
 21
112.59510798340099
 31
0.0
  0
LINE
  5
3D
  8
0
 10
190.5
 20
102.5
 30
0.0
 11
190.50000000018409
 21
112.59510989075871
 31
0.0
  0
ARC
  5
3E
  8
0
 10
191.0000000001842
 20
112.59510798340089
 30
0.0
 40
0.5
 50
102.0
 51
179.99999999895451
  0
ARC
  5
3F
  8
0
 10
169.0
 20
112.59510798340099
 30
0.0
 40
0.5
 50
360.0
 51
78.000000000209781
  0
LINE
  5
40
  8
0
 10
169.10395584540711
 20
113.0841817837683
 30
0.0
 11
160.7920883091858
 21
114.8509237682923
 31
0.0
  0
LINE
  5
41
  8
0
 10
160.0
 20
115.82907136902691
 30
0.0
 11
160.0
 21
125.1553008020785
 31
0.0
  0
ARC
  5
42
  8
0
 10
161.0
 20
115.82907136902691
 30
0.0
 40
1.0
 50
180.0
 51
258.00000000020981
  0
ARC
  5
43
  8
0
 10
161.0
 20
125.1553008020785
 30
0.0
 40
1.0
 50
98.346852508989414
 51
180.0
  0
ARC
  5
44
  8
0
 10
177.87952248564531
 20
54.129709742023323
 30
0.0
 40
74.0
 50
93.392903640698606
 51
103.30080137727479
  0
ARC
  5
45
  8
0
 10
182.1204775143546
 20
54.129709742023323
 30
0.0
 40
74.0
 50
76.699198622719663
 51
86.607096359301366
  0
ARC
  5
46
  8
0
 10
199.0
 20
125.1553008020785
 30
0.0
 40
1.0
 50
360.0
 51
81.653147491010571
  0
LINE
  5
47
  8
0
 10
200.0
 20
115.82907136902691
 30
0.0
 11
200.0
 21
125.1553008020785
 31
0.0
  0
ARC
  5
48
  8
0
 10
199.0
 20
115.82907136902691
 30
0.0
 40
1.0
 50
281.99999999979019
 51
360.0
  0
LINE
  5
49
  8
0
 10
190.8960441547753
 20
113.0841817838071
 30
0.0
 11
199.2079116908142
 21
114.8509237682923
 31
0.0
  0
LINE
  5
4A
  8
0
 10
173.4999999999996
 20
128.0
 30
0.0
 11
186.5
 21
128.0
 31
0.0
  0
ARC
  5
4B
  8
0
 10
193.36354371177501
 20
194.34207856342061
 30
0.0
 40
5.9487386051130544
 50
313.12066052307199
 51
82.879339476640567
  0
ARC
  5
4C
  8
0
 10
180.0000000000025
 20
204.05126139489511
 30
0.0
 40
5.9487386051049
 50
25.120660523963121
 51
154.87933947519571
  0
ARC
  5
4D
  8
0
 10
166.63645628830719
 20
194.34207856330951
 30
0.0
 40
5.9487386052256941
 50
97.120660526231134
 51
226.8793394742035
  0
ARC
  5
4E
  8
0
 10
196.04653738758819
 20
212.08616394643349
 30
0.0
 40
12.0
 50
207.33070659497881
 51
260.66929340467942
  0
ARC
  5
4F
  8
0
 10
163.9534626124138
 20
212.08616394643499
 30
0.0
 40
12.0
 50
279.3307065942231
 51
332.6692934054384
  0
ARC
  5
50
  8
0
 10
154.03615710514529
 20
181.56383605355441
 30
0.0
 40
12.0
 50
18.000000000195811
 51
46.13415975479397
  0
ARC
  5
51
  8
0
 10
205.96384289485471
 20
181.56383605355441
 30
0.0
 40
12.0
 50
135.33070659536139
 51
162.0
  0
ARC
  5
52
  8
0
 10
180.00000000004769
 20
162.70000000012379
 30
0.0
 40
12.0
 50
90.000000000195797
 51
118.1341597547939
  0
ARC
  5
53
  8
0
 10
171.7408757761512
 20
178.6322907392971
 30
0.0
 40
5.9487386052256941
 50
169.12066052623109
 51
298.8793394742035
  0
ARC
  5
54
  8
0
 10
205.96384289479241
 20
181.5638360537715
 30
0.0
 40
12.0
 50
162.0000000001958
 51
188.6692933875442
  0
ARC
  5
55
  8
0
 10
188.25912422395481
 20
178.6322907394707
 30
0.0
 40
5.9487386052256941
 50
241.12066052623109
 51
10.879339509920021
  0
ARC
  5
56
  8
0
 10
154.0361571051327
 20
181.56383605359349
 30
0.0
 40
12.0
 50
351.3307065905517
 51
18.00000066291939
  0
ARC
  5
57
  8
0
 10
179.99999999993361
 20
162.6999999999999
 30
0.0
 40
12.0
 50
63.33070659401826
 51
89.999999999999986
  0
ARC
  5
58
  8
0
 10
197.4297267796091
 20
121.9921860855538
 30
0.0
 40
8.0
 50
247.09638673322141
 51
258.8333164907765
  0
ARC
  5
59
  8
0
 10
191.74999999992721
 20
107.9921860855538
 30
0.0
 40
7.1100000000000003
 50
66.993549383058223
 51
102.97662264453859
  0
ARC
  5
5A
  8
0
 10
179.99999999993361
 20
152.70000000001161
 30
0.0
 40
39.119999999999997
 50
254.95689729696579
 51
285.04310270305712
  0
ARC
  5
5B
  8
0
 10
179.99999999993361
 20
88.284372171096038
 30
0.0
 40
39.119999999999997
 50
74.956897296942927
 51
105.0431027030327
  0
ARC
  5
5C
  8
0
 10
191.74999999992721
 20
132.99218608555381
 30
0.0
 40
7.1100000000000003
 50
257.02337735546132
 51
293.00645061694172
  0
ARC
  5
5D
  8
0
 10
197.4297267796091
 20
118.9921860855538
 30
0.0
 40
8.0
 50
101.1666835092235
 51
112.90361326677861
  0
CIRCLE
  5
5E
  8
3
 10
179.99999999993361
 20
190.00000000001111
 30
0.0
 40
4.0
  0
CIRCLE
  5
5F
  8
0
 10
179.99999999993361
 20
190.00000000001111
 30
0.0
 40
3.3235000000000001
  0
LINE
  5
60
  8
0
 10
190.50000000014219
 20
112.9097681789426
 30
0.0
 11
169.5
 21
112.9097681789426
 31
0.0
  0
LINE
  5
61
  8
1
 10
204.99999999993361
 20
190.000000000011
 30
0.0
 11
154.99999999993349
 21
190.00000000001111
 31
0.0
  0
LINE
  5
62
  8
1
 10
179.99999999993361
 20
214.99999999999909
 30
0.0
 11
179.99999999993361
 21
165.00000000001111
 31
0.0
  0
LINE
  5
63
  8
1
 10
179.99999999993361
 20
132.9999999999998
 30
0.0
 11
179.99999999993361
 21
95.000000000000369
 31
0.0
  0
LINE
  5
64
  8
0
 10
170.5
 20
101.5
 30
0.0
 11
189.5
 21
101.5
 31
0.0
  0
LINE
  5
65
  8
0
 10
194.2078628291805
 20
125.2636021070637
 30
0.0
 11
194.2078628291805
 21
115.720770064044
 31
0.0
  0
LINE
  5
66
  8
0
 10
188.25912422395481
 20
125.49890249262749
 30
0.0
 11
188.25912422395481
 21
115.4854696784802
 31
0.0
  0
LINE
  5
67
  8
2
 10
173.49999999993349
 20
118.0
 30
0.0
 11
186.49999999993361
 21
118.0
 31
0.0
  0
LINE
  5
68
  8
2
 10
172.49999999993349
 20
117.0
 30
0.0
 11
172.49999999993349
 21
101.5
 31
0.0
  0
LINE
  5
69
  8
2
 10
172.49999999993349
 20
117.0
 30
0.0
 11
173.49999999993349
 21
118.0
 31
0.0
  0
LINE
  5
6A
  8
2
 10
176.6764999999335
 20
101.1999999999999
 30
0.0
 11
176.67649999993341
 21
118.0
 31
0.0
  0
LINE
  5
6B
  8
2
 10
175.99999999993361
 20
100.5235
 30
0.0
 11
175.99999999993361
 21
118.0
 31
0.0
  0
LINE
  5
6C
  8
2
 10
173.49999999993361
 20
118.0
 30
0.0
 11
173.23855882528471
 21
127.9840356566453
 31
0.0
  0
CIRCLE
  5
6D
  8
0
 10
179.99999999993361
 20
190.00000000001111
 30
0.0
 40
6.7614411746489083
  0
CIRCLE
  5
6E
  8
0
 10
179.99999999993361
 20
190.00000000001111
 30
0.0
 40
6.5000000000000142
  0
LINE
  5
6F
  8
2
 10
176.67649999993361
 20
101.2
 30
0.0
 11
175.47649999993351
 21
100.0
 31
0.0
  0
LINE
  5
70
  8
2
 10
176.6764999999335
 20
101.1999999999999
 30
0.0
 11
183.32349999993369
 21
101.1999999999999
 31
0.0
  0
LINE
  5
71
  8
0
 10
171.74087577591229
 20
125.49890249262749
 30
0.0
 11
171.74087577591229
 21
115.4854696784802
 31
0.0
  0
LINE
  5
72
  8
0
 10
165.7921371706866
 20
125.2636021070637
 30
0.0
 11
165.7921371706866
 21
115.720770064044
 31
0.0
  0
ARC
  5
73
  8
0
 10
162.570273220258
 20
118.9921860855538
 30
0.0
 40
8.0
 50
67.096386733221365
 51
78.833316490776525
  0
ARC
  5
74
  8
0
 10
168.24999999993989
 20
132.99218608555381
 30
0.0
 40
7.1100000000000003
 50
246.99354938305831
 51
282.97662264453868
  0
ARC
  5
75
  8
0
 10
168.24999999993989
 20
107.9921860855538
 30
0.0
 40
7.1100000000000003
 50
77.023377355461363
 51
113.00645061694181
  0
ARC
  5
76
  8
0
 10
162.570273220258
 20
121.9921860855538
 30
0.0
 40
8.0
 50
281.16668350922362
 51
292.90361326677868
  0
ARC
  5
77
  8
0
 10
168.99999999968301
 20
112.59510798340089
 30
0.0
 40
0.5
 50
0.0000000010454865
 51
78.000000000000014
  0
LINE
  5
78
  8
2
 10
186.49999999993361
 20
118.0
 30
0.0
 11
186.7614411745825
 21
127.9840356566453
 31
0.0
  0
LINE
  5
79
  8
2
 10
187.49999999993361
 20
117.0
 30
0.0
 11
186.49999999993361
 21
118.0
 31
0.0
  0
LINE
  5
7A
  8
2
 10
187.49999999993361
 20
117.0
 30
0.0
 11
187.49999999993361
 21
101.5
 31
0.0
  0
LINE
  5
7B
  8
2
 10
183.99999999993361
 20
100.5235
 30
0.0
 11
183.99999999993361
 21
118.0
 31
0.0
  0
LINE
  5
7C
  8
2
 10
183.32349999993369
 20
101.1999999999999
 30
0.0
 11
183.32349999993369
 21
118.0
 31
0.0
  0
LINE
  5
7D
  8
2
 10
183.3234999999336
 20
101.2
 30
0.0
 11
184.52349999993359
 21
100.0
 31
0.0
  0
LINE
  5
7E
  8
2
 10
273.32349999993357
 20
101.2
 30
0.0
 11
274.52349999993362
 21
100.0
 31
0.0
  0
LINE
  5
7F
  8
2
 10
273.32349999993369
 20
101.1999999999999
 30
0.0
 11
273.32349999993369
 21
118.0
 31
0.0
  0
LINE
  5
80
  8
2
 10
273.99999999993361
 20
100.5235
 30
0.0
 11
273.99999999993361
 21
118.0
 31
0.0
  0
LINE
  5
81
  8
2
 10
277.49999999993361
 20
117.0
 30
0.0
 11
277.49999999993361
 21
101.5
 31
0.0
  0
LINE
  5
82
  8
2
 10
277.49999999993361
 20
117.0
 30
0.0
 11
276.49999999993361
 21
118.0
 31
0.0
  0
LINE
  5
83
  8
2
 10
276.49999999993361
 20
118.0
 30
0.0
 11
276.7614411745825
 21
127.9840356566453
 31
0.0
  0
ARC
  5
84
  8
0
 10
258.99999999968298
 20
112.59510798340089
 30
0.0
 40
0.5
 50
0.0000000010454865
 51
78.000000000000014
  0
LINE
  5
85
  8
2
 10
266.67649999993353
 20
101.1999999999999
 30
0.0
 11
273.32349999993369
 21
101.1999999999999
 31
0.0
  0
LINE
  5
86
  8
2
 10
266.67649999993358
 20
101.2
 30
0.0
 11
265.47649999993348
 21
100.0
 31
0.0
  0
LINE
  5
87
  8
2
 10
263.49999999993361
 20
118.0
 30
0.0
 11
263.23855882528471
 21
127.9840356566453
 31
0.0
  0
LINE
  5
88
  8
2
 10
265.99999999993361
 20
100.5235
 30
0.0
 11
265.99999999993361
 21
118.0
 31
0.0
  0
LINE
  5
89
  8
2
 10
266.67649999993353
 20
101.1999999999999
 30
0.0
 11
266.67649999993353
 21
118.0
 31
0.0
  0
LINE
  5
8A
  8
2
 10
262.49999999993361
 20
117.0
 30
0.0
 11
263.49999999993349
 21
118.0
 31
0.0
  0
LINE
  5
8B
  8
2
 10
262.49999999993361
 20
117.0
 30
0.0
 11
262.49999999993361
 21
101.5
 31
0.0
  0
LINE
  5
8C
  8
2
 10
263.49999999993349
 20
118.0
 30
0.0
 11
276.49999999993361
 21
118.0
 31
0.0
  0
LINE
  5
8D
  8
0
 10
260.5
 20
101.5
 30
0.0
 11
279.5
 21
101.5
 31
0.0
  0
LINE
  5
8E
  8
0
 10
280.50000000014222
 20
112.9097681789426
 30
0.0
 11
259.5
 21
112.9097681789426
 31
0.0
  0
LINE
  5
8F
  8
0
 10
263.4999999999996
 20
128.0
 30
0.0
 11
276.5
 21
128.0
 31
0.0
  0
ARC
  5
90
  8
0
 10
289.0
 20
115.82907136902691
 30
0.0
 40
1.0
 50
281.99999999979019
 51
360.0
  0
LINE
  5
91
  8
0
 10
290.0
 20
115.82907136902691
 30
0.0
 11
290.0
 21
125.1553008020785
 31
0.0
  0
ARC
  5
92
  8
0
 10
289.0
 20
125.1553008020785
 30
0.0
 40
1.0
 50
360.0
 51
81.653147491010571
  0
ARC
  5
93
  8
0
 10
272.12047751435472
 20
54.129709742023323
 30
0.0
 40
74.0
 50
76.699198622719663
 51
86.607096359301849
  0
ARC
  5
94
  8
0
 10
267.87952248564528
 20
54.129709742023323
 30
0.0
 40
74.0
 50
93.392903640698606
 51
101.21349236809721
  0
LINE
  5
95
  8
0
 10
259.10395584540709
 20
113.0841817837683
 30
0.0
 11
253.4756404433534
 21
114.28051715360171
 31
0.0
  0
ARC
  5
96
  8
0
 10
259.0
 20
112.59510798340099
 30
0.0
 40
0.5
 50
360.0
 51
78.000000000209781
  0
ARC
  5
97
  8
0
 10
281.00000000018417
 20
112.59510798340089
 30
0.0
 40
0.5
 50
102.0
 51
179.99999999895451
  0
LINE
  5
98
  8
0
 10
280.5
 20
102.5
 30
0.0
 11
280.50000000018417
 21
112.59510989075871
 31
0.0
  0
LINE
  5
99
  8
0
 10
259.5
 20
102.5
 30
0.0
 11
259.5
 21
112.59510798340099
 31
0.0
  0
LINE
  5
9A
  8
0
 10
280.5
 20
102.5
 30
0.0
 11
279.5
 21
101.5
 31
0.0
  0
LINE
  5
9B
  8
0
 10
259.5
 20
102.5
 30
0.0
 11
280.5
 21
102.5
 31
0.0
  0
LINE
  5
9C
  8
0
 10
260.5
 20
101.5
 30
0.0
 11
259.5
 21
102.5
 31
0.0
  0
LINE
  5
9D
  8
0
 10
277.0
 20
100.0
 30
0.0
 11
277.0
 21
101.5
 31
0.0
  0
LINE
  5
9E
  8
0
 10
263.0
 20
100.0
 30
0.0
 11
277.0
 21
100.0
 31
0.0
  0
LINE
  5
9F
  8
0
 10
263.0
 20
101.5
 30
0.0
 11
263.0
 21
100.0
 31
0.0
  0
LINE
  5
A0
  8
1
 10
269.99999999993361
 20
132.9999999999998
 30
0.0
 11
269.99999999993361
 21
95.000000000000369
 31
0.0
  0
LINE
  5
A1
  8
0
 10
252.6835521341676
 20
125.736095112184
 30
0.0
 11
252.6835521341676
 21
115.25866475433619
 31
0.0
  0
ARC
  5
A2
  8
0
 10
253.6835521341676
 20
125.736095112184
 30
0.0
 40
1.0
 50
101.2134923680962
 51
180.0
  0
ARC
  5
A3
  8
0
 10
253.6835521341676
 20
115.25866475433619
 30
0.0
 40
1.0
 50
180.0
 51
258.00000000020981
  0
ARC
  5
A4
  8
0
 10
264.87753182515411
 20
117.00563862000359
 30
0.0
 40
10.406214304765911
 50
63.844137788634683
 51
115.04635451742421
  0
ARC
  5
A5
  8
0
 10
273.71347276888167
 20
149.87766134740721
 30
0.0
 40
23.995475261853329
 50
261.19445036535382
 51
290.15506206511759
  0
ARC
  5
A6
  8
0
 10
282.32596418562872
 20
126.4128200915541
 30
0.0
 40
1.0
 50
81.963658020713666
 51
110.1550620651176
  0
ARC
  5
A7
  8
0
 10
270.346371217865
 20
128.14143446370119
 30
0.0
 40
2.0
 50
243.8441377886345
 51
261.19445036535399
  0
ARC
  5
A8
  8
0
 10
256.14173772207539
 20
143.16985539602689
 30
0.0
 40
17.28766931047312
 50
258.86067447822307
 51
284.50623868899879
  0
LINE
  5
A9
  8
0
 10
258.63229073939328
 20
125.2636021070637
 30
0.0
 11
258.63229073939328
 21
115.720770064044
 31
0.0
  0
ARC
  5
AA
  8
0
 10
256.14173772207539
 20
97.824904470493337
 30
0.0
 40
17.28766931047312
 50
75.493761311001137
 51
101.1393255217769
  0
ARC
  5
AB
  8
0
 10
264.87753182515411
 20
123.9891212465167
 30
0.0
 40
10.406214304765911
 50
244.95364548257581
 51
296.15586221136527
  0
ARC
  5
AC
  8
0
 10
273.71347276888167
 20
91.117098519113114
 30
0.0
 40
23.995475261853329
 50
69.129601737558801
 51
98.805549634646212
  0
ARC
  5
AD
  8
0
 10
270.346371217865
 20
112.8533254028191
 30
0.0
 40
2.0
 50
98.805549634645971
 51
116.1558622113654
  0
ARC
  5
AE
  8
0
 10
282.61824323339522
 20
114.47258709332741
 30
0.0
 40
1.0
 50
249.1296017375582
 51
281.99999999979161
  0
LINE
  5
AF
  8
0
 10
280.89604415446013
 20
113.0841817837683
 30
0.0
 11
289.20791899040501
 21
114.8509253198965
 31
0.0
  0
LINE
  5
B0
  8
0
 10
280.24493635244528
 20
125.2636021070636
 30
0.0
 11
280.24493635244528
 21
115.720770064044
 31
0.0
  0
LINE
  5
B1
  8
0
 10
269.99999999993361
 20
125.2636021070636
 30
0.0
 11
269.99999999993361
 21
115.720770064044
 31
0.0
  0
LINE
  5
B2
  8
0
 10
89.999999999933607
 20
125.2636021070636
 30
0.0
 11
89.999999999933578
 21
115.720770064044
 31
0.0
  0
LINE
  5
B3
  8
0
 10
79.755063647421906
 20
125.2636021070636
 30
0.0
 11
79.755063647421863
 21
115.720770064044
 31
0.0
  0
LINE
  5
B4
  8
0
 10
79.103955845407143
 20
113.0841817837683
 30
0.0
 11
70.792081009462152
 21
114.8509253198965
 31
0.0
  0
ARC
  5
B5
  8
0
 10
77.381756766471995
 20
114.47258709332741
 30
0.0
 40
1.0
 50
258.0000000002085
 51
290.87039826244182
  0
ARC
  5
B6
  8
0
 10
89.653628782002272
 20
112.8533254028191
 30
0.0
 40
2.0
 50
63.844137788634562
 51
81.194450365354086
  0
ARC
  5
B7
  8
0
 10
86.286527230985456
 20
91.117098519113114
 30
0.0
 40
23.995475261853329
 50
81.194450365353816
 51
110.8703982624412
  0
ARC
  5
B8
  8
0
 10
95.122468174713163
 20
123.9891212465167
 30
0.0
 40
10.406214304765911
 50
243.8441377886347
 51
295.04635451742428
  0
ARC
  5
B9
  8
0
 10
103.85826227779179
 20
97.824904470493337
 30
0.0
 40
17.28766931047312
 50
78.860674478223132
 51
104.50623868899891
  0
LINE
  5
BA
  8
0
 10
101.3677092604739
 20
125.2636021070637
 30
0.0
 11
101.3677092604739
 21
115.720770064044
 31
0.0
  0
ARC
  5
BB
  8
0
 10
103.85826227779179
 20
143.16985539602689
 30
0.0
 40
17.28766931047312
 50
255.49376131100121
 51
281.13932552177693
  0
ARC
  5
BC
  8
0
 10
89.653628782002272
 20
128.14143446370119
 30
0.0
 40
2.0
 50
278.80554963464601
 51
296.1558622113655
  0
ARC
  5
BD
  8
0
 10
77.67403581423855
 20
126.4128200915541
 30
0.0
 40
1.0
 50
69.844937934882367
 51
98.036341979286348
  0
ARC
  5
BE
  8
0
 10
86.286527230985456
 20
149.87766134740721
 30
0.0
 40
23.995475261853329
 50
249.84493793488241
 51
278.80554963464618
  0
ARC
  5
BF
  8
0
 10
95.122468174713163
 20
117.00563862000359
 30
0.0
 40
10.406214304765911
 50
64.953645482575752
 51
116.1558622113653
  0
ARC
  5
C0
  8
0
 10
106.3164478656996
 20
115.25866475433619
 30
0.0
 40
1.0
 50
281.99999999979019
 51
0.0000000000000254
  0
ARC
  5
C1
  8
0
 10
106.3164478656996
 20
125.736095112184
 30
0.0
 40
1.0
 50
0.0000000000000254
 51
78.786507631903774
  0
LINE
  5
C2
  8
0
 10
107.3164478656996
 20
125.736095112184
 30
0.0
 11
107.3164478656996
 21
115.25866475433619
 31
0.0
  0
LINE
  5
C3
  8
1
 10
89.999999999933607
 20
132.9999999999998
 30
0.0
 11
89.999999999933607
 21
95.000000000000369
 31
0.0
  0
LINE
  5
C4
  8
0
 10
96.999999999867214
 20
101.5
 30
0.0
 11
96.999999999867214
 21
100.0
 31
0.0
  0
LINE
  5
C5
  8
0
 10
96.999999999867214
 20
100.0
 30
0.0
 11
82.999999999867214
 21
100.0
 31
0.0
  0
LINE
  5
C6
  8
0
 10
82.999999999867214
 20
100.0
 30
0.0
 11
82.999999999867214
 21
101.5
 31
0.0
  0
LINE
  5
C7
  8
0
 10
99.499999999867214
 20
101.5
 30
0.0
 11
100.4999999998672
 21
102.5
 31
0.0
  0
LINE
  5
C8
  8
0
 10
100.4999999998672
 20
102.5
 30
0.0
 11
79.499999999867214
 21
102.5
 31
0.0
  0
LINE
  5
C9
  8
0
 10
79.499999999867214
 20
102.5
 30
0.0
 11
80.499999999867214
 21
101.5
 31
0.0
  0
LINE
  5
CA
  8
0
 10
100.4999999998672
 20
102.5
 30
0.0
 11
100.4999999998672
 21
112.59510798340099
 31
0.0
  0
LINE
  5
CB
  8
0
 10
79.499999999867214
 20
102.5
 30
0.0
 11
79.499999999683041
 21
112.59510989075871
 31
0.0
  0
ARC
  5
CC
  8
0
 10
78.999999999683041
 20
112.59510798340089
 30
0.0
 40
0.5
 50
0.0000000010454865
 51
78.000000000000014
  0
ARC
  5
CD
  8
0
 10
100.9999999998672
 20
112.59510798340099
 30
0.0
 40
0.5
 50
101.99999999979021
 51
180.0
  0
LINE
  5
CE
  8
0
 10
100.8960441544601
 20
113.0841817837683
 30
0.0
 11
106.5243595565137
 21
114.28051715360171
 31
0.0
  0
ARC
  5
CF
  8
0
 10
92.120477514221903
 20
54.129709742023323
 30
0.0
 40
74.0
 50
78.786507631902793
 51
86.607096359301423
  0
ARC
  5
D0
  8
0
 10
87.879522485512581
 20
54.129709742023323
 30
0.0
 40
74.0
 50
93.392903640698165
 51
103.30080137728029
  0
ARC
  5
D1
  8
0
 10
70.999999999867214
 20
125.1553008020785
 30
0.0
 40
1.0
 50
98.346852508989457
 51
180.0
  0
LINE
  5
D2
  8
0
 10
69.999999999867214
 20
115.82907136902691
 30
0.0
 11
69.999999999867214
 21
125.1553008020785
 31
0.0
  0
ARC
  5
D3
  8
0
 10
70.999999999867214
 20
115.82907136902691
 30
0.0
 40
1.0
 50
180.0
 51
258.00000000020992
  0
LINE
  5
D4
  8
0
 10
96.499999999867612
 20
128.0
 30
0.0
 11
83.499999999867214
 21
128.0
 31
0.0
  0
LINE
  5
D5
  8
0
 10
79.499999999724992
 20
112.9097681789426
 30
0.0
 11
100.4999999998672
 21
112.9097681789426
 31
0.0
  0
LINE
  5
D6
  8
0
 10
99.499999999867214
 20
101.5
 30
0.0
 11
80.499999999867214
 21
101.5
 31
0.0
  0
LINE
  5
D7
  8
2
 10
96.499999999933664
 20
118.0
 30
0.0
 11
83.499999999933607
 21
118.0
 31
0.0
  0
LINE
  5
D8
  8
2
 10
97.499999999933664
 20
117.0
 30
0.0
 11
97.499999999933635
 21
101.5
 31
0.0
  0
LINE
  5
D9
  8
2
 10
97.499999999933664
 20
117.0
 30
0.0
 11
96.499999999933664
 21
118.0
 31
0.0
  0
LINE
  5
DA
  8
2
 10
93.323499999933716
 20
101.1999999999999
 30
0.0
 11
93.323499999933745
 21
118.0
 31
0.0
  0
LINE
  5
DB
  8
2
 10
93.999999999933635
 20
100.5235
 30
0.0
 11
93.999999999933607
 21
118.0
 31
0.0
  0
LINE
  5
DC
  8
2
 10
96.499999999933621
 20
118.0
 30
0.0
 11
96.761441174582501
 21
127.9840356566453
 31
0.0
  0
LINE
  5
DD
  8
2
 10
93.323499999933631
 20
101.2
 30
0.0
 11
94.523499999933676
 21
100.0
 31
0.0
  0
LINE
  5
DE
  8
2
 10
93.323499999933674
 20
101.1999999999999
 30
0.0
 11
86.676499999933526
 21
101.1999999999999
 31
0.0
  0
ARC
  5
DF
  8
0
 10
101.0000000001841
 20
112.59510798340089
 30
0.0
 40
0.5
 50
102.0
 51
179.99999999895451
  0
LINE
  5
E0
  8
2
 10
83.499999999933607
 20
118.0
 30
0.0
 11
83.238558825284713
 21
127.9840356566453
 31
0.0
  0
LINE
  5
E1
  8
2
 10
82.499999999933607
 20
117.0
 30
0.0
 11
83.499999999933607
 21
118.0
 31
0.0
  0
LINE
  5
E2
  8
2
 10
82.499999999933607
 20
117.0
 30
0.0
 11
82.499999999933607
 21
101.5
 31
0.0
  0
LINE
  5
E3
  8
2
 10
85.999999999933607
 20
100.5235
 30
0.0
 11
85.999999999933607
 21
118.0
 31
0.0
  0
LINE
  5
E4
  8
2
 10
86.676499999933526
 20
101.1999999999999
 30
0.0
 11
86.676499999933526
 21
118.0
 31
0.0
  0
LINE
  5
E5
  8
2
 10
86.676499999933583
 20
101.2
 30
0.0
 11
85.476499999933594
 21
100.0
 31
0.0
  0
TEXT
  5
272
  8
0
 62
     3
 10
0.0
 20
0.0
 30
0.0
 40
10.0
  1
TLK40
  7
STANDARD1
  0
ENDSEC
  0
EOF
