  0
SECTION
  2
HEADER
  9
$ACADVER
  1
AC1009
  9
$INSBASE
 10
0.0
 20
0.0
 30
0.0
  9
$EXTMIN
 10
0.0
 20
-2.960436562073669
 30
0.0
  9
$EXTMAX
 10
231.93506210896871
 20
224.81578947368419
 30
0.0
  9
$LIMMIN
 10
0.0
 20
0.0
  9
$LIMMAX
 10
187.5
 20
135.0
  9
$ORTHOMODE
 70
     1
  9
$REGENMODE
 70
     1
  9
$FILLMODE
 70
     1
  9
$QTEXTMODE
 70
     0
  9
$MIRRTEXT
 70
     0
  9
$DRAGMODE
 70
     2
  9
$LTSCALE
 40
5.0
  9
$OSMODE
 70
    37
  9
$ATTMODE
 70
     1
  9
$TEXTSIZE
 40
0.2
  9
$TRACEWID
 40
0.05
  9
$TEXTSTYLE
  7
STANDARD
  9
$CLAYER
  8
0
  9
$CELTYPE
  6
BYLAYER
  9
$CECOLOR
 62
   256
  9
$DIMSCALE
 40
1.0
  9
$DIMASZ
 40
3.0
  9
$DIMEXO
 40
2.0
  9
$DIMDLI
 40
0.3799999999999999
  9
$DIMRND
 40
0.0
  9
$DIMDLE
 40
0.0
  9
$DIMEXE
 40
2.0
  9
$DIMTP
 40
0.0
  9
$DIMTM
 40
0.0
  9
$DIMTXT
 40
3.2000000000000002
  9
$DIMCEN
 40
0.0
  9
$DIMTSZ
 40
0.0
  9
$DIMTOL
 70
     0
  9
$DIMLIM
 70
     0
  9
$DIMTIH
 70
     0
  9
$DIMTOH
 70
     0
  9
$DIMSE1
 70
     0
  9
$DIMSE2
 70
     0
  9
$DIMTAD
 70
     1
  9
$DIMZIN
 70
     8
  9
$DIMBLK
  1

  9
$DIMASO
 70
     0
  9
$DIMSHO
 70
     0
  9
$DIMPOST
  1

  9
$DIMAPOST
  1

  9
$DIMALT
 70
     0
  9
$DIMALTD
 70
     2
  9
$DIMALTF
 40
25.399999999999999
  9
$DIMLFAC
 40
1.0
  9
$DIMTOFL
 70
     0
  9
$DIMTVP
 40
1.6000000000000001
  9
$DIMTIX
 70
     0
  9
$DIMSOXD
 70
     0
  9
$DIMSAH
 70
     0
  9
$DIMBLK1
  1

  9
$DIMBLK2
  1

  9
$DIMSTYLE
  2
STANDARD
  9
$DIMCLRD
 70
     0
  9
$DIMCLRE
 70
     0
  9
$DIMCLRT
 70
     0
  9
$DIMTFAC
 40
1.0
  9
$DIMGAP
 40
1.0
  9
$LUNITS
 70
     2
  9
$LUPREC
 70
     1
  9
$SKETCHINC
 40
0.1
  9
$FILLETRAD
 40
0.4
  9
$AUNITS
 70
     0
  9
$AUPREC
 70
     1
  9
$MENU
  1
E:\r13\win\SUPPORT\ACAD
  9
$ELEVATION
 40
0.0
  9
$PELEVATION
 40
0.0
  9
$THICKNESS
 40
0.0
  9
$LIMCHECK
 70
     0
  9
$BLIPMODE
 70
     0
  9
$CHAMFERA
 40
0.0
  9
$CHAMFERB
 40
0.0
  9
$SKPOLY
 70
     0
  9
$TDCREATE
 40
2456129.6740617128
  9
$TDUPDATE
 40
2458837.7111864472
  9
$TDINDWG
 40
0.7832093634
  9
$TDUSRTIMER
 40
0.7832091898
  9
$USRTIMER
 70
     1
  9
$ANGBASE
 50
0.0
  9
$ANGDIR
 70
     0
  9
$PDMODE
 70
     0
  9
$PDSIZE
 40
0.0
  9
$PLINEWID
 40
0.0
  9
$COORDS
 70
     1
  9
$SPLFRAME
 70
     0
  9
$SPLINETYPE
 70
     6
  9
$SPLINESEGS
 70
     8
  9
$ATTDIA
 70
     0
  9
$ATTREQ
 70
     1
  9
$HANDLING
 70
     1
  9
$HANDSEED
  5
CD2E
  9
$SURFTAB1
 70
     6
  9
$SURFTAB2
 70
     6
  9
$SURFTYPE
 70
     6
  9
$SURFU
 70
     6
  9
$SURFV
 70
     6
  9
$UCSNAME
  2

  9
$UCSORG
 10
0.0
 20
0.0
 30
0.0
  9
$UCSXDIR
 10
1.0
 20
0.0
 30
0.0
  9
$UCSYDIR
 10
0.0
 20
1.0
 30
0.0
  9
$PUCSNAME
  2

  9
$PUCSORG
 10
0.0
 20
0.0
 30
0.0
  9
$PUCSXDIR
 10
1.0
 20
0.0
 30
0.0
  9
$PUCSYDIR
 10
0.0
 20
1.0
 30
0.0
  9
$USERI1
 70
     0
  9
$USERI2
 70
     1
  9
$USERI3
 70
     0
  9
$USERI4
 70
     0
  9
$USERI5
 70
     0
  9
$USERR1
 40
0.0
  9
$USERR2
 40
0.0
  9
$USERR3
 40
0.0
  9
$USERR4
 40
0.0
  9
$USERR5
 40
0.0
  9
$WORLDVIEW
 70
     1
  9
$SHADEDGE
 70
     3
  9
$SHADEDIF
 70
    70
  9
$TILEMODE
 70
     1
  9
$MAXACTVP
 70
    16
  9
$PLIMCHECK
 70
     0
  9
$PEXTMIN
 10
1.0000000000000000E+020
 20
1.0000000000000000E+020
 30
1.0000000000000000E+020
  9
$PEXTMAX
 10
-1.0000000000000000E+020
 20
-1.0000000000000000E+020
 30
-1.0000000000000000E+020
  9
$PLIMMIN
 10
0.0
 20
0.0
  9
$PLIMMAX
 10
12.0
 20
9.0
  9
$UNITMODE
 70
     0
  9
$VISRETAIN
 70
     0
  9
$PLINEGEN
 70
     0
  9
$PSLTSCALE
 70
     0
  0
ENDSEC
  0
SECTION
  2
TABLES
  0
TABLE
  2
VPORT
 70
     1
  0
VPORT
  2
*ACTIVE
 70
     0
 10
0.0
 20
0.0
 11
1.0
 21
1.0
 12
362.34662576687123
 22
150.0
 13
0.0
 23
0.0
 14
5.0
 24
5.0
 15
5.0
 25
5.0
 16
0.0
 26
0.0
 36
1.0
 17
0.0
 27
0.0
 37
0.0
 40
300.0
 41
2.415644171779141
 42
50.0
 43
0.0
 44
0.0
 50
0.0
 51
0.0
 71
     0
 72
   500
 73
     1
 74
     0
 75
     0
 76
     0
 77
     0
 78
     2
  0
ENDTAB
  0
TABLE
  2
LTYPE
 70
     4
  0
LTYPE
  2
CONTINUOUS
 70
     0
  3
Solid Line
 72
    65
 73
     0
 40
0.0
  0
LTYPE
  2
CENTER
 70
     0
  3
____ _ ____ _ ____ _ ____ _ ____ _ ____ _ ____
 72
    65
 73
     4
 40
2.0
 49
1.25
 49
-0.25
 49
0.25
 49
-0.25
  0
LTYPE
  2
PHANTOM2
 70
     0
  3
___ _ _ ___ _ _ ___ _ _ ___ _ _
 72
    65
 73
     6
 40
1.25
 49
0.625
 49
-0.125
 49
0.125
 49
-0.125
 49
0.125
 49
-0.125
  0
LTYPE
  2
HIDDEN
 70
     0
  3
_ _ _ _ _ _ _ _ _ _ _ _ _ _ _ _ _ _ _ _ _ _ _
 72
    65
 73
     2
 40
0.375
 49
0.25
 49
-0.125
  0
ENDTAB
  0
TABLE
  2
LAYER
 70
     4
  0
LAYER
  2
0
 70
     0
 62
     7
  6
CONTINUOUS
  0
LAYER
  2
1
 70
     0
 62
     1
  6
CENTER
  0
LAYER
  2
DEFPOINTS
 70
     0
 62
     7
  6
CONTINUOUS
  0
LAYER
  2
2
 70
     0
 62
     2
  6
HIDDEN
  0
ENDTAB
  0
TABLE
  2
STYLE
 70
     2
  0
STYLE
  2
STANDARD
 70
     0
 40
0.0
 41
1.0
 50
0.0
 71
     0
 42
0.2
  3
TXT
  4
BIGFONT
  0
STYLE
  2
STANDARD1
 70
     0
 40
0.0
 41
1.0
 50
0.0
 71
     0
 42
3.0
  3
txt
  4

  0
ENDTAB
  0
TABLE
  2
VIEW
 70
     0
  0
ENDTAB
  0
TABLE
  2
UCS
 70
     0
  0
ENDTAB
  0
TABLE
  2
APPID
 70
    45
  0
APPID
  2
ACAD
 70
     0
  0
APPID
  2
ACAD_MLEADERVER
 70
     0
  0
APPID
  2
ACAD_PSEXT
 70
     0
  0
APPID
  2
ACAD_EXEMPT_FROM_CAD_STANDARDS
 70
     0
  0
APPID
  2
ACAD_DSTYLE_DIMJAG
 70
     0
  0
APPID
  2
ACAD_DSTYLE_DIMTALN
 70
     0
  0
APPID
  2
ACAD_NAV_VCDISPLAY
 70
     0
  0
APPID
  2
GENIUS_GENODEF_13
 70
     0
  0
APPID
  2
GENIUS_GENFIL_13
 70
     0
  0
APPID
  2
GENIUS_GENOBJ-N-CHA_13
 70
     0
  0
APPID
  2
ACAD_DSTYLE_DIMRADIAL_EXTENSION
 70
     0
  0
APPID
  2
GENIUS_GENOREF_13
 70
     0
  0
APPID
  2
DCO15
 70
     0
  0
APPID
  2
GENIUS_GENOENT_13
 70
     0
  0
APPID
  2
GENIUS_GENBH_13
 70
     0
  0
APPID
  2
GENIUS_GENOBJ_13
 70
     0
  0
APPID
  2
GENIUS_GENOLIS_13
 70
     0
  0
APPID
  2
GENIUS_GENOBJ-NBEHI-BHF_13
 70
     0
  0
APPID
  2
GENIUS_GENOBJ-NBEHI-BHB_13
 70
     0
  0
APPID
  2
GENIUS_GENOBJ-F-PART_13
 70
     0
  0
APPID
  2
GENIUS_GEFSTDP_13
 70
     0
  0
APPID
  2
GENIUS_GENOBJ-N-RSSYM_13
 70
     0
  0
APPID
  2
GENIUS_GENSYMENT_13
 70
     0
  0
APPID
  2
GENIUS_GENOBJ-N-TIT_13
 70
     0
  0
APPID
  2
GENIUS_GENTITLE_13
 70
     0
  0
APPID
  2
GENIUS_GENZVEED_13
 70
     0
  0
APPID
  2
GENIUS_GENOBJ-N-LEADER_13
 70
     0
  0
APPID
  2
GENIUS_GENOBJ-N-FIL_13
 70
     0
  0
APPID
  2
GENIUS_GENOBJ-N-SEC_13
 70
     0
  0
APPID
  2
GENIUS_GENOBJ-N-CRS_13
 70
     0
  0
APPID
  2
GENIUS_GENOBJ-N-ZOO_13
 70
     0
  0
APPID
  2
GENIUS_GENZOO_13
 70
     0
  0
APPID
  2
GENIUS_GENOBJ-F-TOL_13
 70
     0
  0
APPID
  2
_CALL_MAC$
 70
     0
  0
APPID
  2
ASM_BASE
 70
     0
  0
APPID
  2
ASM_EXPLO_VER_2_00
 70
     0
  0
APPID
  2
ASM_CADM_VER_12_00
 70
     0
  0
APPID
  2
ASM_BASEFORO
 70
     0
  0
APPID
  2
ASM_BASETRAVI
 70
     0
  0
APPID
  2
ASM_BASETRAVI1
 70
     0
  0
APPID
  2
ASM_GRUPPI
 70
     0
  0
APPID
  2
ASM_CADM_ALBERO
 70
     0
  0
APPID
  2
ASM_GOLE
 70
     0
  0
APPID
  2
GENIUS_GENOBJ-N-CEN_13
 70
     0
  0
APPID
  2
GENIUS_GENCEN_19
 70
     0
  0
ENDTAB
  0
TABLE
  2
DIMSTYLE
 70
     1
  0
DIMSTYLE
  2
STANDARD
 70
     0
  3

  4

  5

  6

  7

 40
1.0
 41
0.18
 42
0.0625
 43
0.38
 44
0.18
 45
0.0
 46
0.0
 47
0.0
 48
0.0
140
0.18
141
0.09
142
0.0
143
25.399999999999999
144
1.0
145
0.0
146
1.0
147
0.09
 71
     0
 72
     0
 73
     1
 74
     1
 75
     0
 76
     0
 77
     0
 78
     0
170
     0
171
     2
172
     0
173
     0
174
     0
175
     0
176
     0
177
     0
178
     0
  0
ENDTAB
  0
ENDSEC
  0
SECTION
  2
BLOCKS
  0
BLOCK
  8
0
  2
$MODEL_SPACE
 70
     0
 10
0.0
 20
0.0
 30
0.0
  3
$MODEL_SPACE
  1

  0
ENDBLK
  5
9
  8
0
  0
BLOCK
 67
     1
  8
0
  2
$PAPER_SPACE
 70
     0
 10
0.0
 20
0.0
 30
0.0
  3
$PAPER_SPACE
  1

  0
ENDBLK
  5
E
 67
     1
  8
0
  0
ENDSEC
  0
SECTION
  2
ENTITIES
  0
TEXT
  5
A08D
  8
0
 62
     3
 10
0.0
 20
0.0
 30
0.0
 40
10.0
  1
TLTK80M12-4
  7
STANDARD1
  0
ARC
  5
C3E1
  8
0
 10
218.353392429732
 20
255.81578947369169
 30
0.0
 40
128.00000000001469
 50
199.48869036056229
 51
220.51130963943959
  0
POLYLINE
  5
C3E2
  8
0
 66
     1
 10
0.0
 20
0.0
 30
0.0
 70
   128
  0
VERTEX
  5
CC8B
  8
0
 10
121.0378396684434
 20
172.66722850737889
 30
0.0
  0
VERTEX
  5
CC8C
  8
0
 10
122.01742985880649
 20
171.30378688524431
 30
0.0
  0
VERTEX
  5
CC8D
  8
0
 10
122.7763972992062
 20
169.74048475644349
 30
0.0
  0
SEQEND
  5
CC8E
  8
0
  0
POLYLINE
  5
C3E3
  8
0
 66
     1
 10
0.0
 20
0.0
 30
0.0
 70
   128
  0
VERTEX
  5
CC8F
  8
0
 10
113.4724340128449
 20
153.62554763271021
 30
0.0
  0
VERTEX
  5
CC90
  8
0
 10
111.7873820812635
 20
153.5005558397539
 30
0.0
  0
VERTEX
  5
CC91
  8
0
 10
110.06852075878599
 20
153.66781083142629
 30
0.0
  0
SEQEND
  5
CC92
  8
0
  0
ARC
  5
C3E4
  8
0
 10
86.717531054484013
 20
27.815789473687389
 30
0.0
 40
127.9999999999968
 50
79.488690360558692
 51
100.51130963944129
  0
POLYLINE
  5
C3E5
  8
0
 66
     1
 10
0.0
 20
0.0
 30
0.0
 70
   128
  0
VERTEX
  5
CC93
  8
0
 10
63.366541350182558
 20
153.66781083142641
 30
0.0
  0
VERTEX
  5
CC94
  8
0
 10
61.69597117365538
 20
153.50118165234119
 30
0.0
  0
VERTEX
  5
CC95
  8
0
 10
59.962628096123751
 20
153.62554763271021
 30
0.0
  0
SEQEND
  5
CC96
  8
0
  0
POLYLINE
  5
C3E6
  8
0
 66
     1
 10
0.0
 20
0.0
 30
0.0
 70
   128
  0
VERTEX
  5
CC97
  8
0
 10
50.658664809762513
 20
169.74048475644349
 30
0.0
  0
VERTEX
  5
CC98
  8
0
 10
51.392944707588519
 20
171.26227843236711
 30
0.0
  0
VERTEX
  5
CC99
  8
0
 10
52.39722244052529
 20
172.66722850737889
 30
0.0
  0
SEQEND
  5
CC9A
  8
0
  0
ARC
  5
C3E7
  8
0
 10
-44.918330320732281
 20
255.81578947367379
 30
0.0
 40
127.99999999997949
 50
319.4886903605601
 51
340.51130963944257
  0
POLYLINE
  5
C3E8
  8
0
 66
     1
 10
0.0
 20
0.0
 30
0.0
 70
   128
  0
VERTEX
  5
CC9B
  8
0
 10
75.74821214482705
 20
213.1123290822473
 30
0.0
  0
VERTEX
  5
CC9C
  8
0
 10
76.439192130991273
 20
214.64239988346719
 30
0.0
  0
VERTEX
  5
CC9D
  8
0
 10
77.413567768123073
 20
216.08133603189901
 30
0.0
  0
SEQEND
  5
CC9E
  8
0
  0
POLYLINE
  5
C3E9
  8
0
 66
     1
 10
0.0
 20
0.0
 30
0.0
 70
   128
  0
VERTEX
  5
CC9F
  8
0
 10
96.021494340845663
 20
216.08133603189901
 30
0.0
  0
VERTEX
  5
CCA0
  8
0
 10
96.972266374600963
 20
214.68453414893159
 30
0.0
  0
VERTEX
  5
CCA1
  8
0
 10
97.686849964141686
 20
213.11232908224741
 30
0.0
  0
SEQEND
  5
CCA2
  8
0
  0
CIRCLE
  5
C3EA
  8
0
 10
86.717531054484354
 20
179.81578947368419
 30
0.0
 40
15.0
  0
ARC
  5
C3EB
  8
0
 10
86.717531054484354
 20
179.81578947368419
 30
0.0
 40
40.000000000000021
 50
87.053229555972393
 51
92.946769478092705
  0
ARC
  5
C3EC
  8
0
 10
88.25977633402033
 20
209.7761212391699
 30
0.0
 40
9.9999999999962821
 50
39.088606818229742
 51
87.053229555982185
  0
ARC
  5
C3ED
  8
0
 10
85.177857112226476
 20
209.77105922612171
 30
0.0
 40
10.005187773574709
 50
92.959985783519883
 51
140.89817784231329
  0
ARC
  5
C3EE
  8
0
 10
86.717531054484354
 20
179.81578947368419
 30
0.0
 40
40.000000000000043
 50
207.05322847602531
 51
212.94677140996399
  0
ARC
  5
C3EF
  8
0
 10
61.545343441979689
 20
163.50475784867729
 30
0.0
 40
10.00518777221483
 50
212.9599857800404
 51
260.89817784574723
  0
ARC
  5
C3F0
  8
0
 10
60.000000000008129
 20
166.17124718188671
 30
0.0
 40
10.00000000000747
 50
159.08860681825979
 51
207.0532252361636
  0
ARC
  5
C3F1
  8
0
 10
86.717531054484354
 20
179.81578947368419
 30
0.0
 40
40.0
 50
327.05323063591959
 51
332.94677044402903
  0
ARC
  5
C3F2
  8
0
 10
111.8928168294275
 20
163.5000000000112
 30
0.0
 40
10.00000000001223
 50
279.08860681827008
 51
327.05323387573048
  0
ARC
  5
C3F3
  8
0
 10
113.429392609945
 20
166.17155134492961
 30
0.0
 40
10.00518777219558
 50
332.95998577999131
 51
20.898177845794301
  0
ARC
  5
C3F5
  8
0
 10
276.79440967475398
 20
179.70793602576521
 30
0.0
 40
103.3504913835891
 50
188.2847963278484
 51
193.36690119091261
  0
ARC
  5
C3F6
  8
0
 10
277.43506210896737
 20
179.8157894736845
 30
0.0
 40
103.99999999999859
 50
158.8998039759056
 51
171.7072627158382
  0
ARC
  5
C3F7
  8
0
 10
76.050258187400743
 20
174.83882868937059
 30
0.0
 40
128.98086222595049
 50
8.3483848141055699
 51
19.139294374513732
  0
ARC
  5
C3F8
  8
0
 10
76.050258187400743
 20
184.7927502579978
 30
0.0
 40
128.9808622259506
 50
347.01205793019989
 51
351.65161518589429
  0
LINE
  5
C3F9
  8
0
 10
180.0185485656072
 20
153.5
 30
0.0
 11
198.21070871461271
 21
153.5
 31
0.0
  0
LINE
  5
C3FA
  8
0
 10
173.43506210896871
 20
164.81578947368419
 30
0.0
 11
174.52247784445811
 21
164.81578947368419
 31
0.0
  0
LINE
  5
C3FB
  8
0
 10
174.52247784445811
 20
194.81578947368419
 30
0.0
 11
173.43506210896871
 21
194.81578947368419
 31
0.0
  0
LINE
  5
C3FC
  8
0
 10
225.43506210896871
 20
166.06578947368419
 30
0.0
 11
226.63506210896881
 21
167.26578947368421
 31
0.0
  0
LINE
  5
C3FD
  8
0
 10
226.63506210896881
 20
192.3657894736842
 30
0.0
 11
225.43506210896871
 21
193.56578947368419
 31
0.0
  0
LINE
  5
C3FE
  8
0
 10
203.6643787240107
 20
166.06578947368419
 30
0.0
 11
225.43506210896871
 21
166.06578947368419
 31
0.0
  0
LINE
  5
C3FF
  8
0
 10
225.43506210896871
 20
193.56578947368419
 30
0.0
 11
203.6643787240107
 21
193.56578947368419
 31
0.0
  0
ARC
  5
C400
  8
0
 10
194.12271309379639
 20
215.81578947368419
 30
0.0
 40
4.0
 50
19.139294374513732
 51
90.0
  0
ARC
  5
C401
  8
0
 10
184.1398317914439
 20
215.81578947368419
 30
0.0
 40
4.0000000000000471
 50
90.0
 51
158.8998039759056
  0
LINE
  5
C404
  8
0
 10
194.12271309379651
 20
219.81578947368419
 30
0.0
 11
184.1398317914439
 21
219.81578947368419
 31
0.0
  0
ARC
  5
C405
  8
0
 10
167.38062120953219
 20
178.79151034449521
 30
0.0
 40
31.778844302542488
 50
327.29950529910133
 51
343.82564627498891
  0
ARC
  5
C406
  8
0
 10
211.24611556168989
 20
179.00111863290931
 30
0.0
 40
32.198560815956121
 50
196.7149349596896
 51
212.66425237644609
  0
POLYLINE
  5
C407
  8
0
 66
     1
 10
0.0
 20
0.0
 30
0.0
 70
   128
  0
VERTEX
  5
CCA3
  8
0
 10
179.52176121091091
 20
172.66722850737889
 30
0.0
  0
VERTEX
  5
CCA4
  8
0
 10
179.980134289289
 20
171.30378688524431
 30
0.0
  0
VERTEX
  5
CCA5
  8
0
 10
180.40802257874299
 20
169.74048475644349
 30
0.0
  0
SEQEND
  5
CCA6
  8
0
  0
POLYLINE
  5
C408
  8
0
 66
     1
 10
0.0
 20
0.0
 30
0.0
 70
   128
  0
VERTEX
  5
CCA7
  8
0
 10
197.9016102082341
 20
169.93915609568961
 30
0.0
  0
VERTEX
  5
CCA8
  8
0
 10
198.25853824305301
 20
171.35630633045
 30
0.0
  0
VERTEX
  5
CCA9
  8
0
 10
198.66083540365801
 20
172.66722850737889
 30
0.0
  0
SEQEND
  5
CCAA
  8
0
  0
ARC
  5
C409
  8
0
 10
210.98456834284329
 20
168.4928160626595
 30
0.0
 40
19.82767082410875
 50
211.74257888971661
 51
228.71283690652729
  0
ARC
  5
C40A
  8
0
 10
168.03356158473349
 20
167.82364869808049
 30
0.0
 40
18.833835476469819
 50
311.07402175164611
 51
328.779337242341
  0
LINE
  5
C40B
  8
0
 10
174.52247784445819
 20
194.81578947368439
 30
0.0
 11
174.52247784445819
 21
164.8157894736843
 31
0.0
  0
POLYLINE
  5
C40C
  8
0
 66
     1
 10
0.0
 20
0.0
 30
0.0
 70
   128
  0
VERTEX
  5
CCAB
  8
0
 10
179.52176121091091
 20
172.66722850737889
 30
0.0
  0
VERTEX
  5
CCAC
  8
0
 10
178.5221397980811
 20
175.64229736885909
 30
0.0
  0
VERTEX
  5
CCAD
  8
0
 10
177.6994041972865
 20
178.72572760618709
 30
0.0
  0
VERTEX
  5
CCAE
  8
0
 10
177.05798910113469
 20
181.90591064766551
 30
0.0
  0
VERTEX
  5
CCAF
  8
0
 10
176.59023215047779
 20
185.27373103678789
 30
0.0
  0
VERTEX
  5
CCB0
  8
0
 10
176.31826233876981
 20
188.7309733849583
 30
0.0
  0
VERTEX
  5
CCB1
  8
0
 10
176.2437248244926
 20
192.26110435027331
 30
0.0
  0
VERTEX
  5
CCB2
  8
0
 10
176.35292925924691
 20
195.6089823132537
 30
0.0
  0
VERTEX
  5
CCB3
  8
0
 10
176.63347306873689
 20
199.00515221100889
 30
0.0
  0
VERTEX
  5
CCB4
  8
0
 10
177.08388383395379
 20
202.43444396550831
 30
0.0
  0
VERTEX
  5
CCB5
  8
0
 10
177.72229339263879
 20
205.98170096614581
 30
0.0
  0
VERTEX
  5
CCB6
  8
0
 10
178.53633588679159
 20
209.546529467554
 30
0.0
  0
VERTEX
  5
CCB7
  8
0
 10
179.52176121091091
 20
213.11232908224741
 30
0.0
  0
SEQEND
  5
CCB8
  8
0
  0
POLYLINE
  5
C40D
  8
0
 66
     1
 10
0.0
 20
0.0
 30
0.0
 70
   128
  0
VERTEX
  5
CCB9
  8
0
 10
180.40802257874299
 20
153.62554763271021
 30
0.0
  0
VERTEX
  5
CCBA
  8
0
 10
179.9927148040791
 20
153.5005558397539
 30
0.0
  0
VERTEX
  5
CCBB
  8
0
 10
179.521761210911
 20
153.66781083142629
 30
0.0
  0
SEQEND
  5
CCBC
  8
0
  0
POLYLINE
  5
C40E
  8
0
 66
     1
 10
0.0
 20
0.0
 30
0.0
 70
   128
  0
VERTEX
  5
CCBD
  8
0
 10
176.24372519167491
 20
155.81475877338579
 30
0.0
  0
VERTEX
  5
CCBE
  8
0
 10
176.30901281381369
 20
155.77130118792809
 30
0.0
  0
VERTEX
  5
CCBF
  8
0
 10
176.4701666523892
 20
155.66417800841461
 30
0.0
  0
VERTEX
  5
CCC0
  8
0
 10
176.72891919464769
 20
155.4925164444723
 30
0.0
  0
VERTEX
  5
CCC1
  8
0
 10
177.08388826661641
 20
155.25775688005939
 30
0.0
  0
VERTEX
  5
CCC2
  8
0
 10
177.54442275743281
 20
154.95440023628279
 30
0.0
  0
VERTEX
  5
CCC3
  8
0
 10
178.1032854728893
 20
154.58816397921049
 30
0.0
  0
VERTEX
  5
CCC4
  8
0
 10
178.76401315743971
 20
154.15780932436559
 30
0.0
  0
VERTEX
  5
CCC5
  8
0
 10
179.521761210911
 20
153.66781083142629
 30
0.0
  0
SEQEND
  5
CCC6
  8
0
  0
POLYLINE
  5
C40F
  8
0
 66
     1
 10
0.0
 20
0.0
 30
0.0
 70
   128
  0
VERTEX
  5
CCC7
  8
0
 10
180.4080225787429
 20
216.08133603189901
 30
0.0
  0
VERTEX
  5
CCC8
  8
0
 10
179.9927148040789
 20
214.68453414893159
 30
0.0
  0
VERTEX
  5
CCC9
  8
0
 10
179.52176121091091
 20
213.11232908224741
 30
0.0
  0
SEQEND
  5
CCCA
  8
0
  0
POLYLINE
  5
C410
  8
0
 66
     1
 10
0.0
 20
0.0
 30
0.0
 70
   128
  0
VERTEX
  5
CCCB
  8
0
 10
198.66083540365801
 20
153.66781083142629
 30
0.0
  0
VERTEX
  5
CCCC
  8
0
 10
199.41498502189521
 20
154.19980551137681
 30
0.0
  0
VERTEX
  5
CCCD
  8
0
 10
200.0692004732127
 20
154.6596833807817
 30
0.0
  0
VERTEX
  5
CCCE
  8
0
 10
200.62354498174389
 20
155.04744912626549
 30
0.0
  0
VERTEX
  5
CCCF
  8
0
 10
201.06987176221989
 20
155.35792536878719
 30
0.0
  0
VERTEX
  5
CCD0
  8
0
 10
201.41066426021359
 20
155.5935967106501
 30
0.0
  0
VERTEX
  5
CCD1
  8
0
 10
201.63132619445039
 20
155.74540402042891
 30
0.0
  0
VERTEX
  5
CCD2
  8
0
 10
201.7314525808554
 20
155.80481834859251
 30
0.0
  0
VERTEX
  5
CCD3
  8
0
 10
201.7314525808554
 20
155.80481834859251
 30
0.0
  0
SEQEND
  5
CCD4
  8
0
  0
POLYLINE
  5
C411
  8
0
 66
     1
 10
0.0
 20
0.0
 30
0.0
 70
   128
  0
VERTEX
  5
CCD5
  8
0
 10
198.66083540365801
 20
153.66781083142629
 30
0.0
  0
VERTEX
  5
CCD6
  8
0
 10
198.26807044410381
 20
153.50325433829349
 30
0.0
  0
VERTEX
  5
CCD7
  8
0
 10
197.9016102082341
 20
153.59406655952071
 30
0.0
  0
SEQEND
  5
CCD8
  8
0
  0
POLYLINE
  5
C412
  8
0
 66
     1
 10
0.0
 20
0.0
 30
0.0
 70
   128
  0
VERTEX
  5
CCD9
  8
0
 10
198.66083540365801
 20
213.11232908224741
 30
0.0
  0
VERTEX
  5
CCDA
  8
0
 10
199.64699638884079
 20
209.19493921685651
 30
0.0
  0
VERTEX
  5
CCDB
  8
0
 10
200.4530508777508
 20
205.28905653263081
 30
0.0
  0
VERTEX
  5
CCDC
  8
0
 10
201.06987130927669
 20
201.4123648540151
 30
0.0
  0
VERTEX
  5
CCDD
  8
0
 10
201.49802880628161
 20
197.46059874677681
 30
0.0
  0
VERTEX
  5
CCDE
  8
0
 10
201.7100043920494
 20
193.56052412667361
 30
0.0
  0
VERTEX
  5
CCDF
  8
0
 10
201.70066257397519
 20
189.73375001647551
 30
0.0
  0
VERTEX
  5
CCE0
  8
0
 10
201.39787431536911
 20
185.27782800636439
 30
0.0
  0
VERTEX
  5
CCE1
  8
0
 10
200.78958006855569
 20
180.9624872672326
 30
0.0
  0
VERTEX
  5
CCE2
  8
0
 10
199.8687128042483
 20
176.72516593822999
 30
0.0
  0
VERTEX
  5
CCE3
  8
0
 10
198.66083540365801
 20
172.66722850737889
 30
0.0
  0
SEQEND
  5
CCE4
  8
0
  0
POLYLINE
  5
C413
  8
0
 66
     1
 10
0.0
 20
0.0
 30
0.0
 70
   128
  0
VERTEX
  5
CCE5
  8
0
 10
198.66083540365801
 20
213.11232908224741
 30
0.0
  0
VERTEX
  5
CCE6
  8
0
 10
198.26807044410381
 20
214.5535707091791
 30
0.0
  0
VERTEX
  5
CCE7
  8
0
 10
197.9016102082341
 20
215.91414576584239
 30
0.0
  0
SEQEND
  5
CCE8
  8
0
  0
LINE
  5
C414
  8
0
 10
203.6643787240107
 20
166.06578947368419
 30
0.0
 11
203.6643787240107
 21
193.56578947368419
 31
0.0
  0
LINE
  5
C416
  8
0
 10
173.43506210896871
 20
164.81578947368419
 30
0.0
 11
173.43506210896871
 21
194.81578947368419
 31
0.0
  0
LINE
  5
C419
  8
0
 10
226.63506210896881
 20
167.26578947368421
 30
0.0
 11
226.63506210896881
 21
192.3657894736842
 31
0.0
  0
LINE
  5
C41B
  8
0
 10
225.43506210896871
 20
166.06578947368419
 30
0.0
 11
225.43506210896871
 21
193.56578947368419
 31
0.0
  0
ARC
  5
C41C
  8
0
 10
184.98369614514041
 20
215.17536479793139
 30
0.0
 40
4.6645013091439402
 50
100.42288688329791
 51
168.8004401622191
  0
ARC
  5
C41D
  8
0
 10
193.37760721504111
 20
215.25178537190081
 30
0.0
 40
4.5722340681424063
 50
8.3295086498436142
 51
80.621067202520734
  0
LINE
  5
C420
  8
0
 10
184.1398317914439
 20
161.62306641795371
 30
0.0
 11
194.12271309379651
 21
161.62306641795371
 31
0.0
  0
LINE
  5
C421
  8
0
 10
180.52176121091091
 20
172.66722850737889
 30
0.0
 11
197.66083540365801
 21
172.66722850737889
 31
0.0
  0
LINE
  5
C422
  8
0
 10
197.9016102082341
 20
153.59406655952071
 30
0.0
 11
197.9016102082341
 21
169.93915609568961
 31
0.0
  0
LINE
  5
C423
  8
0
 10
194.12271309379651
 20
158.0614041414652
 30
0.0
 11
194.12271309379651
 21
161.62306641795371
 31
0.0
  0
LINE
  5
C424
  8
0
 10
184.1398317914439
 20
158.0614041414652
 30
0.0
 11
184.1398317914439
 21
161.62306641795371
 31
0.0
  0
LINE
  5
C425
  8
0
 10
180.40802257874299
 20
153.62554763271021
 30
0.0
 11
180.40802257874299
 21
169.74048475644349
 31
0.0
  0
LINE
  5
C426
  8
0
 10
180.4080225787429
 20
216.08133603189901
 30
0.0
 11
180.4080225787429
 21
217.2557894736843
 31
0.0
  0
LINE
  5
C427
  8
0
 10
197.9016102082341
 20
215.91414576584239
 30
0.0
 11
197.90161020823419
 21
217.12725300672449
 31
0.0
  0
LINE
  5
C428
  8
0
 10
184.1398317914439
 20
158.0614041414652
 30
0.0
 11
194.12271309379651
 21
158.0614041414652
 31
0.0
  0
LINE
  5
C429
  8
0
 10
180.52176121091091
 20
213.11232908224741
 30
0.0
 11
197.66083540365801
 21
213.11232908224741
 31
0.0
  0
LINE
  5
C42A
  8
0
 10
184.1398317914439
 20
219.762898494327
 30
0.0
 11
194.12271309379651
 21
219.762898494327
 31
0.0
  0
LINE
  5
C42B
  8
0
 10
194.12271309379651
 20
219.762898494327
 30
0.0
 11
194.12271309379651
 21
219.81578947368419
 31
0.0
  0
LINE
  5
C42C
  8
0
 10
184.1398317914439
 20
219.762898494327
 30
0.0
 11
184.1398317914439
 21
219.81578947368419
 31
0.0
  0
ARC
  5
C42D
  8
0
 10
81.740570270170792
 20
200.88480392156799
 30
0.0
 40
128.98086222595049
 50
278.34838481410708
 51
285.12345054445791
  0
ARC
  5
C42E
  8
0
 10
91.694491838797944
 20
200.88480392156799
 30
0.0
 40
128.98086222595049
 50
254.88915308331241
 51
261.65161518589622
  0
ARC
  5
C42F
  8
0
 10
86.717531054484354
 20
-0.4999999999986074
 30
0.0
 40
103.99999999999859
 50
74.010954493560291
 51
81.707262715838311
  0
ARC
  5
C430
  8
0
 10
86.717531054484354
 20
-0.4999999999986074
 30
0.0
 40
103.99999999999859
 50
98.292737284161674
 51
105.98918357053471
  0
LINE
  5
C431
  8
0
 10
123.43506210896869
 20
80.384162596527815
 30
0.0
 11
123.43506210896869
 21
95.218272426412739
 31
0.0
  0
LINE
  5
C432
  8
0
 10
50.0
 20
95.223416736169071
 30
0.0
 11
50.0
 21
80.389457591393679
 31
0.0
  0
LINE
  5
C433
  8
0
 10
71.717531054484368
 20
103.5
 30
0.0
 11
71.717531054484368
 21
102.4125842645106
 31
0.0
  0
LINE
  5
C434
  8
0
 10
101.7175310544844
 20
102.4125842645106
 30
0.0
 11
101.7175310544844
 21
103.5
 31
0.0
  0
LINE
  5
C435
  8
0
 10
72.967531054484368
 20
51.5
 30
0.0
 11
74.167531054484357
 21
50.299999999999997
 31
0.0
  0
LINE
  5
C436
  8
0
 10
99.267531054484394
 20
50.299999999999997
 30
0.0
 11
100.4675310544843
 21
51.5
 31
0.0
  0
LINE
  5
C437
  8
0
 10
72.967531054484368
 20
73.27068338495809
 30
0.0
 11
72.967531054484368
 21
51.5
 31
0.0
  0
LINE
  5
C438
  8
0
 10
100.4675310544843
 20
51.5
 30
0.0
 11
100.4675310544843
 21
73.27068338495809
 31
0.0
  0
ARC
  5
C43B
  8
0
 10
86.717531054470896
 20
165.83391743653399
 30
0.0
 40
90.619910401183404
 50
255.06752053448901
 51
284.93247946553117
  0
LINE
  5
C43C
  8
0
 10
63.366541350182558
 20
96.376341375063973
 30
0.0
 11
63.366541350182558
 21
79.304999920763407
 31
0.0
  0
ARC
  5
C43D
  8
0
 10
86.717531054484311
 20
15.99628490886229
 30
0.0
 40
84.699464064156302
 50
73.996725285862652
 51
106.00327471413731
  0
LINE
  5
C43E
  8
0
 10
110.06852075878599
 20
96.376444395838689
 30
0.0
 11
110.06852075878599
 21
79.305075180681797
 31
0.0
  0
POLYLINE
  5
C440
  8
0
 66
     1
 10
0.0
 20
0.0
 30
0.0
 70
   128
  0
VERTEX
  5
CCE9
  8
0
 10
60.173858392431377
 20
79.03345190073459
 30
0.0
  0
VERTEX
  5
CCEA
  8
0
 10
61.757268015365923
 20
78.676523865915556
 30
0.0
  0
VERTEX
  5
CCEB
  8
0
 10
63.366541350182558
 20
78.274226705303533
 30
0.0
  0
SEQEND
  5
CCEC
  8
0
  0
POLYLINE
  5
C441
  8
0
 66
     1
 10
0.0
 20
0.0
 30
0.0
 70
   128
  0
VERTEX
  5
CCED
  8
0
 10
110.06852075878599
 20
78.274226705310738
 30
0.0
  0
VERTEX
  5
CCEE
  8
0
 10
111.6377165057315
 20
78.666991664864895
 30
0.0
  0
VERTEX
  5
CCEF
  8
0
 10
113.2612037165373
 20
79.03345190073459
 30
0.0
  0
SEQEND
  5
CCF0
  8
0
  0
POLYLINE
  5
C443
  8
0
 66
     1
 10
0.0
 20
0.0
 30
0.0
 70
   128
  0
VERTEX
  5
CCF1
  8
0
 10
122.698045560173
 20
79.03345190073459
 30
0.0
  0
VERTEX
  5
CCF2
  8
0
 10
121.9858025228684
 20
78.676523865915684
 30
0.0
  0
VERTEX
  5
CCF3
  8
0
 10
121.0378396684434
 20
78.274226705310738
 30
0.0
  0
SEQEND
  5
CCF4
  8
0
  0
POLYLINE
  5
C444
  8
0
 66
     1
 10
0.0
 20
0.0
 30
0.0
 70
   128
  0
VERTEX
  5
CCF5
  8
0
 10
115.39163135217269
 20
76.371074121979163
 30
0.0
  0
VERTEX
  5
CCF6
  8
0
 10
117.70468148361461
 20
77.063841991441478
 30
0.0
  0
VERTEX
  5
CCF7
  8
0
 10
121.0378396684434
 20
78.274226705310738
 30
0.0
  0
SEQEND
  5
CCF8
  8
0
  0
ARC
  5
C445
  8
0
 10
71.843933535164297
 20
126.6439521693711
 30
0.0
 40
52.132570566459933
 50
248.09775034421361
 51
254.68093464829269
  0
POLYLINE
  5
C446
  8
0
 66
     1
 10
0.0
 20
0.0
 30
0.0
 70
   128
  0
VERTEX
  5
CCF9
  8
0
 10
52.39722244052529
 20
78.274226705310738
 30
0.0
  0
VERTEX
  5
CCFA
  8
0
 10
51.470114463641828
 20
78.666991664864895
 30
0.0
  0
VERTEX
  5
CCFB
  8
0
 10
50.737016548795737
 20
79.03345190073459
 30
0.0
  0
SEQEND
  5
CCFC
  8
0
  0
LINE
  5
C447
  8
0
 10
72.967531054484368
 20
73.27068338495809
 30
0.0
 11
100.4675310544843
 21
73.27068338495809
 31
0.0
  0
LINE
  5
C448
  8
0
 10
101.7175310544844
 20
102.4125842645105
 30
0.0
 11
71.717531054484368
 21
102.4125842645106
 31
0.0
  0
ARC
  5
C449
  8
0
 10
103.9010772717976
 20
59.127760472295947
 30
0.0
 40
41.945813034577561
 50
65.886518022976546
 51
74.139505062159031
  0
POLYLINE
  5
C44A
  8
0
 66
     1
 10
0.0
 20
0.0
 30
0.0
 70
   128
  0
VERTEX
  5
CCFD
  8
0
 10
121.0378396684434
 20
97.413300898057798
 30
0.0
  0
VERTEX
  5
CCFE
  8
0
 10
122.01742985880649
 20
96.954927819679739
 30
0.0
  0
VERTEX
  5
CCFF
  8
0
 10
122.7763972992062
 20
96.527039530225693
 30
0.0
  0
SEQEND
  5
CD00
  8
0
  0
POLYLINE
  5
C44C
  8
0
 66
     1
 10
0.0
 20
0.0
 30
0.0
 70
   128
  0
VERTEX
  5
CD01
  8
0
 10
113.4724340128449
 20
96.527039530225693
 30
0.0
  0
VERTEX
  5
CD02
  8
0
 10
111.7873820812635
 20
96.942347304889608
 30
0.0
  0
VERTEX
  5
CD03
  8
0
 10
110.06852075878599
 20
97.413300898057685
 30
0.0
  0
SEQEND
  5
CD04
  8
0
  0
POLYLINE
  5
C44D
  8
0
 66
     1
 10
0.0
 20
0.0
 30
0.0
 70
   128
  0
VERTEX
  5
CD05
  8
0
 10
63.366541350182558
 20
97.413300898057685
 30
0.0
  0
VERTEX
  5
CD06
  8
0
 10
61.69597117365538
 20
96.954927819679654
 30
0.0
  0
VERTEX
  5
CD07
  8
0
 10
59.962628096123751
 20
96.527039530225593
 30
0.0
  0
SEQEND
  5
CD08
  8
0
  0
POLYLINE
  5
C44F
  8
0
 66
     1
 10
0.0
 20
0.0
 30
0.0
 70
   128
  0
VERTEX
  5
CD09
  8
0
 10
50.658664809762513
 20
96.527039530225693
 30
0.0
  0
VERTEX
  5
CD0A
  8
0
 10
51.392944707588519
 20
96.942347304889665
 30
0.0
  0
VERTEX
  5
CD0B
  8
0
 10
52.39722244052529
 20
97.413300898057798
 30
0.0
  0
SEQEND
  5
CD0C
  8
0
  0
ARC
  5
C450
  8
0
 10
69.034553666905026
 20
60.500882714557328
 30
0.0
 40
40.488608354571618
 50
105.7120522288337
 51
114.2622563623236
  0
ARC
  5
C451
  8
0
 10
63.242964552134133
 20
93.15381782641191
 30
0.0
 40
14.45005697201761
 50
225.69811537639109
 51
257.7373131537459
  0
LINE
  5
C452
  8
0
 10
53.150483721302059
 20
92.795230317524783
 30
0.0
 11
53.150483721302059
 21
82.812349015172273
 31
0.0
  0
ARC
  5
C453
  8
0
 10
63.257323573901942
 20
82.429373367376002
 30
0.0
 40
14.477541556854391
 50
103.1542176177753
 51
134.2751432009124
  0
ARC
  5
C454
  8
0
 10
110.17873135738709
 20
82.431184581496694
 30
0.0
 40
14.475551938291581
 50
45.722664584833609
 51
76.847977502864609
  0
LINE
  5
C455
  8
0
 10
120.28457916445871
 20
92.795230317524783
 30
0.0
 11
120.28457916445871
 21
82.812349015172273
 31
0.0
  0
ARC
  5
C456
  8
0
 10
110.2145202642982
 20
93.112144455139628
 30
0.0
 40
14.40457788689441
 50
282.2107395153277
 51
314.35382945776809
  0
LINE
  5
C457
  8
0
 10
120.28457916445871
 20
82.812349015172273
 30
0.0
 11
122.34090579379691
 21
82.812349015172273
 31
0.0
  0
POLYLINE
  5
C458
  8
0
 66
     1
 10
0.0
 20
0.0
 30
0.0
 70
   128
  0
VERTEX
  5
CD0D
  8
0
 10
122.34090579379691
 20
82.812349015172273
 30
0.0
  0
VERTEX
  5
CD0E
  8
0
 10
122.3500997695442
 20
82.80125501425789
 30
0.0
  0
VERTEX
  5
CD0F
  8
0
 10
123.0068676926204
 20
81.842696418250284
 30
0.0
  0
VERTEX
  5
CD10
  8
0
 10
123.3739374870466
 20
80.898001067466254
 30
0.0
  0
VERTEX
  5
CD11
  8
0
 10
123.42355163641631
 20
80.161459917485516
 30
0.0
  0
VERTEX
  5
CD12
  8
0
 10
123.20429445113091
 20
79.511135448814386
 30
0.0
  0
VERTEX
  5
CD13
  8
0
 10
122.698045560173
 20
79.03345190073459
 30
0.0
  0
SEQEND
  5
CD14
  8
0
  0
LINE
  5
C459
  8
0
 10
51.09415597226365
 20
82.812349015172273
 30
0.0
 11
53.150483721302059
 21
82.812349015172273
 31
0.0
  0
POLYLINE
  5
C45A
  8
0
 66
     1
 10
0.0
 20
0.0
 30
0.0
 70
   128
  0
VERTEX
  5
CD15
  8
0
 10
50.737016548795737
 20
79.03345190073459
 30
0.0
  0
VERTEX
  5
CD16
  8
0
 10
50.298279375582233
 20
79.413204472041997
 30
0.0
  0
VERTEX
  5
CD17
  8
0
 10
50.053457861854497
 20
79.929180409919752
 30
0.0
  0
VERTEX
  5
CD18
  8
0
 10
50.025055303326042
 20
80.704344425008884
 30
0.0
  0
VERTEX
  5
CD19
  8
0
 10
50.300847646386671
 20
81.589179433337407
 30
0.0
  0
VERTEX
  5
CD1A
  8
0
 10
50.633042073941681
 20
82.187595216444478
 30
0.0
  0
VERTEX
  5
CD1B
  8
0
 10
51.084962339422987
 20
82.801255014263816
 30
0.0
  0
VERTEX
  5
CD1C
  8
0
 10
51.094156315171801
 20
82.812349015172344
 30
0.0
  0
SEQEND
  5
CD1D
  8
0
  0
LINE
  5
C45B
  8
0
 10
120.28457916445871
 20
92.795230317524783
 30
0.0
 11
122.34090579379691
 21
92.795230317524783
 31
0.0
  0
POLYLINE
  5
C45C
  8
0
 66
     1
 10
0.0
 20
0.0
 30
0.0
 70
   128
  0
VERTEX
  5
CD1E
  8
0
 10
122.7763972992062
 20
96.527039530225693
 30
0.0
  0
VERTEX
  5
CD1F
  8
0
 10
123.19195436192661
 20
96.115755016078666
 30
0.0
  0
VERTEX
  5
CD20
  8
0
 10
123.40538658211079
 20
95.569755690282079
 30
0.0
  0
VERTEX
  5
CD21
  8
0
 10
123.3858764356925
 20
94.765544808202009
 30
0.0
  0
VERTEX
  5
CD22
  8
0
 10
123.0549498784747
 20
93.856013233844763
 30
0.0
  0
VERTEX
  5
CD23
  8
0
 10
122.35009976953221
 20
92.806324318488265
 30
0.0
  0
VERTEX
  5
CD24
  8
0
 10
122.34090579379691
 20
92.795230317524783
 30
0.0
  0
SEQEND
  5
CD25
  8
0
  0
LINE
  5
C45D
  8
0
 10
51.09415597226365
 20
92.795230317524783
 30
0.0
 11
53.150483721302059
 21
92.795230317524783
 31
0.0
  0
POLYLINE
  5
C45E
  8
0
 66
     1
 10
0.0
 20
0.0
 30
0.0
 70
   128
  0
VERTEX
  5
CD26
  8
0
 10
51.09415597226365
 20
92.795230317524783
 30
0.0
  0
VERTEX
  5
CD27
  8
0
 10
51.084962339423441
 20
92.806324318434889
 30
0.0
  0
VERTEX
  5
CD28
  8
0
 10
50.428194416348163
 20
93.764882914447014
 30
0.0
  0
VERTEX
  5
CD29
  8
0
 10
50.061124621921692
 20
94.709578265232835
 30
0.0
  0
VERTEX
  5
CD2A
  8
0
 10
50.011510472552906
 20
95.446119415215918
 30
0.0
  0
VERTEX
  5
CD2B
  8
0
 10
50.230767657841341
 20
96.096443883888512
 30
0.0
  0
VERTEX
  5
CD2C
  8
0
 10
50.658664809762513
 20
96.527039530225693
 30
0.0
  0
SEQEND
  5
CD2D
  8
0
  0
LINE
  5
C45F
  8
0
 10
51.09415597226365
 20
92.795230317524783
 30
0.0
 11
51.09415597226365
 21
82.812349015172273
 31
0.0
  0
LINE
  5
C460
  8
0
 10
122.34090579379691
 20
92.795230317524783
 30
0.0
 11
122.34090579379691
 21
82.812349015172273
 31
0.0
  0
LINE
  5
C461
  8
0
 10
71.717531054484368
 20
103.5
 30
0.0
 11
101.7175310544844
 21
103.5
 31
0.0
  0
LINE
  5
C462
  8
0
 10
74.167531054484357
 20
50.299999999999997
 30
0.0
 11
99.267531054484394
 21
50.299999999999997
 31
0.0
  0
LINE
  5
C463
  8
0
 10
72.967531054484368
 20
51.5
 30
0.0
 11
100.4675310544843
 21
51.5
 31
0.0
  0
LINE
  5
C530
  8
0
 10
50.737016548795737
 20
79.03345190073459
 30
0.0
 11
60.173858392431377
 21
79.03345190073459
 31
0.0
  0
LINE
  5
C533
  8
0
 10
113.2612037165373
 20
79.03345190073459
 30
0.0
 11
122.698045560173
 21
79.03345190073459
 31
0.0
  0
LINE
  5
C53C
  8
0
 10
113.4724340128449
 20
96.527039530225693
 30
0.0
 11
122.7763972992062
 21
96.527039530225693
 31
0.0
  0
LINE
  5
C53F
  8
0
 10
50.658664809762513
 20
96.527039530225693
 30
0.0
 11
59.962628096123751
 21
96.527039530225593
 31
0.0
  0
LINE
  5
C578
  8
0
 10
198.26807044410381
 20
153.50325433829349
 30
0.0
 11
198.21070871461271
 21
153.5
 31
0.0
  0
LINE
  5
C579
  8
0
 10
179.9927148040791
 20
153.5005558397539
 30
0.0
 11
180.0185485656072
 21
153.5
 31
0.0
  0
LINE
  5
C581
  8
0
 10
123.42355163641631
 20
80.161459917485516
 30
0.0
 11
123.43506210896869
 21
80.384162596527815
 31
0.0
  0
LINE
  5
C582
  8
0
 10
123.43506210896869
 20
95.218272426412739
 30
0.0
 11
123.40538658211079
 21
95.569755690282079
 31
0.0
  0
LINE
  5
C583
  8
0
 10
50.0
 20
95.223416736169071
 30
0.0
 11
50.011510472552906
 21
95.446119415215918
 31
0.0
  0
LINE
  5
C584
  8
0
 10
50.0
 20
80.389457591393679
 30
0.0
 11
50.053457861854497
 21
79.929180409919752
 31
0.0
  0
LINE
  5
C5B2
  8
1
 10
86.717531054484354
 20
224.81578947368419
 30
0.0
 11
86.717531054484354
 21
150.81578947368419
 31
0.0
  0
LINE
  5
C5B3
  8
1
 10
51.79257909488922
 20
179.81578947368419
 30
0.0
 11
121.6424830140798
 21
179.81578947368419
 31
0.0
  0
LINE
  5
C5C3
  8
1
 10
86.717531054484354
 20
108.5
 30
0.0
 11
86.717531054484354
 21
45.0
 31
0.0
  0
LINE
  5
C5C4
  8
1
 10
168.43506210896871
 20
179.81578947368419
 30
0.0
 11
231.93506210896871
 21
179.81578947368419
 31
0.0
  0
LINE
  5
CB23
  8
0
 10
226.63506210896881
 20
169.94078947368419
 30
0.0
 11
226.93506210896871
 21
169.94078947368419
 31
0.0
  0
LINE
  5
CB24
  8
0
 10
226.93506210896871
 20
189.69078947368411
 30
0.0
 11
226.63506210896881
 21
189.69078947368411
 31
0.0
  0
LINE
  5
CB42
  8
0
 10
226.93506210896871
 20
169.94078947368419
 30
0.0
 11
226.93506210896871
 21
189.69078947368411
 31
0.0
  0
LINE
  5
CBA4
  8
0
 10
76.842531054484368
 20
50.299999999999997
 30
0.0
 11
76.842531054484368
 21
50.0
 31
0.0
  0
LINE
  5
CBA5
  8
0
 10
96.592531054484368
 20
50.0
 30
0.0
 11
96.592531054484368
 21
50.299999999999997
 31
0.0
  0
LINE
  5
CBCF
  8
0
 10
76.842531054484368
 20
50.0
 30
0.0
 11
96.592531054484368
 21
50.0
 31
0.0
  0
LINE
  5
CBD0
  8
2
 10
81.664531054484385
 20
50.946999999999989
 30
0.0
 11
91.770531054484366
 21
50.946999999999989
 31
0.0
  0
LINE
  5
CBD2
  8
2
 10
92.717531054484368
 20
50.0
 30
0.0
 11
91.770531054484366
 21
50.946999999999989
 31
0.0
  0
LINE
  5
CBD3
  8
2
 10
81.664531054484385
 20
50.946999999999989
 30
0.0
 11
80.717531054484354
 21
50.0
 31
0.0
  0
LINE
  5
CBD4
  8
2
 10
81.664531054484357
 20
65.600000000000023
 30
0.0
 11
81.664531054484385
 21
50.946999999999989
 31
0.0
  0
LINE
  5
CBD5
  8
2
 10
91.770531054484366
 20
50.946999999999989
 30
0.0
 11
91.770531054484366
 21
65.600000000000023
 31
0.0
  0
LINE
  5
CBEA
  8
2
 10
80.717531054484382
 20
50.0
 30
0.0
 11
80.717531054484354
 21
62.0
 31
0.0
  0
LINE
  5
CBED
  8
2
 10
92.717531054484368
 20
50.000000000000007
 30
0.0
 11
92.717531054484368
 21
62.0
 31
0.0
  0
LINE
  5
CBEE
  8
2
 10
80.717531054484354
 20
62.0
 30
0.0
 11
92.717531054484368
 21
62.0
 31
0.0
  0
LINE
  5
CBEF
  8
2
 10
81.664531054484314
 20
65.600000000000023
 30
0.0
 11
91.770531054484366
 21
65.600000000000023
 31
0.0
  0
LINE
  5
CBF0
  8
2
 10
81.664531054484087
 20
65.600000000000023
 30
0.0
 11
86.717531054484155
 21
68.636148707946404
 31
0.0
  0
LINE
  5
CBF1
  8
2
 10
91.770531054484408
 20
65.599999999999966
 30
0.0
 11
86.717531054484155
 21
68.636148707946404
 31
0.0
  0
LINE
  5
CBF2
  8
2
 10
92.717531054484368
 20
62.0
 30
0.0
 11
91.770531054484408
 21
63.640252114767691
 31
0.0
  0
LINE
  5
CBF3
  8
2
 10
80.717531054484027
 20
62.0
 30
0.0
 11
81.664531054483973
 21
63.640252114767691
 31
0.0
  0
LINE
  5
CBFE
  8
2
 10
225.98806210896879
 20
174.76278947368419
 30
0.0
 11
225.98806210896879
 21
184.86878947368419
 31
0.0
  0
LINE
  5
CBFF
  8
2
 10
226.93506210896871
 20
185.81578947368419
 30
0.0
 11
225.98806210896879
 21
184.86878947368419
 31
0.0
  0
LINE
  5
CC00
  8
2
 10
225.98806210896879
 20
174.76278947368419
 30
0.0
 11
226.93506210896871
 21
173.81578947368419
 31
0.0
  0
LINE
  5
CC01
  8
2
 10
211.33506210896871
 20
174.76278947368419
 30
0.0
 11
225.98806210896879
 21
174.76278947368419
 31
0.0
  0
LINE
  5
CC02
  8
2
 10
225.98806210896879
 20
184.86878947368419
 30
0.0
 11
211.33506210896871
 21
184.86878947368419
 31
0.0
  0
LINE
  5
CC03
  8
2
 10
226.93506210896871
 20
173.81578947368419
 30
0.0
 11
214.93506210896871
 21
173.81578947368419
 31
0.0
  0
LINE
  5
CC04
  8
2
 10
226.93506210896871
 20
185.81578947368419
 30
0.0
 11
214.93506210896871
 21
185.81578947368419
 31
0.0
  0
LINE
  5
CC05
  8
2
 10
214.93506210896871
 20
173.81578947368419
 30
0.0
 11
214.93506210896871
 21
185.81578947368419
 31
0.0
  0
LINE
  5
CC06
  8
2
 10
211.33506210896871
 20
174.76278947368411
 30
0.0
 11
211.33506210896871
 21
184.86878947368419
 31
0.0
  0
LINE
  5
CC07
  8
2
 10
211.33506210896871
 20
174.76278947368391
 30
0.0
 11
208.2989134010223
 21
179.81578947368391
 31
0.0
  0
LINE
  5
CC08
  8
2
 10
211.33506210896871
 20
184.86878947368419
 30
0.0
 11
208.2989134010223
 21
179.81578947368391
 31
0.0
  0
LINE
  5
CC09
  8
2
 10
214.93506210896871
 20
185.81578947368419
 30
0.0
 11
213.29480999420099
 21
184.86878947368419
 31
0.0
  0
LINE
  5
CC0A
  8
2
 10
214.93506210896871
 20
173.81578947368379
 30
0.0
 11
213.29480999420099
 21
174.7627894736838
 31
0.0
  0
ENDSEC
  0
EOF
