  0
SECTION
  2
HEADER
  9
$ACADVER
  1
AC1009
  9
$INSBASE
 10
0.0
 20
0.0
 30
0.0
  9
$EXTMIN
 10
20.822807593008061
 20
17.862370869872631
 30
0.0
  9
$EXTMAX
 10
105.4544583433491
 20
278.22552433566699
 30
0.0
  9
$LIMMIN
 10
0.0
 20
0.0
  9
$LIMMAX
 10
750.0
 20
540.0
  9
$ORTHOMODE
 70
     1
  9
$REGENMODE
 70
     1
  9
$FILLMODE
 70
     1
  9
$QTEXTMODE
 70
     0
  9
$MIRRTEXT
 70
     0
  9
$DRAGMODE
 70
     2
  9
$LTSCALE
 40
10.0
  9
$OSMODE
 70
  3071
  9
$ATTMODE
 70
     1
  9
$TEXTSIZE
 40
0.2
  9
$TRACEWID
 40
0.05
  9
$TEXTSTYLE
  7
STANDARD
  9
$CLAYER
  8
0
  9
$CELTYPE
  6
BYLAYER
  9
$CECOLOR
 62
   256
  9
$DIMSCALE
 40
1.0
  9
$DIMASZ
 40
3.0
  9
$DIMEXO
 40
2.0
  9
$DIMDLI
 40
0.38
  9
$DIMRND
 40
0.0
  9
$DIMDLE
 40
0.0
  9
$DIMEXE
 40
2.0
  9
$DIMTP
 40
0.0
  9
$DIMTM
 40
0.0
  9
$DIMTXT
 40
3.2000000000000002
  9
$DIMCEN
 40
0.0
  9
$DIMTSZ
 40
0.0
  9
$DIMTOL
 70
     0
  9
$DIMLIM
 70
     0
  9
$DIMTIH
 70
     0
  9
$DIMTOH
 70
     0
  9
$DIMSE1
 70
     0
  9
$DIMSE2
 70
     0
  9
$DIMTAD
 70
     1
  9
$DIMZIN
 70
     0
  9
$DIMBLK
  1

  9
$DIMASO
 70
     0
  9
$DIMSHO
 70
     0
  9
$DIMPOST
  1

  9
$DIMAPOST
  1

  9
$DIMALT
 70
     0
  9
$DIMALTD
 70
     2
  9
$DIMALTF
 40
25.399999999999999
  9
$DIMLFAC
 40
1.0
  9
$DIMTOFL
 70
     0
  9
$DIMTVP
 40
1.6000000000000001
  9
$DIMTIX
 70
     1
  9
$DIMSOXD
 70
     0
  9
$DIMSAH
 70
     0
  9
$DIMBLK1
  1

  9
$DIMBLK2
  1

  9
$DIMSTYLE
  2
STANDARD
  9
$DIMCLRD
 70
     0
  9
$DIMCLRE
 70
     0
  9
$DIMCLRT
 70
     0
  9
$DIMTFAC
 40
1.0
  9
$DIMGAP
 40
0.09
  9
$LUNITS
 70
     2
  9
$LUPREC
 70
     4
  9
$SKETCHINC
 40
0.1
  9
$FILLETRAD
 40
0.0
  9
$AUNITS
 70
     0
  9
$AUPREC
 70
     4
  9
$MENU
  1
E:\r13\win\SUPPORT\ACAD
  9
$ELEVATION
 40
0.0
  9
$PELEVATION
 40
0.0
  9
$THICKNESS
 40
0.0
  9
$LIMCHECK
 70
     0
  9
$BLIPMODE
 70
     0
  9
$CHAMFERA
 40
0.0
  9
$CHAMFERB
 40
0.0
  9
$SKPOLY
 70
     0
  9
$TDCREATE
 40
2449840.6227546302
  9
$TDUPDATE
 40
2456602.61174691
  9
$TDINDWG
 40
0.0117589236
  9
$TDUSRTIMER
 40
2456598.3487688322
  9
$USRTIMER
 70
     1
  9
$ANGBASE
 50
0.0
  9
$ANGDIR
 70
     0
  9
$PDMODE
 70
     0
  9
$PDSIZE
 40
0.0
  9
$PLINEWID
 40
0.0
  9
$COORDS
 70
     1
  9
$SPLFRAME
 70
     0
  9
$SPLINETYPE
 70
     6
  9
$SPLINESEGS
 70
     8
  9
$ATTDIA
 70
     0
  9
$ATTREQ
 70
     1
  9
$HANDLING
 70
     1
  9
$HANDSEED
  5
4C5
  9
$SURFTAB1
 70
     6
  9
$SURFTAB2
 70
     6
  9
$SURFTYPE
 70
     6
  9
$SURFU
 70
     6
  9
$SURFV
 70
     6
  9
$UCSNAME
  2

  9
$UCSORG
 10
0.0
 20
0.0
 30
0.0
  9
$UCSXDIR
 10
1.0
 20
0.0
 30
0.0
  9
$UCSYDIR
 10
0.0
 20
1.0
 30
0.0
  9
$PUCSNAME
  2

  9
$PUCSORG
 10
0.0
 20
0.0
 30
0.0
  9
$PUCSXDIR
 10
1.0
 20
0.0
 30
0.0
  9
$PUCSYDIR
 10
0.0
 20
1.0
 30
0.0
  9
$USERI1
 70
     0
  9
$USERI2
 70
     1
  9
$USERI3
 70
     0
  9
$USERI4
 70
     0
  9
$USERI5
 70
     0
  9
$USERR1
 40
0.0
  9
$USERR2
 40
0.0
  9
$USERR3
 40
0.0
  9
$USERR4
 40
0.0
  9
$USERR5
 40
0.0
  9
$WORLDVIEW
 70
     1
  9
$SHADEDGE
 70
     3
  9
$SHADEDIF
 70
    70
  9
$TILEMODE
 70
     1
  9
$MAXACTVP
 70
    16
  9
$PLIMCHECK
 70
     0
  9
$PEXTMIN
 10
1.0000000000000000E+020
 20
1.0000000000000000E+020
 30
1.0000000000000000E+020
  9
$PEXTMAX
 10
-1.0000000000000000E+020
 20
-1.0000000000000000E+020
 30
-1.0000000000000000E+020
  9
$PLIMMIN
 10
0.0
 20
0.0
  9
$PLIMMAX
 10
12.0
 20
9.0
  9
$UNITMODE
 70
     0
  9
$VISRETAIN
 70
     0
  9
$PLINEGEN
 70
     0
  9
$PSLTSCALE
 70
     0
  0
ENDSEC
  0
SECTION
  2
TABLES
  0
TABLE
  2
VPORT
 70
     1
  0
VPORT
  2
*ACTIVE
 70
     0
 10
0.0
 20
0.0
 11
1.0
 21
1.0
 12
260.38851255168339
 22
100.8780974617985
 13
0.0
 23
0.0
 14
20.0
 24
20.0
 15
20.0
 25
20.0
 16
0.0
 26
0.0
 36
1.0
 17
0.0
 27
0.0
 37
0.0
 40
394.12166260136269
 41
1.831871345029239
 42
50.0
 43
0.0
 44
0.0
 50
0.0
 51
0.0
 71
    16
 72
   100
 73
     1
 74
     0
 75
     0
 76
     0
 77
     0
 78
     2
  0
ENDTAB
  0
TABLE
  2
LTYPE
 70
     7
  0
LTYPE
  2
CONTINUOUS
 70
     0
  3
Solid Line
 72
    65
 73
     0
 40
0.0
  0
LTYPE
  2
CENTER
 70
     0
  3
____ _ ____ _ ____ _ ____ _ ____ _ ____ _ ____
 72
    65
 73
     4
 40
2.0
 49
1.25
 49
-0.25
 49
0.25
 49
-0.25
  0
LTYPE
  2
HIDDEN
 70
     0
  3
_ _ _ _ _ _ _ _ _ _ _ _ _ _ _ _ _ _ _ _ _ _ _
 72
    65
 73
     2
 40
0.375
 49
0.25
 49
-0.125
  0
LTYPE
  2
PHANTOM2
 70
     0
  3
___ _ _ ___ _ _ ___ _ _ ___ _ _
 72
    65
 73
     6
 40
1.25
 49
0.625
 49
-0.125
 49
0.125
 49
-0.125
 49
0.125
 49
-0.125
  0
LTYPE
  2
CNS_SOLID
 70
     0
  3

 72
    65
 73
     0
 40
0.0
  0
LTYPE
  2
CNS_DASHED
 70
     0
  3

 72
    65
 73
     2
 40
2.0
 49
1.0
 49
-1.0
  0
LTYPE
  2
CNS_CENTER
 70
     0
  3

 72
    65
 73
     4
 40
2.0
 49
0.45
 49
-0.5
 49
0.05
 49
-0.5
  0
ENDTAB
  0
TABLE
  2
LAYER
 70
     4
  0
LAYER
  2
0
 70
     0
 62
     7
  6
CONTINUOUS
  0
LAYER
  2
1
 70
     0
 62
     1
  6
CENTER
  0
LAYER
  2
2
 70
     0
 62
     2
  6
HIDDEN
  0
LAYER
  2
3
 70
     0
 62
     3
  6
CONTINUOUS
  0
ENDTAB
  0
TABLE
  2
STYLE
 70
     2
  0
STYLE
  2
STANDARD
 70
     0
 40
0.0
 41
1.0
 50
0.0
 71
     0
 42
0.2
  3
TXT
  4
BIGFONT
  0
STYLE
  2
STANDARD1
 70
     0
 40
0.0
 41
1.0
 50
0.0
 71
     0
 42
3.0
  3
txt
  4

  0
ENDTAB
  0
TABLE
  2
VIEW
 70
     1
  0
VIEW
  2
ALL
 70
     0
 40
540.0
 10
441.98319299999991
 20
270.0
 41
0.0
 11
0.0
 21
0.0
 31
1.0
 12
0.0
 22
0.0
 32
0.0
 42
0.0
 43
0.0
 44
0.0
 50
0.0
 71
     0
  0
ENDTAB
  0
TABLE
  2
UCS
 70
     0
  0
ENDTAB
  0
TABLE
  2
APPID
 70
     6
  0
APPID
  2
ACAD
 70
     0
  0
APPID
  2
ACAD_NAV_VCDISPLAY
 70
     0
  0
APPID
  2
ACAD_EXEMPT_FROM_CAD_STANDARDS
 70
     0
  0
APPID
  2
ACAD_DSTYLE_DIMJAG
 70
     0
  0
APPID
  2
ACAD_DSTYLE_DIMTALN
 70
     0
  0
APPID
  2
ACAD_MLEADERVER
 70
     0
  0
ENDTAB
  0
TABLE
  2
DIMSTYLE
 70
     2
  0
DIMSTYLE
  2
STANDARD
 70
     0
  3

  4

  5

  6

  7

 40
1.0
 41
0.18
 42
0.0625
 43
0.38
 44
0.18
 45
0.0
 46
0.0
 47
0.0
 48
0.0
140
0.18
141
0.09
142
0.0
143
25.399999999999999
144
1.0
145
0.0
146
1.0
147
0.09
 71
     0
 72
     0
 73
     1
 74
     1
 75
     0
 76
     0
 77
     0
 78
     0
170
     0
171
     2
172
     0
173
     0
174
     0
175
     0
176
     0
177
     0
178
     0
  0
DIMSTYLE
  2
ISO-25
 70
     0
  3

  4

  5

  6

  7

 40
1.0
 41
2.5
 42
0.625
 43
3.75
 44
1.25
 45
0.0
 46
0.0
 47
0.0
 48
0.0
140
2.5
141
2.5
142
0.0
143
0.03937007874016
144
1.0
145
0.0
146
1.0
147
0.625
 71
     0
 72
     0
 73
     0
 74
     0
 75
     0
 76
     0
 77
     1
 78
     8
170
     0
171
     3
172
     1
173
     0
174
     0
175
     0
176
     0
177
     0
178
     0
  0
ENDTAB
  0
ENDSEC
  0
SECTION
  2
BLOCKS
  0
BLOCK
  8
0
  2
$MODEL_SPACE
 70
     0
 10
0.0
 20
0.0
 30
0.0
  3
$MODEL_SPACE
  1

  0
ENDBLK
  5
11D
  8
0
  0
BLOCK
 67
     1
  8
0
  2
$PAPER_SPACE
 70
     0
 10
0.0
 20
0.0
 30
0.0
  3
$PAPER_SPACE
  1

  0
ENDBLK
  5
11B
 67
     1
  8
0
  0
ENDSEC
  0
SECTION
  2
ENTITIES
  0
ARC
  5
37A
  8
0
 10
46.55387366530806
 20
168.90052554972891
 30
0.0
 40
52.591741410436541
 50
347.2104844462001
 51
10.49527658300001
  0
ARC
  5
37B
  8
0
 10
115.091741520708
 20
168.90052554972891
 30
0.0
 40
52.591741410436583
 50
169.50472341700001
 51
192.7895155537999
  0
ARC
  5
37C
  8
0
 10
123.240807593008
 20
183.10706957012891
 30
0.0
 40
25.399999999999991
 50
180.0
 51
190.49527658299991
  0
ARC
  5
37D
  8
0
 10
38.404807593008059
 20
183.10706957012891
 30
0.0
 40
25.399999999999999
 50
349.50472341699998
 51
0.0
  0
LINE
  5
37E
  8
0
 10
97.967807593008075
 20
150.3167621424289
 30
0.0
 11
97.61015131410808
 21
154.4047921170289
 31
0.0
  0
LINE
  5
37F
  8
0
 10
64.035463871908064
 20
154.4047921170289
 30
0.0
 11
63.677807593008062
 21
150.3167621424289
 31
0.0
  0
LINE
  5
380
  8
0
 10
97.840807593008066
 20
186.3690142552289
 30
0.0
 11
94.538807593008059
 21
187.90876214242891
 31
0.0
  0
LINE
  5
381
  8
0
 10
67.106807593008057
 20
187.90876214242891
 30
0.0
 11
63.804807593008057
 21
186.3690142552289
 31
0.0
  0
LINE
  5
382
  8
0
 10
97.840807593008066
 20
183.10706957012891
 30
0.0
 11
97.840807593008066
 21
186.3690142552289
 31
0.0
  0
LINE
  5
383
  8
0
 10
63.804807593008057
 20
186.3690142552289
 30
0.0
 11
63.804807593008057
 21
183.10706957012891
 31
0.0
  0
LINE
  5
384
  8
0
 10
63.804807593008057
 20
157.25828895702881
 30
0.0
 11
66.979807593008061
 21
155.77776214242891
 31
0.0
  0
LINE
  5
385
  8
0
 10
94.665807593008068
 20
155.77776214242891
 30
0.0
 11
97.840807593008066
 21
157.25828895702881
 31
0.0
  0
LINE
  5
386
  8
0
 10
97.61015131410808
 20
154.4047921170289
 30
0.0
 11
94.665807593008068
 21
155.77776214242891
 31
0.0
  0
LINE
  5
387
  8
0
 10
66.979807593008061
 20
155.77776214242891
 30
0.0
 11
64.035463871908064
 21
154.4047921170289
 31
0.0
  0
LINE
  5
388
  8
0
 10
63.804807593008057
 20
157.25828895702881
 30
0.0
 11
97.840807593008066
 21
157.25828895702881
 31
0.0
  0
LINE
  5
389
  8
0
 10
64.035463871908064
 20
154.4047921170289
 30
0.0
 11
97.61015131410808
 21
154.4047921170289
 31
0.0
  0
LINE
  5
38A
  8
0
 10
63.677807593008062
 20
150.3167621424289
 30
0.0
 11
97.967807593008075
 21
150.3167621424289
 31
0.0
  0
LINE
  5
38B
  8
0
 10
94.538807593008059
 20
187.90876214242891
 30
0.0
 11
67.106807593008057
 21
187.90876214242891
 31
0.0
  0
LINE
  5
38C
  8
0
 10
97.840807593008066
 20
186.3690142552289
 30
0.0
 11
63.804807593008057
 21
186.3690142552289
 31
0.0
  0
LINE
  5
38D
  8
0
 10
66.979807593008061
 20
155.77776214242891
 30
0.0
 11
94.665807593008097
 21
155.77776214242891
 31
0.0
  0
CIRCLE
  5
38E
  8
0
 10
80.822807593008065
 20
257.40271685291151
 30
0.0
 40
18.322807482755561
  0
CIRCLE
  5
38F
  8
0
 10
80.822807593008065
 20
257.40271685291151
 30
0.0
 40
13.71600000000001
  0
CIRCLE
  5
390
  8
0
 10
80.822807593008065
 20
257.40271685291151
 30
0.0
 40
17.018000000000001
  0
CIRCLE
  5
391
  8
0
 10
80.822807593008065
 20
257.40271685291151
 30
0.0
 40
10.413999999999991
  0
CIRCLE
  5
392
  8
0
 10
80.822807593008065
 20
257.40271685291151
 30
0.0
 40
3.9369999999999821
  0
ARC
  5
393
  8
2
 10
49.956208429408058
 20
168.8587621424289
 30
0.0
 40
42.573927036440068
 50
346.24756313059999
 51
10.704328170200011
  0
ARC
  5
394
  8
2
 10
122.986807593008
 20
182.66375094812889
 30
0.0
 40
31.75
 50
180.0
 51
190.7043281702
  0
LINE
  5
395
  8
2
 10
91.236807593008066
 20
187.90876214242891
 30
0.0
 11
91.236807593008066
 21
182.66375094812889
 31
0.0
  0
LINE
  5
396
  8
2
 10
84.759807593008063
 20
154.8887621424289
 30
0.0
 11
84.759807593008063
 21
150.3167621424289
 31
0.0
  0
LINE
  5
397
  8
2
 10
91.236807593008066
 20
157.90903684432891
 30
0.0
 11
84.759807593008063
 21
154.8887621424289
 31
0.0
  0
LINE
  5
398
  8
2
 10
91.236807593008066
 20
158.13395437752891
 30
0.0
 11
91.236807593008066
 21
157.90903684432891
 31
0.0
  0
ARC
  5
399
  8
2
 10
93.776807593008058
 20
158.13395437752891
 30
0.0
 40
2.540000000000004
 50
166.2475631305995
 51
180.0
  0
ARC
  5
39A
  8
2
 10
111.68940675660809
 20
168.8587621424289
 30
0.0
 40
42.573927036440068
 50
169.29567182979989
 51
193.7524368693999
  0
ARC
  5
39B
  8
2
 10
38.658807593008071
 20
182.66375094812889
 30
0.0
 40
31.749999999999989
 50
349.29567182979991
 51
0.0
  0
ARC
  5
39C
  8
2
 10
67.868807593008071
 20
158.13395437752891
 30
0.0
 40
2.5399999999999912
 50
0.0
 51
13.75243686940048
  0
LINE
  5
39D
  8
2
 10
70.408807593008063
 20
157.90903684432891
 30
0.0
 11
91.236807593008066
 21
157.90903684432891
 31
0.0
  0
LINE
  5
39E
  8
2
 10
70.408807593008063
 20
157.90903684432891
 30
0.0
 11
70.408807593008063
 21
158.13395437752891
 31
0.0
  0
LINE
  5
39F
  8
2
 10
76.885807593008067
 20
154.8887621424289
 30
0.0
 11
84.759807593008063
 21
154.8887621424289
 31
0.0
  0
LINE
  5
3A0
  8
2
 10
76.885807593008067
 20
154.8887621424289
 30
0.0
 11
70.408807593008063
 21
157.90903684432891
 31
0.0
  0
LINE
  5
3A1
  8
2
 10
70.408807593008063
 20
182.66375094812889
 30
0.0
 11
70.408807593008063
 21
187.90876214242891
 31
0.0
  0
LINE
  5
3A2
  8
2
 10
76.885807593008067
 20
150.3167621424289
 30
0.0
 11
76.885807593008067
 21
154.8887621424289
 31
0.0
  0
LINE
  5
3A3
  8
1
 10
80.822807593008065
 20
190.4087621424288
 30
0.0
 11
80.822807593008065
 21
147.8167621424289
 31
0.0
  0
LINE
  5
3A4
  8
1
 10
80.822807593008065
 20
278.22552433566699
 30
0.0
 11
80.822807593008065
 21
236.57990937015589
 31
0.0
  0
LINE
  5
3A5
  8
1
 10
60.0000001102525
 20
257.40271685291151
 30
0.0
 11
101.6456150757636
 21
257.40271685291151
 31
0.0
  0
CIRCLE
  5
3A6
  8
0
 10
80.822807593008065
 20
80.822807431946302
 30
0.0
 40
18.322807482755561
  0
CIRCLE
  5
3A7
  8
0
 10
80.822807593008065
 20
80.822807431946302
 30
0.0
 40
3.9369999999999821
  0
LINE
  5
3A8
  8
1
 10
80.822807593008065
 20
101.6456149147018
 30
0.0
 11
80.822807593008065
 21
59.999999949190737
 31
0.0
  0
LINE
  5
3A9
  8
1
 10
60.0000001102525
 20
80.822807431946302
 30
0.0
 11
101.6456150757636
 21
80.822807431946302
 31
0.0
  0
CIRCLE
  5
3AA
  8
0
 10
80.822807593008065
 20
80.822807431946302
 30
0.0
 40
17.145
  0
TEXT
  5
45B
  8
0
 62
     3
 10
20.822807593008061
 20
20.822807431946298
 30
0.0
 40
10.0
  1
TPGBA-105S
  7
STANDARD1
  0
ENDSEC
  0
EOF
