  0
SECTION
  2
HEADER
  9
$ACADVER
  1
AC1009
  9
$INSBASE
 10
0.0
 20
0.0
 30
0.0
  9
$EXTMIN
 10
19.26026463155404
 20
16.176563396614579
 30
0.0
  9
$EXTMAX
 10
88.397264631554037
 20
227.4341091436248
 30
0.0
  9
$LIMMIN
 10
0.0
 20
0.0
  9
$LIMMAX
 10
750.0
 20
540.0
  9
$ORTHOMODE
 70
     1
  9
$REGENMODE
 70
     1
  9
$FILLMODE
 70
     1
  9
$QTEXTMODE
 70
     0
  9
$MIRRTEXT
 70
     0
  9
$DRAGMODE
 70
     2
  9
$LTSCALE
 40
10.0
  9
$OSMODE
 70
  3071
  9
$ATTMODE
 70
     1
  9
$TEXTSIZE
 40
0.2
  9
$TRACEWID
 40
0.05
  9
$TEXTSTYLE
  7
STANDARD
  9
$CLAYER
  8
0
  9
$CELTYPE
  6
BYLAYER
  9
$CECOLOR
 62
   256
  9
$DIMSCALE
 40
1.0
  9
$DIMASZ
 40
3.0
  9
$DIMEXO
 40
2.0
  9
$DIMDLI
 40
0.38
  9
$DIMRND
 40
0.0
  9
$DIMDLE
 40
0.0
  9
$DIMEXE
 40
2.0
  9
$DIMTP
 40
0.0
  9
$DIMTM
 40
0.0
  9
$DIMTXT
 40
3.2000000000000002
  9
$DIMCEN
 40
0.0
  9
$DIMTSZ
 40
0.0
  9
$DIMTOL
 70
     0
  9
$DIMLIM
 70
     0
  9
$DIMTIH
 70
     0
  9
$DIMTOH
 70
     0
  9
$DIMSE1
 70
     0
  9
$DIMSE2
 70
     0
  9
$DIMTAD
 70
     1
  9
$DIMZIN
 70
     0
  9
$DIMBLK
  1

  9
$DIMASO
 70
     0
  9
$DIMSHO
 70
     0
  9
$DIMPOST
  1

  9
$DIMAPOST
  1

  9
$DIMALT
 70
     0
  9
$DIMALTD
 70
     2
  9
$DIMALTF
 40
25.399999999999999
  9
$DIMLFAC
 40
1.0
  9
$DIMTOFL
 70
     0
  9
$DIMTVP
 40
1.6000000000000001
  9
$DIMTIX
 70
     1
  9
$DIMSOXD
 70
     0
  9
$DIMSAH
 70
     0
  9
$DIMBLK1
  1

  9
$DIMBLK2
  1

  9
$DIMSTYLE
  2
STANDARD
  9
$DIMCLRD
 70
     0
  9
$DIMCLRE
 70
     0
  9
$DIMCLRT
 70
     0
  9
$DIMTFAC
 40
1.0
  9
$DIMGAP
 40
0.09
  9
$LUNITS
 70
     2
  9
$LUPREC
 70
     4
  9
$SKETCHINC
 40
0.1
  9
$FILLETRAD
 40
0.0
  9
$AUNITS
 70
     0
  9
$AUPREC
 70
     4
  9
$MENU
  1
E:\r13\win\SUPPORT\ACAD
  9
$ELEVATION
 40
0.0
  9
$PELEVATION
 40
0.0
  9
$THICKNESS
 40
0.0
  9
$LIMCHECK
 70
     0
  9
$BLIPMODE
 70
     0
  9
$CHAMFERA
 40
0.0
  9
$CHAMFERB
 40
0.0
  9
$SKPOLY
 70
     0
  9
$TDCREATE
 40
2449840.6227546302
  9
$TDUPDATE
 40
2456602.6119296299
  9
$TDINDWG
 40
0.0247581366
  9
$TDUSRTIMER
 40
2456598.3481538999
  9
$USRTIMER
 70
     1
  9
$ANGBASE
 50
0.0
  9
$ANGDIR
 70
     0
  9
$PDMODE
 70
     0
  9
$PDSIZE
 40
0.0
  9
$PLINEWID
 40
0.0
  9
$COORDS
 70
     1
  9
$SPLFRAME
 70
     0
  9
$SPLINETYPE
 70
     6
  9
$SPLINESEGS
 70
     8
  9
$ATTDIA
 70
     0
  9
$ATTREQ
 70
     1
  9
$HANDLING
 70
     1
  9
$HANDSEED
  5
522
  9
$SURFTAB1
 70
     6
  9
$SURFTAB2
 70
     6
  9
$SURFTYPE
 70
     6
  9
$SURFU
 70
     6
  9
$SURFV
 70
     6
  9
$UCSNAME
  2

  9
$UCSORG
 10
0.0
 20
0.0
 30
0.0
  9
$UCSXDIR
 10
1.0
 20
0.0
 30
0.0
  9
$UCSYDIR
 10
0.0
 20
1.0
 30
0.0
  9
$PUCSNAME
  2

  9
$PUCSORG
 10
0.0
 20
0.0
 30
0.0
  9
$PUCSXDIR
 10
1.0
 20
0.0
 30
0.0
  9
$PUCSYDIR
 10
0.0
 20
1.0
 30
0.0
  9
$USERI1
 70
     0
  9
$USERI2
 70
     1
  9
$USERI3
 70
     0
  9
$USERI4
 70
     0
  9
$USERI5
 70
     0
  9
$USERR1
 40
0.0
  9
$USERR2
 40
0.0
  9
$USERR3
 40
0.0
  9
$USERR4
 40
0.0
  9
$USERR5
 40
0.0
  9
$WORLDVIEW
 70
     1
  9
$SHADEDGE
 70
     3
  9
$SHADEDIF
 70
    70
  9
$TILEMODE
 70
     1
  9
$MAXACTVP
 70
    16
  9
$PLIMCHECK
 70
     0
  9
$PEXTMIN
 10
1.0000000000000000E+020
 20
1.0000000000000000E+020
 30
1.0000000000000000E+020
  9
$PEXTMAX
 10
-1.0000000000000000E+020
 20
-1.0000000000000000E+020
 30
-1.0000000000000000E+020
  9
$PLIMMIN
 10
0.0
 20
0.0
  9
$PLIMMAX
 10
12.0
 20
9.0
  9
$UNITMODE
 70
     0
  9
$VISRETAIN
 70
     0
  9
$PLINEGEN
 70
     0
  9
$PSLTSCALE
 70
     0
  0
ENDSEC
  0
SECTION
  2
TABLES
  0
TABLE
  2
VPORT
 70
     1
  0
VPORT
  2
*ACTIVE
 70
     0
 10
0.0
 20
0.0
 11
1.0
 21
1.0
 12
177.69750719129701
 22
123.6668625585439
 13
0.0
 23
0.0
 14
20.0
 24
20.0
 15
20.0
 25
20.0
 16
0.0
 26
0.0
 36
1.0
 17
0.0
 27
0.0
 37
0.0
 40
265.79556421079423
 41
1.831871345029239
 42
50.0
 43
0.0
 44
0.0
 50
0.0
 51
0.0
 71
    16
 72
   100
 73
     1
 74
     0
 75
     0
 76
     0
 77
     0
 78
     2
  0
ENDTAB
  0
TABLE
  2
LTYPE
 70
     4
  0
LTYPE
  2
CONTINUOUS
 70
     0
  3
Solid Line
 72
    65
 73
     0
 40
0.0
  0
LTYPE
  2
CENTER
 70
     0
  3
____ _ ____ _ ____ _ ____ _ ____ _ ____ _ ____
 72
    65
 73
     4
 40
2.0
 49
1.25
 49
-0.25
 49
0.25
 49
-0.25
  0
LTYPE
  2
HIDDEN
 70
     0
  3
_ _ _ _ _ _ _ _ _ _ _ _ _ _ _ _ _ _ _ _ _ _ _
 72
    65
 73
     2
 40
0.375
 49
0.25
 49
-0.125
  0
LTYPE
  2
PHANTOM2
 70
     0
  3
___ _ _ ___ _ _ ___ _ _ ___ _ _
 72
    65
 73
     6
 40
1.25
 49
0.625
 49
-0.125
 49
0.125
 49
-0.125
 49
0.125
 49
-0.125
  0
ENDTAB
  0
TABLE
  2
LAYER
 70
     3
  0
LAYER
  2
0
 70
     0
 62
     7
  6
CONTINUOUS
  0
LAYER
  2
1
 70
     0
 62
     1
  6
CENTER
  0
LAYER
  2
2
 70
     0
 62
     2
  6
HIDDEN
  0
ENDTAB
  0
TABLE
  2
STYLE
 70
     2
  0
STYLE
  2
STANDARD
 70
     0
 40
0.0
 41
1.0
 50
0.0
 71
     0
 42
0.2
  3
TXT
  4
BIGFONT
  0
STYLE
  2
STANDARD1
 70
     0
 40
0.0
 41
1.0
 50
0.0
 71
     0
 42
3.0
  3
txt
  4

  0
ENDTAB
  0
TABLE
  2
VIEW
 70
     1
  0
VIEW
  2
ALL
 70
     0
 40
540.0
 10
441.98319299999991
 20
270.0
 41
0.0
 11
0.0
 21
0.0
 31
1.0
 12
0.0
 22
0.0
 32
0.0
 42
0.0
 43
0.0
 44
0.0
 50
0.0
 71
     0
  0
ENDTAB
  0
TABLE
  2
UCS
 70
     0
  0
ENDTAB
  0
TABLE
  2
APPID
 70
     6
  0
APPID
  2
ACAD
 70
     0
  0
APPID
  2
ACAD_NAV_VCDISPLAY
 70
     0
  0
APPID
  2
ACAD_EXEMPT_FROM_CAD_STANDARDS
 70
     0
  0
APPID
  2
ACAD_DSTYLE_DIMJAG
 70
     0
  0
APPID
  2
ACAD_DSTYLE_DIMTALN
 70
     0
  0
APPID
  2
ACAD_MLEADERVER
 70
     0
  0
ENDTAB
  0
TABLE
  2
DIMSTYLE
 70
     1
  0
DIMSTYLE
  2
STANDARD
 70
     0
  3

  4

  5

  6

  7

 40
1.0
 41
0.18
 42
0.0625
 43
0.38
 44
0.18
 45
0.0
 46
0.0
 47
0.0
 48
0.0
140
0.18
141
0.09
142
0.0
143
25.399999999999999
144
1.0
145
0.0
146
1.0
147
0.09
 71
     0
 72
     0
 73
     1
 74
     1
 75
     0
 76
     0
 77
     0
 78
     0
170
     0
171
     2
172
     0
173
     0
174
     0
175
     0
176
     0
177
     0
178
     0
  0
ENDTAB
  0
ENDSEC
  0
SECTION
  2
BLOCKS
  0
BLOCK
  8
0
  2
$MODEL_SPACE
 70
     0
 10
0.0
 20
0.0
 30
0.0
  3
$MODEL_SPACE
  1

  0
ENDBLK
  5
11D
  8
0
  0
BLOCK
 67
     1
  8
0
  2
$PAPER_SPACE
 70
     0
 10
0.0
 20
0.0
 30
0.0
  3
$PAPER_SPACE
  1

  0
ENDBLK
  5
11B
 67
     1
  8
0
  0
ENDSEC
  0
SECTION
  2
ENTITIES
  0
ARC
  5
37A
  8
0
 10
69.688996412554033
 20
138.7335409420248
 30
0.0
 40
16.208268219027421
 50
331.0014394849
 51
17.980143473499989
  0
ARC
  5
37B
  8
0
 10
68.831532850554026
 20
138.7335409420248
 30
0.0
 40
16.208268219027421
 50
162.01985652650001
 51
208.99856051509991
  0
ARC
  5
37C
  8
0
 10
109.265264631554
 20
151.57748807842481
 30
0.0
 40
25.399999999999999
 50
180.0
 51
197.98014347350011
  0
ARC
  5
37D
  8
0
 10
29.255264631554041
 20
151.57748807842481
 30
0.0
 40
25.399999999999999
 50
342.01985652649989
 51
0.0
  0
LINE
  5
37E
  8
0
 10
83.992264631554036
 20
125.0011091436248
 30
0.0
 11
83.699489176254048
 21
128.34754791112479
 31
0.0
  0
LINE
  5
37F
  8
0
 10
54.82104008685404
 20
128.34754791112479
 30
0.0
 11
54.52826463155403
 21
125.0011091436248
 31
0.0
  0
LINE
  5
380
  8
0
 10
54.65526463155404
 20
130.87597274052479
 30
0.0
 11
57.449264631554037
 21
129.57310914362481
 31
0.0
  0
LINE
  5
381
  8
0
 10
81.071264631554044
 20
129.57310914362481
 30
0.0
 11
83.865264631554027
 21
130.87597274052479
 31
0.0
  0
LINE
  5
382
  8
0
 10
83.865264631554027
 20
153.6702455467248
 30
0.0
 11
81.071264631554044
 21
154.97310914362481
 31
0.0
  0
LINE
  5
383
  8
0
 10
57.449264631554037
 20
154.97310914362481
 30
0.0
 11
54.65526463155404
 21
153.6702455467248
 31
0.0
  0
LINE
  5
384
  8
0
 10
83.865264631554027
 20
151.57748807842481
 30
0.0
 11
83.865264631554027
 21
153.6702455467248
 31
0.0
  0
LINE
  5
385
  8
0
 10
54.65526463155404
 20
153.6702455467248
 30
0.0
 11
54.65526463155404
 21
151.57748807842481
 31
0.0
  0
LINE
  5
386
  8
0
 10
83.699489176254048
 20
128.34754791112479
 30
0.0
 11
81.071264631554044
 21
129.57310914362481
 31
0.0
  0
LINE
  5
387
  8
0
 10
57.449264631554037
 20
129.57310914362481
 30
0.0
 11
54.82104008685404
 21
128.34754791112479
 31
0.0
  0
LINE
  5
388
  8
0
 10
54.65526463155404
 20
130.87597274052479
 30
0.0
 11
83.865264631554027
 21
130.87597274052479
 31
0.0
  0
LINE
  5
389
  8
0
 10
54.82104008685404
 20
128.34754791112479
 30
0.0
 11
83.699489176254048
 21
128.34754791112479
 31
0.0
  0
LINE
  5
38A
  8
0
 10
54.52826463155403
 20
125.0011091436248
 30
0.0
 11
83.992264631554036
 21
125.0011091436248
 31
0.0
  0
LINE
  5
38B
  8
0
 10
57.449264631554037
 20
129.57310914362481
 30
0.0
 11
81.071264631554016
 21
129.57310914362481
 31
0.0
  0
LINE
  5
38C
  8
0
 10
81.071264631554044
 20
154.97310914362481
 30
0.0
 11
57.449264631554037
 21
154.97310914362481
 31
0.0
  0
LINE
  5
38D
  8
0
 10
83.865264631554027
 20
153.6702455467248
 30
0.0
 11
54.65526463155404
 21
153.6702455467248
 31
0.0
  0
CIRCLE
  5
38E
  8
0
 10
69.260264631554037
 20
208.29710914362479
 30
0.0
 40
16.637
  0
CIRCLE
  5
38F
  8
0
 10
69.260264631554037
 20
208.29710914362479
 30
0.0
 40
11.811000000000011
  0
CIRCLE
  5
390
  8
0
 10
69.260264631554037
 20
208.29710914362479
 30
0.0
 40
14.60499999999999
  0
CIRCLE
  5
391
  8
0
 10
69.260264631554037
 20
208.29710914362479
 30
0.0
 40
8.382000000000005
  0
CIRCLE
  5
392
  8
0
 10
69.260264631554037
 20
208.29710914362479
 30
0.0
 40
3.9369999999999821
  0
ARC
  5
393
  8
2
 10
69.38352933745405
 20
138.71710914362481
 30
0.0
 40
10.417735294117669
 50
324.2106778102999
 51
18.700087011800012
  0
ARC
  5
394
  8
2
 10
108.122264631554
 20
151.8295131947248
 30
0.0
 40
30.48
 50
180.0
 51
198.70008701180001
  0
LINE
  5
395
  8
2
 10
77.642264631554042
 20
154.97310914362481
 30
0.0
 11
77.642264631554042
 21
151.8295131947248
 31
0.0
  0
LINE
  5
396
  8
2
 10
73.197264631554035
 20
129.8271091436248
 30
0.0
 11
73.197264631554035
 21
125.0011091436248
 31
0.0
  0
LINE
  5
397
  8
2
 10
77.642264631554042
 20
131.89984668412481
 30
0.0
 11
73.197264631554035
 21
129.8271091436248
 31
0.0
  0
LINE
  5
398
  8
2
 10
77.642264631554042
 20
132.03058628042481
 30
0.0
 11
77.642264631554042
 21
131.89984668412481
 31
0.0
  0
ARC
  5
399
  8
2
 10
78.658264631554033
 20
132.03058628042481
 30
0.0
 40
1.0160000000000049
 50
144.2106778102995
 51
180.0
  0
ARC
  5
39A
  8
2
 10
69.13699992575404
 20
138.71710914362481
 30
0.0
 40
10.41773529411766
 50
161.29991298819999
 51
215.7893221897001
  0
ARC
  5
39B
  8
2
 10
30.398264631554039
 20
151.8295131947248
 30
0.0
 40
30.48
 50
341.29991298819988
 51
0.0
  0
ARC
  5
39C
  8
2
 10
59.862264631554041
 20
132.03058628042481
 30
0.0
 40
1.0160000000000049
 50
0.0
 51
35.789322189700471
  0
LINE
  5
39D
  8
2
 10
60.878264631554053
 20
131.89984668412481
 30
0.0
 11
77.642264631554042
 21
131.89984668412481
 31
0.0
  0
LINE
  5
39E
  8
2
 10
60.878264631554053
 20
131.89984668412481
 30
0.0
 11
60.878264631554053
 21
132.03058628042481
 31
0.0
  0
LINE
  5
39F
  8
2
 10
65.323264631554039
 20
129.8271091436248
 30
0.0
 11
73.197264631554035
 21
129.8271091436248
 31
0.0
  0
LINE
  5
3A0
  8
2
 10
65.323264631554039
 20
129.8271091436248
 30
0.0
 11
60.878264631554053
 21
131.89984668412481
 31
0.0
  0
LINE
  5
3A1
  8
2
 10
60.878264631554053
 20
151.8295131947248
 30
0.0
 11
60.878264631554053
 21
154.97310914362481
 31
0.0
  0
LINE
  5
3A2
  8
2
 10
65.323264631554039
 20
125.0011091436248
 30
0.0
 11
65.323264631554039
 21
129.8271091436248
 31
0.0
  0
LINE
  5
3A3
  8
1
 10
69.260264631554037
 20
157.47310914362481
 30
0.0
 11
69.260264631554037
 21
122.5011091436248
 31
0.0
  0
LINE
  5
3A4
  8
1
 10
69.260264631554037
 20
227.4341091436248
 30
0.0
 11
69.260264631554037
 21
189.16010914362479
 31
0.0
  0
LINE
  5
3A5
  8
1
 10
50.123264631554029
 20
208.29710914362479
 30
0.0
 11
88.397264631554037
 21
208.29710914362479
 31
0.0
  0
CIRCLE
  5
3A6
  8
0
 10
69.260264631554037
 20
69.136999958688236
 30
0.0
 40
16.637
  0
CIRCLE
  5
3A7
  8
0
 10
69.260264631554037
 20
69.136999958688236
 30
0.0
 40
3.9369999999999821
  0
LINE
  5
3A8
  8
1
 10
69.260264631554037
 20
88.27399995868825
 30
0.0
 11
69.260264631554037
 21
49.99999995868825
 31
0.0
  0
LINE
  5
3A9
  8
1
 10
50.123264631554029
 20
69.136999958688236
 30
0.0
 11
88.397264631554037
 21
69.136999958688236
 31
0.0
  0
CIRCLE
  5
3AA
  8
0
 10
69.260264631554037
 20
69.136999958688236
 30
0.0
 40
14.731999999999999
  0
TEXT
  5
4B8
  8
0
 62
     3
 10
19.26026463155404
 20
19.13699995868825
 30
0.0
 40
10.0
  1
TPGBA-3
  7
STANDARD1
  0
ENDSEC
  0
EOF
