  0
SECTION
  2
HEADER
  9
$ACADVER
  1
AC1009
  9
$INSBASE
 10
0.0
 20
0.0
 30
0.0
  9
$EXTMIN
 10
2.499983532277823
 20
-2.9604364619074941
 30
0.0
  9
$EXTMAX
 10
95.87385593638551
 20
124.021702315497
 30
0.0
  9
$LIMMIN
 10
0.0
 20
0.0
  9
$LIMMAX
 10
750.0
 20
540.0
  9
$ORTHOMODE
 70
     1
  9
$REGENMODE
 70
     1
  9
$FILLMODE
 70
     1
  9
$QTEXTMODE
 70
     0
  9
$MIRRTEXT
 70
     0
  9
$DRAGMODE
 70
     2
  9
$LTSCALE
 40
10.0
  9
$OSMODE
 70
  3071
  9
$ATTMODE
 70
     1
  9
$TEXTSIZE
 40
0.2
  9
$TRACEWID
 40
0.05
  9
$TEXTSTYLE
  7
STANDARD
  9
$CLAYER
  8
0
  9
$CELTYPE
  6
BYLAYER
  9
$CECOLOR
 62
   256
  9
$DIMSCALE
 40
1.0
  9
$DIMASZ
 40
3.0
  9
$DIMEXO
 40
2.0
  9
$DIMDLI
 40
0.38
  9
$DIMRND
 40
0.0
  9
$DIMDLE
 40
0.0
  9
$DIMEXE
 40
2.0
  9
$DIMTP
 40
0.0
  9
$DIMTM
 40
0.0
  9
$DIMTXT
 40
3.2000000000000002
  9
$DIMCEN
 40
0.0
  9
$DIMTSZ
 40
0.0
  9
$DIMTOL
 70
     0
  9
$DIMLIM
 70
     0
  9
$DIMTIH
 70
     0
  9
$DIMTOH
 70
     0
  9
$DIMSE1
 70
     0
  9
$DIMSE2
 70
     0
  9
$DIMTAD
 70
     1
  9
$DIMZIN
 70
     0
  9
$DIMBLK
  1

  9
$DIMASO
 70
     0
  9
$DIMSHO
 70
     0
  9
$DIMPOST
  1

  9
$DIMAPOST
  1

  9
$DIMALT
 70
     0
  9
$DIMALTD
 70
     2
  9
$DIMALTF
 40
25.399999999999999
  9
$DIMLFAC
 40
1.0
  9
$DIMTOFL
 70
     0
  9
$DIMTVP
 40
1.6000000000000001
  9
$DIMTIX
 70
     1
  9
$DIMSOXD
 70
     0
  9
$DIMSAH
 70
     0
  9
$DIMBLK1
  1

  9
$DIMBLK2
  1

  9
$DIMSTYLE
  2
STANDARD
  9
$DIMCLRD
 70
     0
  9
$DIMCLRE
 70
     0
  9
$DIMCLRT
 70
     0
  9
$DIMTFAC
 40
1.0
  9
$DIMGAP
 40
0.09
  9
$LUNITS
 70
     2
  9
$LUPREC
 70
     4
  9
$SKETCHINC
 40
0.1
  9
$FILLETRAD
 40
0.0
  9
$AUNITS
 70
     0
  9
$AUPREC
 70
     4
  9
$MENU
  1
E:\r13\win\SUPPORT\ACAD
  9
$ELEVATION
 40
0.0
  9
$PELEVATION
 40
0.0
  9
$THICKNESS
 40
0.0
  9
$LIMCHECK
 70
     0
  9
$BLIPMODE
 70
     0
  9
$CHAMFERA
 40
0.0
  9
$CHAMFERB
 40
0.0
  9
$SKPOLY
 70
     0
  9
$TDCREATE
 40
2449840.6227546302
  9
$TDUPDATE
 40
2456602.6160511691
  9
$TDINDWG
 40
0.1603508449
  9
$TDUSRTIMER
 40
2456598.3513179631
  9
$USRTIMER
 70
     1
  9
$ANGBASE
 50
0.0
  9
$ANGDIR
 70
     0
  9
$PDMODE
 70
     0
  9
$PDSIZE
 40
0.0
  9
$PLINEWID
 40
0.0
  9
$COORDS
 70
     1
  9
$SPLFRAME
 70
     0
  9
$SPLINETYPE
 70
     6
  9
$SPLINESEGS
 70
     8
  9
$ATTDIA
 70
     0
  9
$ATTREQ
 70
     1
  9
$HANDLING
 70
     1
  9
$HANDSEED
  5
640
  9
$SURFTAB1
 70
     6
  9
$SURFTAB2
 70
     6
  9
$SURFTYPE
 70
     6
  9
$SURFU
 70
     6
  9
$SURFV
 70
     6
  9
$UCSNAME
  2

  9
$UCSORG
 10
0.0
 20
0.0
 30
0.0
  9
$UCSXDIR
 10
1.0
 20
0.0
 30
0.0
  9
$UCSYDIR
 10
0.0
 20
1.0
 30
0.0
  9
$PUCSNAME
  2

  9
$PUCSORG
 10
0.0
 20
0.0
 30
0.0
  9
$PUCSXDIR
 10
1.0
 20
0.0
 30
0.0
  9
$PUCSYDIR
 10
0.0
 20
1.0
 30
0.0
  9
$USERI1
 70
     0
  9
$USERI2
 70
     1
  9
$USERI3
 70
     0
  9
$USERI4
 70
     0
  9
$USERI5
 70
     0
  9
$USERR1
 40
0.0
  9
$USERR2
 40
0.0
  9
$USERR3
 40
0.0
  9
$USERR4
 40
0.0
  9
$USERR5
 40
0.0
  9
$WORLDVIEW
 70
     1
  9
$SHADEDGE
 70
     3
  9
$SHADEDIF
 70
    70
  9
$TILEMODE
 70
     1
  9
$MAXACTVP
 70
    16
  9
$PLIMCHECK
 70
     0
  9
$PEXTMIN
 10
1.0000000000000000E+020
 20
1.0000000000000000E+020
 30
1.0000000000000000E+020
  9
$PEXTMAX
 10
-1.0000000000000000E+020
 20
-1.0000000000000000E+020
 30
-1.0000000000000000E+020
  9
$PLIMMIN
 10
0.0
 20
0.0
  9
$PLIMMAX
 10
12.0
 20
9.0
  9
$UNITMODE
 70
     0
  9
$VISRETAIN
 70
     0
  9
$PLINEGEN
 70
     0
  9
$PSLTSCALE
 70
     0
  0
ENDSEC
  0
SECTION
  2
TABLES
  0
TABLE
  2
VPORT
 70
     1
  0
VPORT
  2
*ACTIVE
 70
     0
 10
0.0
 20
0.0
 11
1.0
 21
1.0
 12
118.2132227602669
 22
64.592704602771335
 13
0.0
 23
0.0
 14
20.0
 24
20.0
 15
20.0
 25
20.0
 16
0.0
 26
0.0
 36
1.0
 17
0.0
 27
0.0
 37
0.0
 40
158.3444203245468
 41
1.8318713450292401
 42
50.0
 43
0.0
 44
0.0
 50
0.0
 51
0.0
 71
    16
 72
   100
 73
     1
 74
     0
 75
     0
 76
     0
 77
     0
 78
     2
  0
ENDTAB
  0
TABLE
  2
LTYPE
 70
     4
  0
LTYPE
  2
CONTINUOUS
 70
     0
  3
Solid Line
 72
    65
 73
     0
 40
0.0
  0
LTYPE
  2
CENTER
 70
     0
  3
____ _ ____ _ ____ _ ____ _ ____ _ ____ _ ____
 72
    65
 73
     4
 40
2.0
 49
1.25
 49
-0.25
 49
0.25
 49
-0.25
  0
LTYPE
  2
HIDDEN
 70
     0
  3
_ _ _ _ _ _ _ _ _ _ _ _ _ _ _ _ _ _ _ _ _ _ _
 72
    65
 73
     2
 40
0.375
 49
0.25
 49
-0.125
  0
LTYPE
  2
PHANTOM2
 70
     0
  3
___ _ _ ___ _ _ ___ _ _ ___ _ _
 72
    65
 73
     6
 40
1.25
 49
0.625
 49
-0.125
 49
0.125
 49
-0.125
 49
0.125
 49
-0.125
  0
ENDTAB
  0
TABLE
  2
LAYER
 70
     4
  0
LAYER
  2
0
 70
     0
 62
     7
  6
CONTINUOUS
  0
LAYER
  2
1
 70
     0
 62
     1
  6
CENTER
  0
LAYER
  2
2
 70
     0
 62
     2
  6
HIDDEN
  0
LAYER
  2
3
 70
     0
 62
     3
  6
CONTINUOUS
  0
ENDTAB
  0
TABLE
  2
STYLE
 70
     2
  0
STYLE
  2
STANDARD
 70
     0
 40
0.0
 41
1.0
 50
0.0
 71
     0
 42
0.2
  3
TXT
  4
BIGFONT
  0
STYLE
  2
STANDARD1
 70
     0
 40
0.0
 41
1.0
 50
0.0
 71
     0
 42
3.0
  3
txt
  4

  0
ENDTAB
  0
TABLE
  2
VIEW
 70
     1
  0
VIEW
  2
ALL
 70
     0
 40
540.0
 10
441.98319299999991
 20
270.0
 41
0.0
 11
0.0
 21
0.0
 31
1.0
 12
0.0
 22
0.0
 32
0.0
 42
0.0
 43
0.0
 44
0.0
 50
0.0
 71
     0
  0
ENDTAB
  0
TABLE
  2
UCS
 70
     0
  0
ENDTAB
  0
TABLE
  2
APPID
 70
     6
  0
APPID
  2
ACAD
 70
     0
  0
APPID
  2
ACAD_NAV_VCDISPLAY
 70
     0
  0
APPID
  2
ACAD_EXEMPT_FROM_CAD_STANDARDS
 70
     0
  0
APPID
  2
ACAD_DSTYLE_DIMJAG
 70
     0
  0
APPID
  2
ACAD_DSTYLE_DIMTALN
 70
     0
  0
APPID
  2
ACAD_MLEADERVER
 70
     0
  0
ENDTAB
  0
TABLE
  2
DIMSTYLE
 70
     1
  0
DIMSTYLE
  2
STANDARD
 70
     0
  3

  4

  5

  6

  7

 40
1.0
 41
0.18
 42
0.0625
 43
0.38
 44
0.18
 45
0.0
 46
0.0
 47
0.0
 48
0.0
140
0.18
141
0.09
142
0.0
143
25.399999999999999
144
1.0
145
0.0
146
1.0
147
0.09
 71
     0
 72
     0
 73
     1
 74
     1
 75
     0
 76
     0
 77
     0
 78
     0
170
     0
171
     2
172
     0
173
     0
174
     0
175
     0
176
     0
177
     0
178
     0
  0
ENDTAB
  0
ENDSEC
  0
SECTION
  2
BLOCKS
  0
BLOCK
  8
0
  2
$MODEL_SPACE
 70
     0
 10
0.0
 20
0.0
 30
0.0
  3
$MODEL_SPACE
  1

  0
ENDBLK
  5
11D
  8
0
  0
BLOCK
 67
     1
  8
0
  2
$PAPER_SPACE
 70
     0
 10
0.0
 20
0.0
 30
0.0
  3
$PAPER_SPACE
  1

  0
ENDBLK
  5
11B
 67
     1
  8
0
  0
ENDSEC
  0
SECTION
  2
ENTITIES
  0
LINE
  5
378
  8
2
 10
41.89799992244469
 20
88.237841448772656
 30
0.0
 11
41.89799992244469
 21
83.498175480431655
 31
0.0
  0
LINE
  5
379
  8
2
 10
51.549999784152917
 20
88.237841448773693
 30
0.0
 11
51.549999784152917
 21
83.498175480433176
 31
0.0
  0
LINE
  5
37A
  8
1
 10
46.724016174323133
 20
41.897980198557399
 30
0.0
 11
46.723983532277813
 21
31.31000010016621
 31
0.0
  0
LINE
  5
37B
  8
1
 10
41.42996908385696
 20
36.603990149361813
 30
0.0
 11
52.017998620987939
 21
36.603990149361813
 31
0.0
  0
LINE
  5
37C
  8
2
 10
43.929999880388422
 20
64.571002923598286
 30
0.0
 11
43.929999880388422
 21
69.104134244541854
 31
0.0
  0
LINE
  5
37D
  8
2
 10
49.517999826643042
 20
64.571002923672893
 30
0.0
 11
49.517999826643042
 21
69.10413424464528
 31
0.0
  0
LINE
  5
37E
  8
0
 10
80.165855936385498
 20
88.968846232446865
 30
0.0
 11
80.165855936385483
 21
64.330846232446874
 31
0.0
  0
LINE
  5
37F
  8
0
 10
93.37385593638551
 20
88.968846232446865
 30
0.0
 11
93.373855936385496
 21
64.330846232446874
 31
0.0
  0
LINE
  5
380
  8
1
 10
77.665855936385483
 20
76.649846232446862
 30
0.0
 11
95.87385593638551
 21
76.649846232446862
 31
0.0
  0
LINE
  5
381
  8
1
 10
86.769858347910514
 20
61.830846232446874
 30
0.0
 11
86.769858347910514
 21
91.468846232446865
 31
0.0
  0
LINE
  5
382
  8
1
 10
29.99999985330048
 20
76.649846232446862
 30
0.0
 11
63.44799985330048
 21
76.649846232446862
 31
0.0
  0
LINE
  5
383
  8
1
 10
46.72395776666805
 20
91.468833195731108
 30
0.0
 11
46.72404193993291
 21
61.830859269162552
 31
0.0
  0
LINE
  5
384
  8
2
 10
91.595855936385504
 20
84.523846232446857
 30
0.0
 11
93.373855936385539
 21
84.523846232446857
 31
0.0
  0
LINE
  5
385
  8
2
 10
80.165855936385498
 20
84.523846232446857
 30
0.0
 11
81.943855936385532
 21
84.523846232446857
 31
0.0
  0
LINE
  5
386
  8
2
 10
83.975855936385514
 20
68.775846232446838
 30
0.0
 11
80.165855936385498
 21
68.775846232446838
 31
0.0
  0
LINE
  5
387
  8
2
 10
93.373855936385539
 20
68.775846232446838
 30
0.0
 11
89.563855936385536
 21
68.775846232446838
 31
0.0
  0
LINE
  5
388
  8
2
 10
91.595855936385504
 20
88.968846232446865
 30
0.0
 11
91.595855936385504
 21
84.523846232446857
 31
0.0
  0
LINE
  5
389
  8
2
 10
81.943855936385532
 20
84.523846232446857
 30
0.0
 11
81.943855936385532
 21
88.968846232446865
 31
0.0
  0
LINE
  5
38A
  8
2
 10
83.975855936385514
 20
64.330846232446845
 30
0.0
 11
83.975855936385514
 21
68.775846232446838
 31
0.0
  0
LINE
  5
38B
  8
2
 10
89.563855936385536
 20
68.775846232446838
 30
0.0
 11
89.563855936385536
 21
64.330846232446845
 31
0.0
  0
LINE
  5
38C
  8
0
 10
91.595855936385504
 20
88.968846232446865
 30
0.0
 11
93.373855936385539
 21
88.968846232446865
 31
0.0
  0
LINE
  5
38D
  8
0
 10
80.165855936385498
 20
88.968846232446865
 30
0.0
 11
81.943855936385532
 21
88.968846232446865
 31
0.0
  0
LINE
  5
38E
  8
0
 10
83.975855936385514
 20
64.330846232446845
 30
0.0
 11
80.165855936385498
 21
64.330846232446845
 31
0.0
  0
LINE
  5
38F
  8
0
 10
93.373855936385539
 20
64.330846232446845
 30
0.0
 11
89.563855936385536
 21
64.330846232446845
 31
0.0
  0
POLYLINE
  5
390
  8
0
 10
60.947999853300473
 20
76.649846232446862
 30
0.0
 66
     1
 70
     8
  0
VERTEX
  8
0
  5
53C
 10
60.9480
 20
76.6498
 30
0.000000
  70
    32
  0
VERTEX
  8
0
  5
53D
 10
60.9309
 20
77.2543
 30
0.000000
  70
    32
  0
VERTEX
  8
0
  5
53E
 10
60.8795
 20
77.8573
 30
0.000000
  70
    32
  0
VERTEX
  8
0
  5
53F
 10
60.7940
 20
78.4574
 30
0.000000
  70
    32
  0
VERTEX
  8
0
  5
540
 10
60.6747
 20
79.0532
 30
0.000000
  70
    32
  0
VERTEX
  8
0
  5
541
 10
60.5217
 20
79.6431
 30
0.000000
  70
    32
  0
VERTEX
  8
0
  5
542
 10
60.3355
 20
80.2259
 30
0.000000
  70
    32
  0
VERTEX
  8
0
  5
543
 10
60.1165
 20
80.8000
 30
0.000000
  70
    32
  0
VERTEX
  8
0
  5
544
 10
59.8653
 20
81.3641
 30
0.000000
  70
    32
  0
VERTEX
  8
0
  5
545
 10
59.5823
 20
81.9169
 30
0.000000
  70
    32
  0
VERTEX
  8
0
  5
546
 10
59.2684
 20
82.4570
 30
0.000000
  70
    32
  0
VERTEX
  8
0
  5
547
 10
58.9243
 20
82.9831
 30
0.000000
  70
    32
  0
VERTEX
  8
0
  5
548
 10
58.5508
 20
83.4939
 30
0.000000
  70
    32
  0
VERTEX
  8
0
  5
549
 10
58.1488
 20
83.9883
 30
0.000000
  70
    32
  0
VERTEX
  8
0
  5
54A
 10
57.7193
 20
84.4649
 30
0.000000
  70
    32
  0
VERTEX
  8
0
  5
54B
 10
57.2633
 20
84.9228
 30
0.000000
  70
    32
  0
VERTEX
  8
0
  5
54C
 10
56.7819
 20
85.3607
 30
0.000000
  70
    32
  0
VERTEX
  8
0
  5
54D
 10
56.2763
 20
85.7776
 30
0.000000
  70
    32
  0
VERTEX
  8
0
  5
54E
 10
55.7476
 20
86.1726
 30
0.000000
  70
    32
  0
VERTEX
  8
0
  5
54F
 10
55.1972
 20
86.5446
 30
0.000000
  70
    32
  0
VERTEX
  8
0
  5
550
 10
54.6264
 20
86.8927
 30
0.000000
  70
    32
  0
VERTEX
  8
0
  5
551
 10
54.0366
 20
87.2162
 30
0.000000
  70
    32
  0
VERTEX
  8
0
  5
552
 10
53.4291
 20
87.5142
 30
0.000000
  70
    32
  0
VERTEX
  8
0
  5
553
 10
52.8055
 20
87.7861
 30
0.000000
  70
    32
  0
VERTEX
  8
0
  5
554
 10
52.1673
 20
88.0311
 30
0.000000
  70
    32
  0
VERTEX
  8
0
  5
555
 10
51.5159
 20
88.2487
 30
0.000000
  70
    32
  0
VERTEX
  8
0
  5
556
 10
50.8530
 20
88.4384
 30
0.000000
  70
    32
  0
VERTEX
  8
0
  5
557
 10
50.1801
 20
88.5997
 30
0.000000
  70
    32
  0
VERTEX
  8
0
  5
558
 10
49.4990
 20
88.7321
 30
0.000000
  70
    32
  0
VERTEX
  8
0
  5
559
 10
48.8111
 20
88.8355
 30
0.000000
  70
    32
  0
VERTEX
  8
0
  5
55A
 10
48.1182
 20
88.9095
 30
0.000000
  70
    32
  0
VERTEX
  8
0
  5
55B
 10
47.4219
 20
88.9540
 30
0.000000
  70
    32
  0
VERTEX
  8
0
  5
55C
 10
46.7240
 20
88.9688
 30
0.000000
  70
    32
  0
VERTEX
  8
0
  5
55D
 10
46.0261
 20
88.9540
 30
0.000000
  70
    32
  0
VERTEX
  8
0
  5
55E
 10
45.3298
 20
88.9095
 30
0.000000
  70
    32
  0
VERTEX
  8
0
  5
55F
 10
44.6369
 20
88.8355
 30
0.000000
  70
    32
  0
VERTEX
  8
0
  5
560
 10
43.9490
 20
88.7321
 30
0.000000
  70
    32
  0
VERTEX
  8
0
  5
561
 10
43.2678
 20
88.5997
 30
0.000000
  70
    32
  0
VERTEX
  8
0
  5
562
 10
42.5950
 20
88.4384
 30
0.000000
  70
    32
  0
VERTEX
  8
0
  5
563
 10
41.9321
 20
88.2487
 30
0.000000
  70
    32
  0
VERTEX
  8
0
  5
564
 10
41.2807
 20
88.0311
 30
0.000000
  70
    32
  0
VERTEX
  8
0
  5
565
 10
40.6425
 20
87.7861
 30
0.000000
  70
    32
  0
VERTEX
  8
0
  5
566
 10
40.0189
 20
87.5142
 30
0.000000
  70
    32
  0
VERTEX
  8
0
  5
567
 10
39.4114
 20
87.2162
 30
0.000000
  70
    32
  0
VERTEX
  8
0
  5
568
 10
38.8216
 20
86.8927
 30
0.000000
  70
    32
  0
VERTEX
  8
0
  5
569
 10
38.2508
 20
86.5446
 30
0.000000
  70
    32
  0
VERTEX
  8
0
  5
56A
 10
37.7004
 20
86.1726
 30
0.000000
  70
    32
  0
VERTEX
  8
0
  5
56B
 10
37.1717
 20
85.7776
 30
0.000000
  70
    32
  0
VERTEX
  8
0
  5
56C
 10
36.6661
 20
85.3607
 30
0.000000
  70
    32
  0
VERTEX
  8
0
  5
56D
 10
36.1847
 20
84.9228
 30
0.000000
  70
    32
  0
VERTEX
  8
0
  5
56E
 10
35.7287
 20
84.4649
 30
0.000000
  70
    32
  0
VERTEX
  8
0
  5
56F
 10
35.2992
 20
83.9883
 30
0.000000
  70
    32
  0
VERTEX
  8
0
  5
570
 10
34.8972
 20
83.4939
 30
0.000000
  70
    32
  0
VERTEX
  8
0
  5
571
 10
34.5237
 20
82.9831
 30
0.000000
  70
    32
  0
VERTEX
  8
0
  5
572
 10
34.1796
 20
82.4570
 30
0.000000
  70
    32
  0
VERTEX
  8
0
  5
573
 10
33.8657
 20
81.9169
 30
0.000000
  70
    32
  0
VERTEX
  8
0
  5
574
 10
33.5827
 20
81.3641
 30
0.000000
  70
    32
  0
VERTEX
  8
0
  5
575
 10
33.3315
 20
80.8000
 30
0.000000
  70
    32
  0
VERTEX
  8
0
  5
576
 10
33.1125
 20
80.2259
 30
0.000000
  70
    32
  0
VERTEX
  8
0
  5
577
 10
32.9263
 20
79.6431
 30
0.000000
  70
    32
  0
VERTEX
  8
0
  5
578
 10
32.7733
 20
79.0532
 30
0.000000
  70
    32
  0
VERTEX
  8
0
  5
579
 10
32.6540
 20
78.4574
 30
0.000000
  70
    32
  0
VERTEX
  8
0
  5
57A
 10
32.5685
 20
77.8573
 30
0.000000
  70
    32
  0
VERTEX
  8
0
  5
57B
 10
32.5171
 20
77.2543
 30
0.000000
  70
    32
  0
VERTEX
  8
0
  5
57C
 10
32.5000
 20
76.6498
 30
0.000000
  70
    32
  0
VERTEX
  8
0
  5
57D
 10
32.5171
 20
76.0454
 30
0.000000
  70
    32
  0
VERTEX
  8
0
  5
57E
 10
32.5685
 20
75.4424
 30
0.000000
  70
    32
  0
VERTEX
  8
0
  5
57F
 10
32.6540
 20
74.8423
 30
0.000000
  70
    32
  0
VERTEX
  8
0
  5
580
 10
32.7733
 20
74.2465
 30
0.000000
  70
    32
  0
VERTEX
  8
0
  5
581
 10
32.9263
 20
73.6566
 30
0.000000
  70
    32
  0
VERTEX
  8
0
  5
582
 10
33.1125
 20
73.0738
 30
0.000000
  70
    32
  0
VERTEX
  8
0
  5
583
 10
33.3315
 20
72.4997
 30
0.000000
  70
    32
  0
VERTEX
  8
0
  5
584
 10
33.5827
 20
71.9356
 30
0.000000
  70
    32
  0
VERTEX
  8
0
  5
585
 10
33.8657
 20
71.3828
 30
0.000000
  70
    32
  0
VERTEX
  8
0
  5
586
 10
34.1796
 20
70.8427
 30
0.000000
  70
    32
  0
VERTEX
  8
0
  5
587
 10
34.5237
 20
70.3166
 30
0.000000
  70
    32
  0
VERTEX
  8
0
  5
588
 10
34.8972
 20
69.8058
 30
0.000000
  70
    32
  0
VERTEX
  8
0
  5
589
 10
35.2992
 20
69.3114
 30
0.000000
  70
    32
  0
VERTEX
  8
0
  5
58A
 10
35.7287
 20
68.8348
 30
0.000000
  70
    32
  0
VERTEX
  8
0
  5
58B
 10
36.1847
 20
68.3769
 30
0.000000
  70
    32
  0
VERTEX
  8
0
  5
58C
 10
36.6661
 20
67.9390
 30
0.000000
  70
    32
  0
VERTEX
  8
0
  5
58D
 10
37.1717
 20
67.5221
 30
0.000000
  70
    32
  0
VERTEX
  8
0
  5
58E
 10
37.7004
 20
67.1271
 30
0.000000
  70
    32
  0
VERTEX
  8
0
  5
58F
 10
38.2508
 20
66.7551
 30
0.000000
  70
    32
  0
VERTEX
  8
0
  5
590
 10
38.8216
 20
66.4070
 30
0.000000
  70
    32
  0
VERTEX
  8
0
  5
591
 10
39.4114
 20
66.0835
 30
0.000000
  70
    32
  0
VERTEX
  8
0
  5
592
 10
40.0189
 20
65.7855
 30
0.000000
  70
    32
  0
VERTEX
  8
0
  5
593
 10
40.6425
 20
65.5136
 30
0.000000
  70
    32
  0
VERTEX
  8
0
  5
594
 10
41.2807
 20
65.2686
 30
0.000000
  70
    32
  0
VERTEX
  8
0
  5
595
 10
41.9321
 20
65.0510
 30
0.000000
  70
    32
  0
VERTEX
  8
0
  5
596
 10
42.5950
 20
64.8613
 30
0.000000
  70
    32
  0
VERTEX
  8
0
  5
597
 10
43.2678
 20
64.7000
 30
0.000000
  70
    32
  0
VERTEX
  8
0
  5
598
 10
43.9490
 20
64.5676
 30
0.000000
  70
    32
  0
VERTEX
  8
0
  5
599
 10
44.6369
 20
64.4642
 30
0.000000
  70
    32
  0
VERTEX
  8
0
  5
59A
 10
45.3298
 20
64.3902
 30
0.000000
  70
    32
  0
VERTEX
  8
0
  5
59B
 10
46.0261
 20
64.3457
 30
0.000000
  70
    32
  0
VERTEX
  8
0
  5
59C
 10
46.7240
 20
64.3308
 30
0.000000
  70
    32
  0
VERTEX
  8
0
  5
59D
 10
47.4219
 20
64.3457
 30
0.000000
  70
    32
  0
VERTEX
  8
0
  5
59E
 10
48.1182
 20
64.3902
 30
0.000000
  70
    32
  0
VERTEX
  8
0
  5
59F
 10
48.8111
 20
64.4642
 30
0.000000
  70
    32
  0
VERTEX
  8
0
  5
5A0
 10
49.4990
 20
64.5676
 30
0.000000
  70
    32
  0
VERTEX
  8
0
  5
5A1
 10
50.1801
 20
64.7000
 30
0.000000
  70
    32
  0
VERTEX
  8
0
  5
5A2
 10
50.8530
 20
64.8613
 30
0.000000
  70
    32
  0
VERTEX
  8
0
  5
5A3
 10
51.5159
 20
65.0510
 30
0.000000
  70
    32
  0
VERTEX
  8
0
  5
5A4
 10
52.1673
 20
65.2686
 30
0.000000
  70
    32
  0
VERTEX
  8
0
  5
5A5
 10
52.8055
 20
65.5136
 30
0.000000
  70
    32
  0
VERTEX
  8
0
  5
5A6
 10
53.4291
 20
65.7855
 30
0.000000
  70
    32
  0
VERTEX
  8
0
  5
5A7
 10
54.0366
 20
66.0835
 30
0.000000
  70
    32
  0
VERTEX
  8
0
  5
5A8
 10
54.6264
 20
66.4070
 30
0.000000
  70
    32
  0
VERTEX
  8
0
  5
5A9
 10
55.1972
 20
66.7551
 30
0.000000
  70
    32
  0
VERTEX
  8
0
  5
5AA
 10
55.7476
 20
67.1271
 30
0.000000
  70
    32
  0
VERTEX
  8
0
  5
5AB
 10
56.2763
 20
67.5221
 30
0.000000
  70
    32
  0
VERTEX
  8
0
  5
5AC
 10
56.7819
 20
67.9390
 30
0.000000
  70
    32
  0
VERTEX
  8
0
  5
5AD
 10
57.2633
 20
68.3769
 30
0.000000
  70
    32
  0
VERTEX
  8
0
  5
5AE
 10
57.7193
 20
68.8348
 30
0.000000
  70
    32
  0
VERTEX
  8
0
  5
5AF
 10
58.1488
 20
69.3114
 30
0.000000
  70
    32
  0
VERTEX
  8
0
  5
5B0
 10
58.5508
 20
69.8058
 30
0.000000
  70
    32
  0
VERTEX
  8
0
  5
5B1
 10
58.9243
 20
70.3166
 30
0.000000
  70
    32
  0
VERTEX
  8
0
  5
5B2
 10
59.2684
 20
70.8427
 30
0.000000
  70
    32
  0
VERTEX
  8
0
  5
5B3
 10
59.5823
 20
71.3828
 30
0.000000
  70
    32
  0
VERTEX
  8
0
  5
5B4
 10
59.8653
 20
71.9356
 30
0.000000
  70
    32
  0
VERTEX
  8
0
  5
5B5
 10
60.1165
 20
72.4997
 30
0.000000
  70
    32
  0
VERTEX
  8
0
  5
5B6
 10
60.3355
 20
73.0738
 30
0.000000
  70
    32
  0
VERTEX
  8
0
  5
5B7
 10
60.5217
 20
73.6566
 30
0.000000
  70
    32
  0
VERTEX
  8
0
  5
5B8
 10
60.6747
 20
74.2465
 30
0.000000
  70
    32
  0
VERTEX
  8
0
  5
5B9
 10
60.7940
 20
74.8423
 30
0.000000
  70
    32
  0
VERTEX
  8
0
  5
5BA
 10
60.8795
 20
75.4424
 30
0.000000
  70
    32
  0
VERTEX
  8
0
  5
5BB
 10
60.9309
 20
76.0454
 30
0.000000
  70
    32
  0
VERTEX
  8
0
  5
5BC
 10
60.9480
 20
76.6498
 30
0.000000
  70
    32
  0
SEQEND
  8
0
  5
5BD
  0
POLYLINE
  5
391
  8
0
 10
56.502999853300473
 20
76.649846232446862
 30
0.0
 66
     1
 70
     8
  0
VERTEX
  8
0
  5
5BE
 10
56.5030
 20
76.6498
 30
0.000000
  70
    32
  0
VERTEX
  8
0
  5
5BF
 10
56.4912
 20
77.0362
 30
0.000000
  70
    32
  0
VERTEX
  8
0
  5
5C0
 10
56.4559
 20
77.4216
 30
0.000000
  70
    32
  0
VERTEX
  8
0
  5
5C1
 10
56.3972
 20
77.8052
 30
0.000000
  70
    32
  0
VERTEX
  8
0
  5
5C2
 10
56.3151
 20
78.1860
 30
0.000000
  70
    32
  0
VERTEX
  8
0
  5
5C3
 10
56.2099
 20
78.5631
 30
0.000000
  70
    32
  0
VERTEX
  8
0
  5
5C4
 10
56.0819
 20
78.9355
 30
0.000000
  70
    32
  0
VERTEX
  8
0
  5
5C5
 10
55.9314
 20
79.3025
 30
0.000000
  70
    32
  0
VERTEX
  8
0
  5
5C6
 10
55.7586
 20
79.6631
 30
0.000000
  70
    32
  0
VERTEX
  8
0
  5
5C7
 10
55.5641
 20
80.0164
 30
0.000000
  70
    32
  0
VERTEX
  8
0
  5
5C8
 10
55.3483
 20
80.3616
 30
0.000000
  70
    32
  0
VERTEX
  8
0
  5
5C9
 10
55.1117
 20
80.6979
 30
0.000000
  70
    32
  0
VERTEX
  8
0
  5
5CA
 10
54.8549
 20
81.0244
 30
0.000000
  70
    32
  0
VERTEX
  8
0
  5
5CB
 10
54.5786
 20
81.3404
 30
0.000000
  70
    32
  0
VERTEX
  8
0
  5
5CC
 10
54.2833
 20
81.6451
 30
0.000000
  70
    32
  0
VERTEX
  8
0
  5
5CD
 10
53.9698
 20
81.9377
 30
0.000000
  70
    32
  0
VERTEX
  8
0
  5
5CE
 10
53.6388
 20
82.2176
 30
0.000000
  70
    32
  0
VERTEX
  8
0
  5
5CF
 10
53.2912
 20
82.4841
 30
0.000000
  70
    32
  0
VERTEX
  8
0
  5
5D0
 10
52.9277
 20
82.7365
 30
0.000000
  70
    32
  0
VERTEX
  8
0
  5
5D1
 10
52.5493
 20
82.9743
 30
0.000000
  70
    32
  0
VERTEX
  8
0
  5
5D2
 10
52.1569
 20
83.1968
 30
0.000000
  70
    32
  0
VERTEX
  8
0
  5
5D3
 10
51.7514
 20
83.4036
 30
0.000000
  70
    32
  0
VERTEX
  8
0
  5
5D4
 10
51.3338
 20
83.5941
 30
0.000000
  70
    32
  0
VERTEX
  8
0
  5
5D5
 10
50.9051
 20
83.7679
 30
0.000000
  70
    32
  0
VERTEX
  8
0
  5
5D6
 10
50.4663
 20
83.9245
 30
0.000000
  70
    32
  0
VERTEX
  8
0
  5
5D7
 10
50.0184
 20
84.0636
 30
0.000000
  70
    32
  0
VERTEX
  8
0
  5
5D8
 10
49.5627
 20
84.1848
 30
0.000000
  70
    32
  0
VERTEX
  8
0
  5
5D9
 10
49.1001
 20
84.2879
 30
0.000000
  70
    32
  0
VERTEX
  8
0
  5
5DA
 10
48.6318
 20
84.3725
 30
0.000000
  70
    32
  0
VERTEX
  8
0
  5
5DB
 10
48.1589
 20
84.4386
 30
0.000000
  70
    32
  0
VERTEX
  8
0
  5
5DC
 10
47.6825
 20
84.4859
 30
0.000000
  70
    32
  0
VERTEX
  8
0
  5
5DD
 10
47.2038
 20
84.5144
 30
0.000000
  70
    32
  0
VERTEX
  8
0
  5
5DE
 10
46.7240
 20
84.5238
 30
0.000000
  70
    32
  0
VERTEX
  8
0
  5
5DF
 10
46.2442
 20
84.5144
 30
0.000000
  70
    32
  0
VERTEX
  8
0
  5
5E0
 10
45.7655
 20
84.4859
 30
0.000000
  70
    32
  0
VERTEX
  8
0
  5
5E1
 10
45.2891
 20
84.4386
 30
0.000000
  70
    32
  0
VERTEX
  8
0
  5
5E2
 10
44.8162
 20
84.3725
 30
0.000000
  70
    32
  0
VERTEX
  8
0
  5
5E3
 10
44.3479
 20
84.2879
 30
0.000000
  70
    32
  0
VERTEX
  8
0
  5
5E4
 10
43.8853
 20
84.1848
 30
0.000000
  70
    32
  0
VERTEX
  8
0
  5
5E5
 10
43.4296
 20
84.0636
 30
0.000000
  70
    32
  0
VERTEX
  8
0
  5
5E6
 10
42.9817
 20
83.9245
 30
0.000000
  70
    32
  0
VERTEX
  8
0
  5
5E7
 10
42.5429
 20
83.7679
 30
0.000000
  70
    32
  0
VERTEX
  8
0
  5
5E8
 10
42.1142
 20
83.5941
 30
0.000000
  70
    32
  0
VERTEX
  8
0
  5
5E9
 10
41.6966
 20
83.4036
 30
0.000000
  70
    32
  0
VERTEX
  8
0
  5
5EA
 10
41.2911
 20
83.1968
 30
0.000000
  70
    32
  0
VERTEX
  8
0
  5
5EB
 10
40.8987
 20
82.9743
 30
0.000000
  70
    32
  0
VERTEX
  8
0
  5
5EC
 10
40.5203
 20
82.7365
 30
0.000000
  70
    32
  0
VERTEX
  8
0
  5
5ED
 10
40.1568
 20
82.4841
 30
0.000000
  70
    32
  0
VERTEX
  8
0
  5
5EE
 10
39.8092
 20
82.2176
 30
0.000000
  70
    32
  0
VERTEX
  8
0
  5
5EF
 10
39.4782
 20
81.9377
 30
0.000000
  70
    32
  0
VERTEX
  8
0
  5
5F0
 10
39.1647
 20
81.6451
 30
0.000000
  70
    32
  0
VERTEX
  8
0
  5
5F1
 10
38.8694
 20
81.3404
 30
0.000000
  70
    32
  0
VERTEX
  8
0
  5
5F2
 10
38.5931
 20
81.0244
 30
0.000000
  70
    32
  0
VERTEX
  8
0
  5
5F3
 10
38.3363
 20
80.6979
 30
0.000000
  70
    32
  0
VERTEX
  8
0
  5
5F4
 10
38.0997
 20
80.3616
 30
0.000000
  70
    32
  0
VERTEX
  8
0
  5
5F5
 10
37.8839
 20
80.0164
 30
0.000000
  70
    32
  0
VERTEX
  8
0
  5
5F6
 10
37.6894
 20
79.6631
 30
0.000000
  70
    32
  0
VERTEX
  8
0
  5
5F7
 10
37.5166
 20
79.3025
 30
0.000000
  70
    32
  0
VERTEX
  8
0
  5
5F8
 10
37.3661
 20
78.9355
 30
0.000000
  70
    32
  0
VERTEX
  8
0
  5
5F9
 10
37.2381
 20
78.5631
 30
0.000000
  70
    32
  0
VERTEX
  8
0
  5
5FA
 10
37.1329
 20
78.1860
 30
0.000000
  70
    32
  0
VERTEX
  8
0
  5
5FB
 10
37.0508
 20
77.8052
 30
0.000000
  70
    32
  0
VERTEX
  8
0
  5
5FC
 10
36.9921
 20
77.4216
 30
0.000000
  70
    32
  0
VERTEX
  8
0
  5
5FD
 10
36.9568
 20
77.0362
 30
0.000000
  70
    32
  0
VERTEX
  8
0
  5
5FE
 10
36.9450
 20
76.6498
 30
0.000000
  70
    32
  0
VERTEX
  8
0
  5
5FF
 10
36.9568
 20
76.2635
 30
0.000000
  70
    32
  0
VERTEX
  8
0
  5
600
 10
36.9921
 20
75.8781
 30
0.000000
  70
    32
  0
VERTEX
  8
0
  5
601
 10
37.0508
 20
75.4945
 30
0.000000
  70
    32
  0
VERTEX
  8
0
  5
602
 10
37.1329
 20
75.1137
 30
0.000000
  70
    32
  0
VERTEX
  8
0
  5
603
 10
37.2381
 20
74.7366
 30
0.000000
  70
    32
  0
VERTEX
  8
0
  5
604
 10
37.3661
 20
74.3641
 30
0.000000
  70
    32
  0
VERTEX
  8
0
  5
605
 10
37.5166
 20
73.9972
 30
0.000000
  70
    32
  0
VERTEX
  8
0
  5
606
 10
37.6894
 20
73.6366
 30
0.000000
  70
    32
  0
VERTEX
  8
0
  5
607
 10
37.8839
 20
73.2833
 30
0.000000
  70
    32
  0
VERTEX
  8
0
  5
608
 10
38.0997
 20
72.9381
 30
0.000000
  70
    32
  0
VERTEX
  8
0
  5
609
 10
38.3363
 20
72.6018
 30
0.000000
  70
    32
  0
VERTEX
  8
0
  5
60A
 10
38.5931
 20
72.2753
 30
0.000000
  70
    32
  0
VERTEX
  8
0
  5
60B
 10
38.8694
 20
71.9593
 30
0.000000
  70
    32
  0
VERTEX
  8
0
  5
60C
 10
39.1647
 20
71.6546
 30
0.000000
  70
    32
  0
VERTEX
  8
0
  5
60D
 10
39.4782
 20
71.3620
 30
0.000000
  70
    32
  0
VERTEX
  8
0
  5
60E
 10
39.8092
 20
71.0821
 30
0.000000
  70
    32
  0
VERTEX
  8
0
  5
60F
 10
40.1568
 20
70.8156
 30
0.000000
  70
    32
  0
VERTEX
  8
0
  5
610
 10
40.5203
 20
70.5632
 30
0.000000
  70
    32
  0
VERTEX
  8
0
  5
611
 10
40.8987
 20
70.3254
 30
0.000000
  70
    32
  0
VERTEX
  8
0
  5
612
 10
41.2911
 20
70.1029
 30
0.000000
  70
    32
  0
VERTEX
  8
0
  5
613
 10
41.6966
 20
69.8961
 30
0.000000
  70
    32
  0
VERTEX
  8
0
  5
614
 10
42.1142
 20
69.7056
 30
0.000000
  70
    32
  0
VERTEX
  8
0
  5
615
 10
42.5429
 20
69.5318
 30
0.000000
  70
    32
  0
VERTEX
  8
0
  5
616
 10
42.9817
 20
69.3752
 30
0.000000
  70
    32
  0
VERTEX
  8
0
  5
617
 10
43.4296
 20
69.2361
 30
0.000000
  70
    32
  0
VERTEX
  8
0
  5
618
 10
43.8853
 20
69.1149
 30
0.000000
  70
    32
  0
VERTEX
  8
0
  5
619
 10
44.3479
 20
69.0118
 30
0.000000
  70
    32
  0
VERTEX
  8
0
  5
61A
 10
44.8162
 20
68.9271
 30
0.000000
  70
    32
  0
VERTEX
  8
0
  5
61B
 10
45.2891
 20
68.8611
 30
0.000000
  70
    32
  0
VERTEX
  8
0
  5
61C
 10
45.7655
 20
68.8138
 30
0.000000
  70
    32
  0
VERTEX
  8
0
  5
61D
 10
46.2442
 20
68.7853
 30
0.000000
  70
    32
  0
VERTEX
  8
0
  5
61E
 10
46.7240
 20
68.7758
 30
0.000000
  70
    32
  0
VERTEX
  8
0
  5
61F
 10
47.2038
 20
68.7853
 30
0.000000
  70
    32
  0
VERTEX
  8
0
  5
620
 10
47.6825
 20
68.8138
 30
0.000000
  70
    32
  0
VERTEX
  8
0
  5
621
 10
48.1589
 20
68.8611
 30
0.000000
  70
    32
  0
VERTEX
  8
0
  5
622
 10
48.6318
 20
68.9271
 30
0.000000
  70
    32
  0
VERTEX
  8
0
  5
623
 10
49.1001
 20
69.0118
 30
0.000000
  70
    32
  0
VERTEX
  8
0
  5
624
 10
49.5627
 20
69.1149
 30
0.000000
  70
    32
  0
VERTEX
  8
0
  5
625
 10
50.0184
 20
69.2361
 30
0.000000
  70
    32
  0
VERTEX
  8
0
  5
626
 10
50.4663
 20
69.3752
 30
0.000000
  70
    32
  0
VERTEX
  8
0
  5
627
 10
50.9051
 20
69.5318
 30
0.000000
  70
    32
  0
VERTEX
  8
0
  5
628
 10
51.3338
 20
69.7056
 30
0.000000
  70
    32
  0
VERTEX
  8
0
  5
629
 10
51.7514
 20
69.8961
 30
0.000000
  70
    32
  0
VERTEX
  8
0
  5
62A
 10
52.1569
 20
70.1029
 30
0.000000
  70
    32
  0
VERTEX
  8
0
  5
62B
 10
52.5493
 20
70.3254
 30
0.000000
  70
    32
  0
VERTEX
  8
0
  5
62C
 10
52.9277
 20
70.5632
 30
0.000000
  70
    32
  0
VERTEX
  8
0
  5
62D
 10
53.2912
 20
70.8156
 30
0.000000
  70
    32
  0
VERTEX
  8
0
  5
62E
 10
53.6388
 20
71.0821
 30
0.000000
  70
    32
  0
VERTEX
  8
0
  5
62F
 10
53.9698
 20
71.3620
 30
0.000000
  70
    32
  0
VERTEX
  8
0
  5
630
 10
54.2833
 20
71.6546
 30
0.000000
  70
    32
  0
VERTEX
  8
0
  5
631
 10
54.5786
 20
71.9593
 30
0.000000
  70
    32
  0
VERTEX
  8
0
  5
632
 10
54.8549
 20
72.2753
 30
0.000000
  70
    32
  0
VERTEX
  8
0
  5
633
 10
55.1117
 20
72.6018
 30
0.000000
  70
    32
  0
VERTEX
  8
0
  5
634
 10
55.3483
 20
72.9381
 30
0.000000
  70
    32
  0
VERTEX
  8
0
  5
635
 10
55.5641
 20
73.2833
 30
0.000000
  70
    32
  0
VERTEX
  8
0
  5
636
 10
55.7586
 20
73.6366
 30
0.000000
  70
    32
  0
VERTEX
  8
0
  5
637
 10
55.9314
 20
73.9972
 30
0.000000
  70
    32
  0
VERTEX
  8
0
  5
638
 10
56.0819
 20
74.3641
 30
0.000000
  70
    32
  0
VERTEX
  8
0
  5
639
 10
56.2099
 20
74.7366
 30
0.000000
  70
    32
  0
VERTEX
  8
0
  5
63A
 10
56.3151
 20
75.1137
 30
0.000000
  70
    32
  0
VERTEX
  8
0
  5
63B
 10
56.3972
 20
75.4945
 30
0.000000
  70
    32
  0
VERTEX
  8
0
  5
63C
 10
56.4559
 20
75.8781
 30
0.000000
  70
    32
  0
VERTEX
  8
0
  5
63D
 10
56.4912
 20
76.2635
 30
0.000000
  70
    32
  0
VERTEX
  8
0
  5
63E
 10
56.5030
 20
76.6498
 30
0.000000
  70
    32
  0
SEQEND
  8
0
  5
63F
  0
CIRCLE
  5
392
  8
0
 10
46.723999853300469
 20
116.6957023155318
 30
0.0
 40
4.8259999999999641
  0
CIRCLE
  5
393
  8
0
 10
46.723999853300469
 20
36.603990149361813
 30
0.0
 40
2.794009950714913
  0
POLYLINE
  5
394
  8
0
 66
     1
 10
0.0
 20
0.0
 30
0.0
 70
     1
  0
VERTEX
  5
52D
  8
0
 10
32.49999985330048
 20
110.0917023155318
 30
0.0
  0
VERTEX
  5
52E
  8
0
 10
60.94799985330048
 20
110.0917023155318
 30
0.0
  0
VERTEX
  5
52F
  8
0
 10
60.94799985330048
 20
123.2997023155318
 30
0.0
  0
VERTEX
  5
530
  8
0
 10
32.49999985330048
 20
123.2997023155318
 30
0.0
  0
SEQEND
  5
531
  8
0
  0
POLYLINE
  5
395
  8
0
 66
     1
 10
0.0
 20
0.0
 30
0.0
 70
     1
  0
VERTEX
  5
532
  8
0
 10
32.499983532277831
 20
30.000000100166179
 30
0.0
  0
VERTEX
  5
533
  8
0
 10
60.947983532277803
 20
30.000000100166179
 30
0.0
  0
VERTEX
  5
534
  8
0
 10
60.947983532277803
 20
43.208000100166203
 30
0.0
  0
VERTEX
  5
535
  8
0
 10
32.499983532277831
 20
43.208000100166203
 30
0.0
  0
SEQEND
  5
536
  8
0
  0
ARC
  5
396
  8
0
 10
86.769855936385525
 20
104.53997776249371
 30
0.0
 40
16.30185305804482
 50
252.78009133320069
 51
287.2199086667992
  0
ARC
  5
397
  8
2
 10
86.769855936385525
 20
95.364925275398534
 30
0.0
 40
11.866729575395739
 50
246.00334946133
 51
293.99665053867
  0
ARC
  5
398
  8
2
 10
86.769855936381134
 20
57.04820399403809
 30
0.0
 40
12.05587112041616
 50
76.599623115391964
 51
103.40037688456491
  0
ARC
  5
399
  8
0
 10
86.769855936385483
 20
48.187237852422847
 30
0.0
 40
16.38360544958018
 50
80.180995936126095
 51
99.819004063873706
  0
LINE
  5
455
  8
1
 10
46.724022438875977
 20
124.021702315497
 30
0.0
 11
46.723977267724962
 21
109.3697023155667
 31
0.0
  0
LINE
  5
456
  8
1
 10
39.397999853300512
 20
116.6957023155318
 30
0.0
 11
54.049999853300427
 21
116.6957023155318
 31
0.0
  0
TEXT
  5
4C9
  8
0
 62
     3
 10
2.499983532277823
 20
0.0000001001661758
 30
0.0
 40
10.0
  1
TPGBR-1
  7
STANDARD1
  0
ENDSEC
  0
EOF
