  0
SECTION
  2
HEADER
  9
$ACADVER
  1
AC1009
  9
$INSBASE
 10
0.0
 20
0.0
 30
0.0
  9
$EXTMIN
 10
2.4999998301115118
 20
-2.96043650416622
 30
0.0
  9
$EXTMAX
 10
114.15243402077409
 20
149.6968684392325
 30
0.0
  9
$LIMMIN
 10
0.0
 20
0.0
  9
$LIMMAX
 10
750.0
 20
540.0
  9
$ORTHOMODE
 70
     1
  9
$REGENMODE
 70
     1
  9
$FILLMODE
 70
     1
  9
$QTEXTMODE
 70
     0
  9
$MIRRTEXT
 70
     0
  9
$DRAGMODE
 70
     2
  9
$LTSCALE
 40
10.0
  9
$OSMODE
 70
  3071
  9
$ATTMODE
 70
     1
  9
$TEXTSIZE
 40
0.2
  9
$TRACEWID
 40
0.05
  9
$TEXTSTYLE
  7
STANDARD
  9
$CLAYER
  8
0
  9
$CELTYPE
  6
BYLAYER
  9
$CECOLOR
 62
   256
  9
$DIMSCALE
 40
1.0
  9
$DIMASZ
 40
3.0
  9
$DIMEXO
 40
2.0
  9
$DIMDLI
 40
0.38
  9
$DIMRND
 40
0.0
  9
$DIMDLE
 40
0.0
  9
$DIMEXE
 40
2.0
  9
$DIMTP
 40
0.0
  9
$DIMTM
 40
0.0
  9
$DIMTXT
 40
3.2000000000000002
  9
$DIMCEN
 40
0.0
  9
$DIMTSZ
 40
0.0
  9
$DIMTOL
 70
     0
  9
$DIMLIM
 70
     0
  9
$DIMTIH
 70
     0
  9
$DIMTOH
 70
     0
  9
$DIMSE1
 70
     0
  9
$DIMSE2
 70
     0
  9
$DIMTAD
 70
     1
  9
$DIMZIN
 70
     0
  9
$DIMBLK
  1

  9
$DIMASO
 70
     0
  9
$DIMSHO
 70
     0
  9
$DIMPOST
  1

  9
$DIMAPOST
  1

  9
$DIMALT
 70
     0
  9
$DIMALTD
 70
     2
  9
$DIMALTF
 40
25.399999999999999
  9
$DIMLFAC
 40
1.0
  9
$DIMTOFL
 70
     0
  9
$DIMTVP
 40
1.6000000000000001
  9
$DIMTIX
 70
     1
  9
$DIMSOXD
 70
     0
  9
$DIMSAH
 70
     0
  9
$DIMBLK1
  1

  9
$DIMBLK2
  1

  9
$DIMSTYLE
  2
STANDARD
  9
$DIMCLRD
 70
     0
  9
$DIMCLRE
 70
     0
  9
$DIMCLRT
 70
     0
  9
$DIMTFAC
 40
1.0
  9
$DIMGAP
 40
0.09
  9
$LUNITS
 70
     2
  9
$LUPREC
 70
     4
  9
$SKETCHINC
 40
0.1
  9
$FILLETRAD
 40
0.0
  9
$AUNITS
 70
     0
  9
$AUPREC
 70
     4
  9
$MENU
  1
E:\r13\win\SUPPORT\ACAD
  9
$ELEVATION
 40
0.0
  9
$PELEVATION
 40
0.0
  9
$THICKNESS
 40
0.0
  9
$LIMCHECK
 70
     0
  9
$BLIPMODE
 70
     0
  9
$CHAMFERA
 40
0.0
  9
$CHAMFERB
 40
0.0
  9
$SKPOLY
 70
     0
  9
$TDCREATE
 40
2449840.6227546302
  9
$TDUPDATE
 40
2456602.609918959
  9
$TDINDWG
 40
0.0112733796
  9
$TDUSRTIMER
 40
2456598.3511417131
  9
$USRTIMER
 70
     1
  9
$ANGBASE
 50
0.0
  9
$ANGDIR
 70
     0
  9
$PDMODE
 70
     0
  9
$PDSIZE
 40
0.0
  9
$PLINEWID
 40
0.0
  9
$COORDS
 70
     1
  9
$SPLFRAME
 70
     0
  9
$SPLINETYPE
 70
     6
  9
$SPLINESEGS
 70
     8
  9
$ATTDIA
 70
     0
  9
$ATTREQ
 70
     1
  9
$HANDLING
 70
     1
  9
$HANDSEED
  5
5CD
  9
$SURFTAB1
 70
     6
  9
$SURFTAB2
 70
     6
  9
$SURFTYPE
 70
     6
  9
$SURFU
 70
     6
  9
$SURFV
 70
     6
  9
$UCSNAME
  2

  9
$UCSORG
 10
0.0
 20
0.0
 30
0.0
  9
$UCSXDIR
 10
1.0
 20
0.0
 30
0.0
  9
$UCSYDIR
 10
0.0
 20
1.0
 30
0.0
  9
$PUCSNAME
  2

  9
$PUCSORG
 10
0.0
 20
0.0
 30
0.0
  9
$PUCSXDIR
 10
1.0
 20
0.0
 30
0.0
  9
$PUCSYDIR
 10
0.0
 20
1.0
 30
0.0
  9
$USERI1
 70
     0
  9
$USERI2
 70
     1
  9
$USERI3
 70
     0
  9
$USERI4
 70
     0
  9
$USERI5
 70
     0
  9
$USERR1
 40
0.0
  9
$USERR2
 40
0.0
  9
$USERR3
 40
0.0
  9
$USERR4
 40
0.0
  9
$USERR5
 40
0.0
  9
$WORLDVIEW
 70
     1
  9
$SHADEDGE
 70
     3
  9
$SHADEDIF
 70
    70
  9
$TILEMODE
 70
     1
  9
$MAXACTVP
 70
    16
  9
$PLIMCHECK
 70
     0
  9
$PEXTMIN
 10
1.0000000000000000E+020
 20
1.0000000000000000E+020
 30
1.0000000000000000E+020
  9
$PEXTMAX
 10
-1.0000000000000000E+020
 20
-1.0000000000000000E+020
 30
-1.0000000000000000E+020
  9
$PLIMMIN
 10
0.0
 20
0.0
  9
$PLIMMAX
 10
12.0
 20
9.0
  9
$UNITMODE
 70
     0
  9
$VISRETAIN
 70
     0
  9
$PLINEGEN
 70
     0
  9
$PSLTSCALE
 70
     0
  0
ENDSEC
  0
SECTION
  2
TABLES
  0
TABLE
  2
VPORT
 70
     1
  0
VPORT
  2
*ACTIVE
 70
     0
 10
0.0
 20
0.0
 11
1.0
 21
1.0
 12
147.13717073928001
 22
53.122043697746491
 13
0.0
 23
0.0
 14
20.0
 24
20.0
 15
20.0
 25
20.0
 16
0.0
 26
0.0
 36
1.0
 17
0.0
 27
0.0
 37
0.0
 40
202.89078686608619
 41
1.831871345029239
 42
50.0
 43
0.0
 44
0.0
 50
0.0
 51
0.0
 71
    16
 72
   100
 73
     1
 74
     0
 75
     0
 76
     0
 77
     0
 78
     2
  0
ENDTAB
  0
TABLE
  2
LTYPE
 70
     7
  0
LTYPE
  2
CONTINUOUS
 70
     0
  3
Solid Line
 72
    65
 73
     0
 40
0.0
  0
LTYPE
  2
CENTER
 70
     0
  3
____ _ ____ _ ____ _ ____ _ ____ _ ____ _ ____
 72
    65
 73
     4
 40
2.0
 49
1.25
 49
-0.25
 49
0.25
 49
-0.25
  0
LTYPE
  2
HIDDEN
 70
     0
  3
_ _ _ _ _ _ _ _ _ _ _ _ _ _ _ _ _ _ _ _ _ _ _
 72
    65
 73
     2
 40
0.375
 49
0.25
 49
-0.125
  0
LTYPE
  2
PHANTOM2
 70
     0
  3
___ _ _ ___ _ _ ___ _ _ ___ _ _
 72
    65
 73
     6
 40
1.25
 49
0.625
 49
-0.125
 49
0.125
 49
-0.125
 49
0.125
 49
-0.125
  0
LTYPE
  2
CNS_SOLID
 70
     0
  3

 72
    65
 73
     0
 40
0.0
  0
LTYPE
  2
CNS_DASHED
 70
     0
  3

 72
    65
 73
     2
 40
2.0
 49
1.0
 49
-1.0
  0
LTYPE
  2
CNS_CENTER
 70
     0
  3

 72
    65
 73
     4
 40
2.0
 49
0.45
 49
-0.5
 49
0.05
 49
-0.5
  0
ENDTAB
  0
TABLE
  2
LAYER
 70
     4
  0
LAYER
  2
0
 70
     0
 62
     7
  6
CONTINUOUS
  0
LAYER
  2
1
 70
     0
 62
     1
  6
CENTER
  0
LAYER
  2
2
 70
     0
 62
     2
  6
HIDDEN
  0
LAYER
  2
3
 70
     0
 62
     3
  6
CONTINUOUS
  0
ENDTAB
  0
TABLE
  2
STYLE
 70
     2
  0
STYLE
  2
STANDARD
 70
     0
 40
0.0
 41
1.0
 50
0.0
 71
     0
 42
0.2
  3
TXT
  4
BIGFONT
  0
STYLE
  2
STANDARD1
 70
     0
 40
0.0
 41
1.0
 50
0.0
 71
     0
 42
3.0
  3
txt
  4

  0
ENDTAB
  0
TABLE
  2
VIEW
 70
     1
  0
VIEW
  2
ALL
 70
     0
 40
540.0
 10
441.98319299999991
 20
270.0
 41
0.0
 11
0.0
 21
0.0
 31
1.0
 12
0.0
 22
0.0
 32
0.0
 42
0.0
 43
0.0
 44
0.0
 50
0.0
 71
     0
  0
ENDTAB
  0
TABLE
  2
UCS
 70
     0
  0
ENDTAB
  0
TABLE
  2
APPID
 70
     6
  0
APPID
  2
ACAD
 70
     0
  0
APPID
  2
ACAD_NAV_VCDISPLAY
 70
     0
  0
APPID
  2
ACAD_EXEMPT_FROM_CAD_STANDARDS
 70
     0
  0
APPID
  2
ACAD_DSTYLE_DIMJAG
 70
     0
  0
APPID
  2
ACAD_DSTYLE_DIMTALN
 70
     0
  0
APPID
  2
ACAD_MLEADERVER
 70
     0
  0
ENDTAB
  0
TABLE
  2
DIMSTYLE
 70
     2
  0
DIMSTYLE
  2
STANDARD
 70
     0
  3

  4

  5

  6

  7

 40
1.0
 41
0.18
 42
0.0625
 43
0.38
 44
0.18
 45
0.0
 46
0.0
 47
0.0
 48
0.0
140
0.18
141
0.09
142
0.0
143
25.399999999999999
144
1.0
145
0.0
146
1.0
147
0.09
 71
     0
 72
     0
 73
     1
 74
     1
 75
     0
 76
     0
 77
     0
 78
     0
170
     0
171
     2
172
     0
173
     0
174
     0
175
     0
176
     0
177
     0
178
     0
  0
DIMSTYLE
  2
ISO-25
 70
     0
  3

  4

  5

  6

  7

 40
1.0
 41
2.5
 42
0.625
 43
3.75
 44
1.25
 45
0.0
 46
0.0
 47
0.0
 48
0.0
140
2.5
141
2.5
142
0.0
143
0.03937007874016
144
1.0
145
0.0
146
1.0
147
0.625
 71
     0
 72
     0
 73
     0
 74
     0
 75
     0
 76
     0
 77
     1
 78
     8
170
     0
171
     3
172
     1
173
     0
174
     0
175
     0
176
     0
177
     0
178
     0
  0
ENDTAB
  0
ENDSEC
  0
SECTION
  2
BLOCKS
  0
BLOCK
  8
0
  2
$MODEL_SPACE
 70
     0
 10
0.0
 20
0.0
 30
0.0
  3
$MODEL_SPACE
  1

  0
ENDBLK
  5
11D
  8
0
  0
BLOCK
 67
     1
  8
0
  2
$PAPER_SPACE
 70
     0
 10
0.0
 20
0.0
 30
0.0
  3
$PAPER_SPACE
  1

  0
ENDBLK
  5
11B
 67
     1
  8
0
  0
ENDSEC
  0
SECTION
  2
ENTITIES
  0
LINE
  5
36D
  8
0
 10
92.602434020774126
 20
104.70743424857
 30
0.0
 11
92.602434020774126
 21
74.989434248570063
 31
0.0
  0
LINE
  5
36E
  8
0
 10
111.65243402077409
 20
104.70743424857
 30
0.0
 11
111.65243402077409
 21
74.989434248570063
 31
0.0
  0
LINE
  5
36F
  8
2
 10
47.104999830111531
 20
104.2604852066975
 30
0.0
 11
47.104999830111531
 21
98.56874836702157
 31
0.0
  0
LINE
  5
370
  8
2
 10
56.50299983011228
 20
104.2604852066975
 30
0.0
 11
56.50299983011228
 21
98.568748367021385
 31
0.0
  0
LINE
  5
371
  8
2
 10
49.136999830111471
 20
75.132360583248214
 30
0.0
 11
49.136999830111471
 21
80.751255482926283
 31
0.0
  0
LINE
  5
372
  8
2
 10
54.470999830111339
 20
75.132360583248172
 30
0.0
 11
54.470999830111339
 21
80.751255482926283
 31
0.0
  0
LINE
  5
373
  8
1
 10
51.803999830111529
 20
147.3707840259822
 30
0.0
 11
51.803999830111529
 21
132.97293829505011
 31
0.0
  0
LINE
  5
374
  8
1
 10
44.604999830111531
 20
140.17186843923261
 30
0.0
 11
59.003025400634328
 21
140.17186843923261
 31
0.0
  0
LINE
  5
375
  8
1
 10
51.80396486108976
 20
107.2074341594642
 30
0.0
 11
51.804034799133383
 21
72.489434337675874
 31
0.0
  0
LINE
  5
376
  8
1
 10
29.999999830111548
 20
89.848434248569973
 30
0.0
 11
73.607999830111552
 21
89.848434248569973
 31
0.0
  0
LINE
  5
377
  8
1
 10
90.10243402077414
 20
89.848434248569987
 30
0.0
 11
114.15243402077409
 21
89.848434248569973
 31
0.0
  0
LINE
  5
378
  8
1
 10
102.12739905175211
 20
107.20743424857
 30
0.0
 11
102.1274689897961
 21
72.489434248570063
 31
0.0
  0
LINE
  5
379
  8
1
 10
51.803999830111529
 20
44.692058533472988
 30
0.0
 11
51.803999830111529
 21
34.357700118612442
 31
0.0
  0
LINE
  5
37A
  8
1
 10
46.636999830111513
 20
39.52500005790742
 30
0.0
 11
56.97086629190229
 21
39.52500005790742
 31
0.0
  0
LINE
  5
37B
  8
0
 10
104.7944340207741
 20
74.989434248569992
 30
0.0
 11
111.65243402077409
 21
74.989434248569992
 31
0.0
  0
LINE
  5
37C
  8
0
 10
92.602434020774155
 20
74.989434248569992
 30
0.0
 11
99.460434020774144
 21
74.989434248569992
 31
0.0
  0
LINE
  5
37D
  8
0
 10
97.428434020774148
 20
104.70743424857
 30
0.0
 11
92.602434020774155
 21
104.70743424857
 31
0.0
  0
LINE
  5
37E
  8
0
 10
111.65243402077409
 20
104.70743424857
 30
0.0
 11
106.8264340207742
 21
104.70743424857
 31
0.0
  0
LINE
  5
37F
  8
2
 10
104.7944340207741
 20
80.577434248569986
 30
0.0
 11
111.65243402077409
 21
80.577434248569986
 31
0.0
  0
LINE
  5
380
  8
2
 10
92.602434020774155
 20
80.577434248569986
 30
0.0
 11
99.460434020774144
 21
80.577434248569986
 31
0.0
  0
LINE
  5
381
  8
2
 10
97.428434020774148
 20
99.119434248570002
 30
0.0
 11
92.602434020774155
 21
99.119434248570002
 31
0.0
  0
LINE
  5
382
  8
2
 10
111.65243402077409
 20
99.119434248570002
 30
0.0
 11
106.8264340207742
 21
99.119434248570002
 31
0.0
  0
LINE
  5
383
  8
2
 10
106.8264340207742
 20
104.70743424857
 30
0.0
 11
106.8264340207742
 21
99.119434248570002
 31
0.0
  0
LINE
  5
384
  8
2
 10
97.428434020774148
 20
99.119434248570002
 30
0.0
 11
97.428434020774148
 21
104.70743424857
 31
0.0
  0
LINE
  5
385
  8
2
 10
99.460434020774144
 20
74.989434248569992
 30
0.0
 11
99.460434020774144
 21
80.577434248569986
 31
0.0
  0
LINE
  5
386
  8
2
 10
104.7944340207741
 20
80.577434248569986
 30
0.0
 11
104.7944340207741
 21
74.989434248569992
 31
0.0
  0
POLYLINE
  5
387
  8
0
 66
     1
 10
0.0
 20
0.0
 30
0.0
 70
     1
  0
VERTEX
  5
4BA
  8
0
 10
32.499999830111548
 20
130.64686843923249
 30
0.0
  0
VERTEX
  5
4BB
  8
0
 10
71.107999830111538
 20
130.64686843923249
 30
0.0
  0
VERTEX
  5
4BC
  8
0
 10
71.107999830111538
 20
149.6968684392325
 30
0.0
  0
VERTEX
  5
4BD
  8
0
 10
32.499999830111548
 20
149.6968684392325
 30
0.0
  0
SEQEND
  5
4BE
  8
0
  0
CIRCLE
  5
388
  8
0
 10
51.804012615372933
 20
140.17186843923261
 30
0.0
 40
4.6989999643016054
  0
POLYLINE
  5
389
  8
0
 10
65.64699983011154
 20
89.848434248569973
 30
0.0
 66
     1
 70
     8
  0
VERTEX
  8
0
  5
4C9
 10
65.6470
 20
89.8484
 30
0.000000
  70
    32
  0
VERTEX
  8
0
  5
4CA
 10
65.6303
 20
90.3033
 30
0.000000
  70
    32
  0
VERTEX
  8
0
  5
4CB
 10
65.5803
 20
90.7572
 30
0.000000
  70
    32
  0
VERTEX
  8
0
  5
4CC
 10
65.4972
 20
91.2088
 30
0.000000
  70
    32
  0
VERTEX
  8
0
  5
4CD
 10
65.3810
 20
91.6571
 30
0.000000
  70
    32
  0
VERTEX
  8
0
  5
4CE
 10
65.2321
 20
92.1011
 30
0.000000
  70
    32
  0
VERTEX
  8
0
  5
4CF
 10
65.0509
 20
92.5397
 30
0.000000
  70
    32
  0
VERTEX
  8
0
  5
4D0
 10
64.8378
 20
92.9717
 30
0.000000
  70
    32
  0
VERTEX
  8
0
  5
4D1
 10
64.5933
 20
93.3963
 30
0.000000
  70
    32
  0
VERTEX
  8
0
  5
4D2
 10
64.3179
 20
93.8123
 30
0.000000
  70
    32
  0
VERTEX
  8
0
  5
4D3
 10
64.0124
 20
94.2188
 30
0.000000
  70
    32
  0
VERTEX
  8
0
  5
4D4
 10
63.6775
 20
94.6147
 30
0.000000
  70
    32
  0
VERTEX
  8
0
  5
4D5
 10
63.3140
 20
94.9991
 30
0.000000
  70
    32
  0
VERTEX
  8
0
  5
4D6
 10
62.9228
 20
95.3712
 30
0.000000
  70
    32
  0
VERTEX
  8
0
  5
4D7
 10
62.5048
 20
95.7299
 30
0.000000
  70
    32
  0
VERTEX
  8
0
  5
4D8
 10
62.0610
 20
96.0745
 30
0.000000
  70
    32
  0
VERTEX
  8
0
  5
4D9
 10
61.5925
 20
96.4040
 30
0.000000
  70
    32
  0
VERTEX
  8
0
  5
4DA
 10
61.1004
 20
96.7178
 30
0.000000
  70
    32
  0
VERTEX
  8
0
  5
4DB
 10
60.5859
 20
97.0150
 30
0.000000
  70
    32
  0
VERTEX
  8
0
  5
4DC
 10
60.0503
 20
97.2950
 30
0.000000
  70
    32
  0
VERTEX
  8
0
  5
4DD
 10
59.4948
 20
97.5570
 30
0.000000
  70
    32
  0
VERTEX
  8
0
  5
4DE
 10
58.9207
 20
97.8004
 30
0.000000
  70
    32
  0
VERTEX
  8
0
  5
4DF
 10
58.3295
 20
98.0247
 30
0.000000
  70
    32
  0
VERTEX
  8
0
  5
4E0
 10
57.7226
 20
98.2293
 30
0.000000
  70
    32
  0
VERTEX
  8
0
  5
4E1
 10
57.1015
 20
98.4137
 30
0.000000
  70
    32
  0
VERTEX
  8
0
  5
4E2
 10
56.4676
 20
98.5775
 30
0.000000
  70
    32
  0
VERTEX
  8
0
  5
4E3
 10
55.8224
 20
98.7202
 30
0.000000
  70
    32
  0
VERTEX
  8
0
  5
4E4
 10
55.1676
 20
98.8416
 30
0.000000
  70
    32
  0
VERTEX
  8
0
  5
4E5
 10
54.5046
 20
98.9413
 30
0.000000
  70
    32
  0
VERTEX
  8
0
  5
4E6
 10
53.8352
 20
99.0191
 30
0.000000
  70
    32
  0
VERTEX
  8
0
  5
4E7
 10
53.1609
 20
99.0748
 30
0.000000
  70
    32
  0
VERTEX
  8
0
  5
4E8
 10
52.4832
 20
99.1083
 30
0.000000
  70
    32
  0
VERTEX
  8
0
  5
4E9
 10
51.8040
 20
99.1194
 30
0.000000
  70
    32
  0
VERTEX
  8
0
  5
4EA
 10
51.1248
 20
99.1083
 30
0.000000
  70
    32
  0
VERTEX
  8
0
  5
4EB
 10
50.4471
 20
99.0748
 30
0.000000
  70
    32
  0
VERTEX
  8
0
  5
4EC
 10
49.7728
 20
99.0191
 30
0.000000
  70
    32
  0
VERTEX
  8
0
  5
4ED
 10
49.1034
 20
98.9413
 30
0.000000
  70
    32
  0
VERTEX
  8
0
  5
4EE
 10
48.4404
 20
98.8416
 30
0.000000
  70
    32
  0
VERTEX
  8
0
  5
4EF
 10
47.7856
 20
98.7202
 30
0.000000
  70
    32
  0
VERTEX
  8
0
  5
4F0
 10
47.1404
 20
98.5775
 30
0.000000
  70
    32
  0
VERTEX
  8
0
  5
4F1
 10
46.5065
 20
98.4137
 30
0.000000
  70
    32
  0
VERTEX
  8
0
  5
4F2
 10
45.8854
 20
98.2293
 30
0.000000
  70
    32
  0
VERTEX
  8
0
  5
4F3
 10
45.2785
 20
98.0247
 30
0.000000
  70
    32
  0
VERTEX
  8
0
  5
4F4
 10
44.6873
 20
97.8004
 30
0.000000
  70
    32
  0
VERTEX
  8
0
  5
4F5
 10
44.1132
 20
97.5570
 30
0.000000
  70
    32
  0
VERTEX
  8
0
  5
4F6
 10
43.5577
 20
97.2950
 30
0.000000
  70
    32
  0
VERTEX
  8
0
  5
4F7
 10
43.0221
 20
97.0150
 30
0.000000
  70
    32
  0
VERTEX
  8
0
  5
4F8
 10
42.5076
 20
96.7178
 30
0.000000
  70
    32
  0
VERTEX
  8
0
  5
4F9
 10
42.0155
 20
96.4040
 30
0.000000
  70
    32
  0
VERTEX
  8
0
  5
4FA
 10
41.5470
 20
96.0745
 30
0.000000
  70
    32
  0
VERTEX
  8
0
  5
4FB
 10
41.1032
 20
95.7299
 30
0.000000
  70
    32
  0
VERTEX
  8
0
  5
4FC
 10
40.6852
 20
95.3712
 30
0.000000
  70
    32
  0
VERTEX
  8
0
  5
4FD
 10
40.2940
 20
94.9991
 30
0.000000
  70
    32
  0
VERTEX
  8
0
  5
4FE
 10
39.9305
 20
94.6147
 30
0.000000
  70
    32
  0
VERTEX
  8
0
  5
4FF
 10
39.5956
 20
94.2188
 30
0.000000
  70
    32
  0
VERTEX
  8
0
  5
500
 10
39.2901
 20
93.8123
 30
0.000000
  70
    32
  0
VERTEX
  8
0
  5
501
 10
39.0147
 20
93.3963
 30
0.000000
  70
    32
  0
VERTEX
  8
0
  5
502
 10
38.7702
 20
92.9717
 30
0.000000
  70
    32
  0
VERTEX
  8
0
  5
503
 10
38.5571
 20
92.5397
 30
0.000000
  70
    32
  0
VERTEX
  8
0
  5
504
 10
38.3759
 20
92.1011
 30
0.000000
  70
    32
  0
VERTEX
  8
0
  5
505
 10
38.2270
 20
91.6571
 30
0.000000
  70
    32
  0
VERTEX
  8
0
  5
506
 10
38.1108
 20
91.2088
 30
0.000000
  70
    32
  0
VERTEX
  8
0
  5
507
 10
38.0277
 20
90.7572
 30
0.000000
  70
    32
  0
VERTEX
  8
0
  5
508
 10
37.9777
 20
90.3033
 30
0.000000
  70
    32
  0
VERTEX
  8
0
  5
509
 10
37.9610
 20
89.8484
 30
0.000000
  70
    32
  0
VERTEX
  8
0
  5
50A
 10
37.9777
 20
89.3935
 30
0.000000
  70
    32
  0
VERTEX
  8
0
  5
50B
 10
38.0277
 20
88.9397
 30
0.000000
  70
    32
  0
VERTEX
  8
0
  5
50C
 10
38.1108
 20
88.4881
 30
0.000000
  70
    32
  0
VERTEX
  8
0
  5
50D
 10
38.2270
 20
88.0398
 30
0.000000
  70
    32
  0
VERTEX
  8
0
  5
50E
 10
38.3759
 20
87.5958
 30
0.000000
  70
    32
  0
VERTEX
  8
0
  5
50F
 10
38.5571
 20
87.1572
 30
0.000000
  70
    32
  0
VERTEX
  8
0
  5
510
 10
38.7702
 20
86.7251
 30
0.000000
  70
    32
  0
VERTEX
  8
0
  5
511
 10
39.0147
 20
86.3006
 30
0.000000
  70
    32
  0
VERTEX
  8
0
  5
512
 10
39.2901
 20
85.8846
 30
0.000000
  70
    32
  0
VERTEX
  8
0
  5
513
 10
39.5956
 20
85.4781
 30
0.000000
  70
    32
  0
VERTEX
  8
0
  5
514
 10
39.9305
 20
85.0822
 30
0.000000
  70
    32
  0
VERTEX
  8
0
  5
515
 10
40.2940
 20
84.6977
 30
0.000000
  70
    32
  0
VERTEX
  8
0
  5
516
 10
40.6852
 20
84.3257
 30
0.000000
  70
    32
  0
VERTEX
  8
0
  5
517
 10
41.1032
 20
83.9670
 30
0.000000
  70
    32
  0
VERTEX
  8
0
  5
518
 10
41.5470
 20
83.6224
 30
0.000000
  70
    32
  0
VERTEX
  8
0
  5
519
 10
42.0155
 20
83.2928
 30
0.000000
  70
    32
  0
VERTEX
  8
0
  5
51A
 10
42.5076
 20
82.9791
 30
0.000000
  70
    32
  0
VERTEX
  8
0
  5
51B
 10
43.0221
 20
82.6819
 30
0.000000
  70
    32
  0
VERTEX
  8
0
  5
51C
 10
43.5577
 20
82.4019
 30
0.000000
  70
    32
  0
VERTEX
  8
0
  5
51D
 10
44.1132
 20
82.1399
 30
0.000000
  70
    32
  0
VERTEX
  8
0
  5
51E
 10
44.6873
 20
81.8964
 30
0.000000
  70
    32
  0
VERTEX
  8
0
  5
51F
 10
45.2785
 20
81.6721
 30
0.000000
  70
    32
  0
VERTEX
  8
0
  5
520
 10
45.8854
 20
81.4675
 30
0.000000
  70
    32
  0
VERTEX
  8
0
  5
521
 10
46.5065
 20
81.2831
 30
0.000000
  70
    32
  0
VERTEX
  8
0
  5
522
 10
47.1404
 20
81.1194
 30
0.000000
  70
    32
  0
VERTEX
  8
0
  5
523
 10
47.7856
 20
80.9766
 30
0.000000
  70
    32
  0
VERTEX
  8
0
  5
524
 10
48.4404
 20
80.8553
 30
0.000000
  70
    32
  0
VERTEX
  8
0
  5
525
 10
49.1034
 20
80.7556
 30
0.000000
  70
    32
  0
VERTEX
  8
0
  5
526
 10
49.7728
 20
80.6778
 30
0.000000
  70
    32
  0
VERTEX
  8
0
  5
527
 10
50.4471
 20
80.6221
 30
0.000000
  70
    32
  0
VERTEX
  8
0
  5
528
 10
51.1248
 20
80.5886
 30
0.000000
  70
    32
  0
VERTEX
  8
0
  5
529
 10
51.8040
 20
80.5774
 30
0.000000
  70
    32
  0
VERTEX
  8
0
  5
52A
 10
52.4832
 20
80.5886
 30
0.000000
  70
    32
  0
VERTEX
  8
0
  5
52B
 10
53.1609
 20
80.6221
 30
0.000000
  70
    32
  0
VERTEX
  8
0
  5
52C
 10
53.8352
 20
80.6778
 30
0.000000
  70
    32
  0
VERTEX
  8
0
  5
52D
 10
54.5046
 20
80.7556
 30
0.000000
  70
    32
  0
VERTEX
  8
0
  5
52E
 10
55.1676
 20
80.8553
 30
0.000000
  70
    32
  0
VERTEX
  8
0
  5
52F
 10
55.8224
 20
80.9766
 30
0.000000
  70
    32
  0
VERTEX
  8
0
  5
530
 10
56.4676
 20
81.1194
 30
0.000000
  70
    32
  0
VERTEX
  8
0
  5
531
 10
57.1015
 20
81.2831
 30
0.000000
  70
    32
  0
VERTEX
  8
0
  5
532
 10
57.7226
 20
81.4675
 30
0.000000
  70
    32
  0
VERTEX
  8
0
  5
533
 10
58.3295
 20
81.6721
 30
0.000000
  70
    32
  0
VERTEX
  8
0
  5
534
 10
58.9207
 20
81.8964
 30
0.000000
  70
    32
  0
VERTEX
  8
0
  5
535
 10
59.4948
 20
82.1399
 30
0.000000
  70
    32
  0
VERTEX
  8
0
  5
536
 10
60.0503
 20
82.4019
 30
0.000000
  70
    32
  0
VERTEX
  8
0
  5
537
 10
60.5859
 20
82.6819
 30
0.000000
  70
    32
  0
VERTEX
  8
0
  5
538
 10
61.1004
 20
82.9791
 30
0.000000
  70
    32
  0
VERTEX
  8
0
  5
539
 10
61.5925
 20
83.2928
 30
0.000000
  70
    32
  0
VERTEX
  8
0
  5
53A
 10
62.0610
 20
83.6224
 30
0.000000
  70
    32
  0
VERTEX
  8
0
  5
53B
 10
62.5048
 20
83.9670
 30
0.000000
  70
    32
  0
VERTEX
  8
0
  5
53C
 10
62.9228
 20
84.3257
 30
0.000000
  70
    32
  0
VERTEX
  8
0
  5
53D
 10
63.3140
 20
84.6977
 30
0.000000
  70
    32
  0
VERTEX
  8
0
  5
53E
 10
63.6775
 20
85.0822
 30
0.000000
  70
    32
  0
VERTEX
  8
0
  5
53F
 10
64.0124
 20
85.4781
 30
0.000000
  70
    32
  0
VERTEX
  8
0
  5
540
 10
64.3179
 20
85.8846
 30
0.000000
  70
    32
  0
VERTEX
  8
0
  5
541
 10
64.5933
 20
86.3006
 30
0.000000
  70
    32
  0
VERTEX
  8
0
  5
542
 10
64.8378
 20
86.7251
 30
0.000000
  70
    32
  0
VERTEX
  8
0
  5
543
 10
65.0509
 20
87.1572
 30
0.000000
  70
    32
  0
VERTEX
  8
0
  5
544
 10
65.2321
 20
87.5958
 30
0.000000
  70
    32
  0
VERTEX
  8
0
  5
545
 10
65.3810
 20
88.0398
 30
0.000000
  70
    32
  0
VERTEX
  8
0
  5
546
 10
65.4972
 20
88.4881
 30
0.000000
  70
    32
  0
VERTEX
  8
0
  5
547
 10
65.5803
 20
88.9397
 30
0.000000
  70
    32
  0
VERTEX
  8
0
  5
548
 10
65.6303
 20
89.3935
 30
0.000000
  70
    32
  0
VERTEX
  8
0
  5
549
 10
65.6470
 20
89.8484
 30
0.000000
  70
    32
  0
SEQEND
  8
0
  5
54A
  0
POLYLINE
  5
38A
  8
0
 10
71.107999830111552
 20
89.848434248569973
 30
0.0
 66
     1
 70
     8
  0
VERTEX
  8
0
  5
54B
 10
71.1080
 20
89.8484
 30
0.000000
  70
    32
  0
VERTEX
  8
0
  5
54C
 10
71.0847
 20
90.5775
 30
0.000000
  70
    32
  0
VERTEX
  8
0
  5
54D
 10
71.0150
 20
91.3049
 30
0.000000
  70
    32
  0
VERTEX
  8
0
  5
54E
 10
70.8991
 20
92.0287
 30
0.000000
  70
    32
  0
VERTEX
  8
0
  5
54F
 10
70.7371
 20
92.7473
 30
0.000000
  70
    32
  0
VERTEX
  8
0
  5
550
 10
70.5295
 20
93.4589
 30
0.000000
  70
    32
  0
VERTEX
  8
0
  5
551
 10
70.2768
 20
94.1618
 30
0.000000
  70
    32
  0
VERTEX
  8
0
  5
552
 10
69.9796
 20
94.8543
 30
0.000000
  70
    32
  0
VERTEX
  8
0
  5
553
 10
69.6386
 20
95.5347
 30
0.000000
  70
    32
  0
VERTEX
  8
0
  5
554
 10
69.2546
 20
96.2015
 30
0.000000
  70
    32
  0
VERTEX
  8
0
  5
555
 10
68.8286
 20
96.8529
 30
0.000000
  70
    32
  0
VERTEX
  8
0
  5
556
 10
68.3616
 20
97.4875
 30
0.000000
  70
    32
  0
VERTEX
  8
0
  5
557
 10
67.8547
 20
98.1037
 30
0.000000
  70
    32
  0
VERTEX
  8
0
  5
558
 10
67.3091
 20
98.6999
 30
0.000000
  70
    32
  0
VERTEX
  8
0
  5
559
 10
66.7262
 20
99.2749
 30
0.000000
  70
    32
  0
VERTEX
  8
0
  5
55A
 10
66.1073
 20
99.8271
 30
0.000000
  70
    32
  0
VERTEX
  8
0
  5
55B
 10
65.4540
 20
100.355
 30
0.000000
  70
    32
  0
VERTEX
  8
0
  5
55C
 10
64.7678
 20
100.858
 30
0.000000
  70
    32
  0
VERTEX
  8
0
  5
55D
 10
64.0503
 20
101.335
 30
0.000000
  70
    32
  0
VERTEX
  8
0
  5
55E
 10
63.3034
 20
101.783
 30
0.000000
  70
    32
  0
VERTEX
  8
0
  5
55F
 10
62.5287
 20
102.203
 30
0.000000
  70
    32
  0
VERTEX
  8
0
  5
560
 10
61.7282
 20
102.593
 30
0.000000
  70
    32
  0
VERTEX
  8
0
  5
561
 10
60.9038
 20
102.953
 30
0.000000
  70
    32
  0
VERTEX
  8
0
  5
562
 10
60.0575
 20
103.281
 30
0.000000
  70
    32
  0
VERTEX
  8
0
  5
563
 10
59.1913
 20
103.576
 30
0.000000
  70
    32
  0
VERTEX
  8
0
  5
564
 10
58.3073
 20
103.839
 30
0.000000
  70
    32
  0
VERTEX
  8
0
  5
565
 10
57.4077
 20
104.068
 30
0.000000
  70
    32
  0
VERTEX
  8
0
  5
566
 10
56.4945
 20
104.262
 30
0.000000
  70
    32
  0
VERTEX
  8
0
  5
567
 10
55.5700
 20
104.422
 30
0.000000
  70
    32
  0
VERTEX
  8
0
  5
568
 10
54.6365
 20
104.547
 30
0.000000
  70
    32
  0
VERTEX
  8
0
  5
569
 10
53.6961
 20
104.636
 30
0.000000
  70
    32
  0
VERTEX
  8
0
  5
56A
 10
52.7512
 20
104.690
 30
0.000000
  70
    32
  0
VERTEX
  8
0
  5
56B
 10
51.8040
 20
104.707
 30
0.000000
  70
    32
  0
VERTEX
  8
0
  5
56C
 10
50.8568
 20
104.690
 30
0.000000
  70
    32
  0
VERTEX
  8
0
  5
56D
 10
49.9119
 20
104.636
 30
0.000000
  70
    32
  0
VERTEX
  8
0
  5
56E
 10
48.9715
 20
104.547
 30
0.000000
  70
    32
  0
VERTEX
  8
0
  5
56F
 10
48.0380
 20
104.422
 30
0.000000
  70
    32
  0
VERTEX
  8
0
  5
570
 10
47.1135
 20
104.262
 30
0.000000
  70
    32
  0
VERTEX
  8
0
  5
571
 10
46.2003
 20
104.068
 30
0.000000
  70
    32
  0
VERTEX
  8
0
  5
572
 10
45.3007
 20
103.839
 30
0.000000
  70
    32
  0
VERTEX
  8
0
  5
573
 10
44.4167
 20
103.576
 30
0.000000
  70
    32
  0
VERTEX
  8
0
  5
574
 10
43.5505
 20
103.281
 30
0.000000
  70
    32
  0
VERTEX
  8
0
  5
575
 10
42.7042
 20
102.953
 30
0.000000
  70
    32
  0
VERTEX
  8
0
  5
576
 10
41.8798
 20
102.593
 30
0.000000
  70
    32
  0
VERTEX
  8
0
  5
577
 10
41.0793
 20
102.203
 30
0.000000
  70
    32
  0
VERTEX
  8
0
  5
578
 10
40.3046
 20
101.783
 30
0.000000
  70
    32
  0
VERTEX
  8
0
  5
579
 10
39.5577
 20
101.335
 30
0.000000
  70
    32
  0
VERTEX
  8
0
  5
57A
 10
38.8402
 20
100.858
 30
0.000000
  70
    32
  0
VERTEX
  8
0
  5
57B
 10
38.1540
 20
100.355
 30
0.000000
  70
    32
  0
VERTEX
  8
0
  5
57C
 10
37.5007
 20
99.8271
 30
0.000000
  70
    32
  0
VERTEX
  8
0
  5
57D
 10
36.8818
 20
99.2749
 30
0.000000
  70
    32
  0
VERTEX
  8
0
  5
57E
 10
36.2989
 20
98.6999
 30
0.000000
  70
    32
  0
VERTEX
  8
0
  5
57F
 10
35.7533
 20
98.1037
 30
0.000000
  70
    32
  0
VERTEX
  8
0
  5
580
 10
35.2464
 20
97.4875
 30
0.000000
  70
    32
  0
VERTEX
  8
0
  5
581
 10
34.7794
 20
96.8529
 30
0.000000
  70
    32
  0
VERTEX
  8
0
  5
582
 10
34.3534
 20
96.2015
 30
0.000000
  70
    32
  0
VERTEX
  8
0
  5
583
 10
33.9694
 20
95.5347
 30
0.000000
  70
    32
  0
VERTEX
  8
0
  5
584
 10
33.6284
 20
94.8543
 30
0.000000
  70
    32
  0
VERTEX
  8
0
  5
585
 10
33.3312
 20
94.1618
 30
0.000000
  70
    32
  0
VERTEX
  8
0
  5
586
 10
33.0785
 20
93.4589
 30
0.000000
  70
    32
  0
VERTEX
  8
0
  5
587
 10
32.8709
 20
92.7473
 30
0.000000
  70
    32
  0
VERTEX
  8
0
  5
588
 10
32.7089
 20
92.0287
 30
0.000000
  70
    32
  0
VERTEX
  8
0
  5
589
 10
32.5930
 20
91.3049
 30
0.000000
  70
    32
  0
VERTEX
  8
0
  5
58A
 10
32.5233
 20
90.5775
 30
0.000000
  70
    32
  0
VERTEX
  8
0
  5
58B
 10
32.5000
 20
89.8484
 30
0.000000
  70
    32
  0
VERTEX
  8
0
  5
58C
 10
32.5233
 20
89.1193
 30
0.000000
  70
    32
  0
VERTEX
  8
0
  5
58D
 10
32.5930
 20
88.3920
 30
0.000000
  70
    32
  0
VERTEX
  8
0
  5
58E
 10
32.7089
 20
87.6682
 30
0.000000
  70
    32
  0
VERTEX
  8
0
  5
58F
 10
32.8709
 20
86.9496
 30
0.000000
  70
    32
  0
VERTEX
  8
0
  5
590
 10
33.0785
 20
86.2380
 30
0.000000
  70
    32
  0
VERTEX
  8
0
  5
591
 10
33.3312
 20
85.5351
 30
0.000000
  70
    32
  0
VERTEX
  8
0
  5
592
 10
33.6284
 20
84.8426
 30
0.000000
  70
    32
  0
VERTEX
  8
0
  5
593
 10
33.9694
 20
84.1621
 30
0.000000
  70
    32
  0
VERTEX
  8
0
  5
594
 10
34.3534
 20
83.4954
 30
0.000000
  70
    32
  0
VERTEX
  8
0
  5
595
 10
34.7794
 20
82.8440
 30
0.000000
  70
    32
  0
VERTEX
  8
0
  5
596
 10
35.2464
 20
82.2094
 30
0.000000
  70
    32
  0
VERTEX
  8
0
  5
597
 10
35.7533
 20
81.5932
 30
0.000000
  70
    32
  0
VERTEX
  8
0
  5
598
 10
36.2989
 20
80.9969
 30
0.000000
  70
    32
  0
VERTEX
  8
0
  5
599
 10
36.8818
 20
80.4220
 30
0.000000
  70
    32
  0
VERTEX
  8
0
  5
59A
 10
37.5007
 20
79.8697
 30
0.000000
  70
    32
  0
VERTEX
  8
0
  5
59B
 10
38.1540
 20
79.3415
 30
0.000000
  70
    32
  0
VERTEX
  8
0
  5
59C
 10
38.8402
 20
78.8386
 30
0.000000
  70
    32
  0
VERTEX
  8
0
  5
59D
 10
39.5577
 20
78.3623
 30
0.000000
  70
    32
  0
VERTEX
  8
0
  5
59E
 10
40.3046
 20
77.9136
 30
0.000000
  70
    32
  0
VERTEX
  8
0
  5
59F
 10
41.0793
 20
77.4936
 30
0.000000
  70
    32
  0
VERTEX
  8
0
  5
5A0
 10
41.8798
 20
77.1034
 30
0.000000
  70
    32
  0
VERTEX
  8
0
  5
5A1
 10
42.7042
 20
76.7440
 30
0.000000
  70
    32
  0
VERTEX
  8
0
  5
5A2
 10
43.5505
 20
76.4161
 30
0.000000
  70
    32
  0
VERTEX
  8
0
  5
5A3
 10
44.4167
 20
76.1205
 30
0.000000
  70
    32
  0
VERTEX
  8
0
  5
5A4
 10
45.3007
 20
75.8580
 30
0.000000
  70
    32
  0
VERTEX
  8
0
  5
5A5
 10
46.2003
 20
75.6293
 30
0.000000
  70
    32
  0
VERTEX
  8
0
  5
5A6
 10
47.1135
 20
75.4347
 30
0.000000
  70
    32
  0
VERTEX
  8
0
  5
5A7
 10
48.0380
 20
75.2749
 30
0.000000
  70
    32
  0
VERTEX
  8
0
  5
5A8
 10
48.9715
 20
75.1503
 30
0.000000
  70
    32
  0
VERTEX
  8
0
  5
5A9
 10
49.9119
 20
75.0610
 30
0.000000
  70
    32
  0
VERTEX
  8
0
  5
5AA
 10
50.8568
 20
75.0073
 30
0.000000
  70
    32
  0
VERTEX
  8
0
  5
5AB
 10
51.8040
 20
74.9894
 30
0.000000
  70
    32
  0
VERTEX
  8
0
  5
5AC
 10
52.7512
 20
75.0073
 30
0.000000
  70
    32
  0
VERTEX
  8
0
  5
5AD
 10
53.6961
 20
75.0610
 30
0.000000
  70
    32
  0
VERTEX
  8
0
  5
5AE
 10
54.6365
 20
75.1503
 30
0.000000
  70
    32
  0
VERTEX
  8
0
  5
5AF
 10
55.5700
 20
75.2749
 30
0.000000
  70
    32
  0
VERTEX
  8
0
  5
5B0
 10
56.4945
 20
75.4347
 30
0.000000
  70
    32
  0
VERTEX
  8
0
  5
5B1
 10
57.4077
 20
75.6293
 30
0.000000
  70
    32
  0
VERTEX
  8
0
  5
5B2
 10
58.3073
 20
75.8580
 30
0.000000
  70
    32
  0
VERTEX
  8
0
  5
5B3
 10
59.1913
 20
76.1205
 30
0.000000
  70
    32
  0
VERTEX
  8
0
  5
5B4
 10
60.0575
 20
76.4161
 30
0.000000
  70
    32
  0
VERTEX
  8
0
  5
5B5
 10
60.9038
 20
76.7440
 30
0.000000
  70
    32
  0
VERTEX
  8
0
  5
5B6
 10
61.7282
 20
77.1034
 30
0.000000
  70
    32
  0
VERTEX
  8
0
  5
5B7
 10
62.5287
 20
77.4936
 30
0.000000
  70
    32
  0
VERTEX
  8
0
  5
5B8
 10
63.3034
 20
77.9136
 30
0.000000
  70
    32
  0
VERTEX
  8
0
  5
5B9
 10
64.0503
 20
78.3623
 30
0.000000
  70
    32
  0
VERTEX
  8
0
  5
5BA
 10
64.7678
 20
78.8386
 30
0.000000
  70
    32
  0
VERTEX
  8
0
  5
5BB
 10
65.4540
 20
79.3415
 30
0.000000
  70
    32
  0
VERTEX
  8
0
  5
5BC
 10
66.1073
 20
79.8697
 30
0.000000
  70
    32
  0
VERTEX
  8
0
  5
5BD
 10
66.7262
 20
80.4220
 30
0.000000
  70
    32
  0
VERTEX
  8
0
  5
5BE
 10
67.3091
 20
80.9969
 30
0.000000
  70
    32
  0
VERTEX
  8
0
  5
5BF
 10
67.8547
 20
81.5932
 30
0.000000
  70
    32
  0
VERTEX
  8
0
  5
5C0
 10
68.3616
 20
82.2094
 30
0.000000
  70
    32
  0
VERTEX
  8
0
  5
5C1
 10
68.8286
 20
82.8440
 30
0.000000
  70
    32
  0
VERTEX
  8
0
  5
5C2
 10
69.2546
 20
83.4954
 30
0.000000
  70
    32
  0
VERTEX
  8
0
  5
5C3
 10
69.6386
 20
84.1621
 30
0.000000
  70
    32
  0
VERTEX
  8
0
  5
5C4
 10
69.9796
 20
84.8426
 30
0.000000
  70
    32
  0
VERTEX
  8
0
  5
5C5
 10
70.2768
 20
85.5351
 30
0.000000
  70
    32
  0
VERTEX
  8
0
  5
5C6
 10
70.5295
 20
86.2380
 30
0.000000
  70
    32
  0
VERTEX
  8
0
  5
5C7
 10
70.7371
 20
86.9496
 30
0.000000
  70
    32
  0
VERTEX
  8
0
  5
5C8
 10
70.8991
 20
87.6682
 30
0.000000
  70
    32
  0
VERTEX
  8
0
  5
5C9
 10
71.0150
 20
88.3920
 30
0.000000
  70
    32
  0
VERTEX
  8
0
  5
5CA
 10
71.0847
 20
89.1193
 30
0.000000
  70
    32
  0
VERTEX
  8
0
  5
5CB
 10
71.1080
 20
89.8484
 30
0.000000
  70
    32
  0
SEQEND
  8
0
  5
5CC
  0
POLYLINE
  5
38B
  8
0
 66
     1
 10
0.0
 20
0.0
 30
0.0
 70
     1
  0
VERTEX
  5
4BF
  8
0
 10
32.499999830111513
 20
30.00000005790745
 30
0.0
  0
VERTEX
  5
4C0
  8
0
 10
71.10799983011151
 20
30.00000005790745
 30
0.0
  0
VERTEX
  5
4C1
  8
0
 10
71.10799983011151
 20
49.05000005790739
 30
0.0
  0
VERTEX
  5
4C2
  8
0
 10
32.499999830111513
 20
49.05000005790739
 30
0.0
  0
SEQEND
  5
4C3
  8
0
  0
CIRCLE
  5
38C
  8
0
 10
51.803999830111529
 20
39.524879326042722
 30
0.0
 40
2.6671207153921652
  0
ARC
  5
38D
  8
0
 10
102.1274340207741
 20
129.18548670292731
 30
0.0
 40
24.92500056084976
 50
259.13324921074042
 51
280.86675078925981
  0
ARC
  5
38E
  8
0
 10
102.1274340207741
 20
50.102230078575317
 30
0.0
 40
25.029698767642131
 50
83.883326892714337
 51
96.116673107285649
  0
ARC
  5
38F
  8
2
 10
102.12743402077651
 20
118.9002444633086
 30
0.0
 40
20.331282639115621
 50
256.6368818547603
 51
283.36311814526289
  0
ARC
  5
390
  8
2
 10
102.1274340207668
 20
60.188211477828837
 30
0.0
 40
20.562910645014981
 50
82.547769911843275
 51
97.452230088115641
  0
TEXT
  5
455
  8
0
 62
     3
 10
2.4999998301115118
 20
0.0000000579074495
 30
0.0
 40
10.0
  1
TPGBR-2-55
  7
STANDARD1
  0
ENDSEC
  0
EOF
