  0
SECTION
  2
HEADER
  9
$ACADVER
  1
AC1009
  9
$INSBASE
 10
0.0
 20
0.0
 30
0.0
  9
$EXTMIN
 10
2.4994929812383191
 20
-2.9604364510503438
 30
0.0
  9
$EXTMAX
 10
135.76756646611071
 20
188.86417261421079
 30
0.0
  9
$LIMMIN
 10
0.0
 20
0.0
  9
$LIMMAX
 10
750.0
 20
540.0
  9
$ORTHOMODE
 70
     1
  9
$REGENMODE
 70
     1
  9
$FILLMODE
 70
     1
  9
$QTEXTMODE
 70
     0
  9
$MIRRTEXT
 70
     0
  9
$DRAGMODE
 70
     2
  9
$LTSCALE
 40
10.0
  9
$OSMODE
 70
  3071
  9
$ATTMODE
 70
     1
  9
$TEXTSIZE
 40
0.2
  9
$TRACEWID
 40
0.05
  9
$TEXTSTYLE
  7
STANDARD
  9
$CLAYER
  8
0
  9
$CELTYPE
  6
BYLAYER
  9
$CECOLOR
 62
   256
  9
$DIMSCALE
 40
1.0
  9
$DIMASZ
 40
3.0
  9
$DIMEXO
 40
2.0
  9
$DIMDLI
 40
0.38
  9
$DIMRND
 40
0.0
  9
$DIMDLE
 40
0.0
  9
$DIMEXE
 40
2.0
  9
$DIMTP
 40
0.0
  9
$DIMTM
 40
0.0
  9
$DIMTXT
 40
3.2000000000000002
  9
$DIMCEN
 40
0.0
  9
$DIMTSZ
 40
0.0
  9
$DIMTOL
 70
     0
  9
$DIMLIM
 70
     0
  9
$DIMTIH
 70
     0
  9
$DIMTOH
 70
     0
  9
$DIMSE1
 70
     0
  9
$DIMSE2
 70
     0
  9
$DIMTAD
 70
     1
  9
$DIMZIN
 70
     0
  9
$DIMBLK
  1

  9
$DIMASO
 70
     0
  9
$DIMSHO
 70
     0
  9
$DIMPOST
  1

  9
$DIMAPOST
  1

  9
$DIMALT
 70
     0
  9
$DIMALTD
 70
     2
  9
$DIMALTF
 40
25.399999999999999
  9
$DIMLFAC
 40
1.0
  9
$DIMTOFL
 70
     0
  9
$DIMTVP
 40
1.6000000000000001
  9
$DIMTIX
 70
     1
  9
$DIMSOXD
 70
     0
  9
$DIMSAH
 70
     0
  9
$DIMBLK1
  1

  9
$DIMBLK2
  1

  9
$DIMSTYLE
  2
STANDARD
  9
$DIMCLRD
 70
     0
  9
$DIMCLRE
 70
     0
  9
$DIMCLRT
 70
     0
  9
$DIMTFAC
 40
1.0
  9
$DIMGAP
 40
0.09
  9
$LUNITS
 70
     2
  9
$LUPREC
 70
     4
  9
$SKETCHINC
 40
0.1
  9
$FILLETRAD
 40
0.0
  9
$AUNITS
 70
     0
  9
$AUPREC
 70
     4
  9
$MENU
  1
E:\r13\win\SUPPORT\ACAD
  9
$ELEVATION
 40
0.0
  9
$PELEVATION
 40
0.0
  9
$THICKNESS
 40
0.0
  9
$LIMCHECK
 70
     0
  9
$BLIPMODE
 70
     0
  9
$CHAMFERA
 40
0.0
  9
$CHAMFERB
 40
0.0
  9
$SKPOLY
 70
     0
  9
$TDCREATE
 40
2449840.6227546302
  9
$TDUPDATE
 40
2456602.6128542591
  9
$TDINDWG
 40
0.0114547454
  9
$TDUSRTIMER
 40
2456598.350395116
  9
$USRTIMER
 70
     1
  9
$ANGBASE
 50
0.0
  9
$ANGDIR
 70
     0
  9
$PDMODE
 70
     0
  9
$PDSIZE
 40
0.0
  9
$PLINEWID
 40
0.0
  9
$COORDS
 70
     1
  9
$SPLFRAME
 70
     0
  9
$SPLINETYPE
 70
     6
  9
$SPLINESEGS
 70
     8
  9
$ATTDIA
 70
     0
  9
$ATTREQ
 70
     1
  9
$HANDLING
 70
     1
  9
$HANDSEED
  5
5CD
  9
$SURFTAB1
 70
     6
  9
$SURFTAB2
 70
     6
  9
$SURFTYPE
 70
     6
  9
$SURFU
 70
     6
  9
$SURFV
 70
     6
  9
$UCSNAME
  2

  9
$UCSORG
 10
0.0
 20
0.0
 30
0.0
  9
$UCSXDIR
 10
1.0
 20
0.0
 30
0.0
  9
$UCSYDIR
 10
0.0
 20
1.0
 30
0.0
  9
$PUCSNAME
  2

  9
$PUCSORG
 10
0.0
 20
0.0
 30
0.0
  9
$PUCSXDIR
 10
1.0
 20
0.0
 30
0.0
  9
$PUCSYDIR
 10
0.0
 20
1.0
 30
0.0
  9
$USERI1
 70
     0
  9
$USERI2
 70
     1
  9
$USERI3
 70
     0
  9
$USERI4
 70
     0
  9
$USERI5
 70
     0
  9
$USERR1
 40
0.0
  9
$USERR2
 40
0.0
  9
$USERR3
 40
0.0
  9
$USERR4
 40
0.0
  9
$USERR5
 40
0.0
  9
$WORLDVIEW
 70
     1
  9
$SHADEDGE
 70
     3
  9
$SHADEDIF
 70
    70
  9
$TILEMODE
 70
     1
  9
$MAXACTVP
 70
    16
  9
$PLIMCHECK
 70
     0
  9
$PEXTMIN
 10
1.0000000000000000E+020
 20
1.0000000000000000E+020
 30
1.0000000000000000E+020
  9
$PEXTMAX
 10
-1.0000000000000000E+020
 20
-1.0000000000000000E+020
 30
-1.0000000000000000E+020
  9
$PLIMMIN
 10
0.0
 20
0.0
  9
$PLIMMAX
 10
12.0
 20
9.0
  9
$UNITMODE
 70
     0
  9
$VISRETAIN
 70
     0
  9
$PLINEGEN
 70
     0
  9
$PSLTSCALE
 70
     0
  0
ENDSEC
  0
SECTION
  2
TABLES
  0
TABLE
  2
VPORT
 70
     1
  0
VPORT
  2
*ACTIVE
 70
     0
 10
0.0
 20
0.0
 11
1.0
 21
1.0
 12
188.40657721473829
 22
30.774499752775849
 13
0.0
 23
0.0
 14
20.0
 24
20.0
 15
20.0
 25
20.0
 16
0.0
 26
0.0
 36
1.0
 17
0.0
 27
0.0
 37
0.0
 40
396.27106809782458
 41
1.831871345029239
 42
50.0
 43
0.0
 44
0.0
 50
0.0
 51
0.0
 71
    16
 72
   100
 73
     1
 74
     0
 75
     0
 76
     0
 77
     0
 78
     2
  0
ENDTAB
  0
TABLE
  2
LTYPE
 70
     7
  0
LTYPE
  2
CONTINUOUS
 70
     0
  3
Solid Line
 72
    65
 73
     0
 40
0.0
  0
LTYPE
  2
CENTER
 70
     0
  3
____ _ ____ _ ____ _ ____ _ ____ _ ____ _ ____
 72
    65
 73
     4
 40
2.0
 49
1.25
 49
-0.25
 49
0.25
 49
-0.25
  0
LTYPE
  2
HIDDEN
 70
     0
  3
_ _ _ _ _ _ _ _ _ _ _ _ _ _ _ _ _ _ _ _ _ _ _
 72
    65
 73
     2
 40
0.375
 49
0.25
 49
-0.125
  0
LTYPE
  2
PHANTOM2
 70
     0
  3
___ _ _ ___ _ _ ___ _ _ ___ _ _
 72
    65
 73
     6
 40
1.25
 49
0.625
 49
-0.125
 49
0.125
 49
-0.125
 49
0.125
 49
-0.125
  0
LTYPE
  2
CNS_SOLID
 70
     0
  3

 72
    65
 73
     0
 40
0.0
  0
LTYPE
  2
CNS_DASHED
 70
     0
  3

 72
    65
 73
     2
 40
2.0
 49
1.0
 49
-1.0
  0
LTYPE
  2
CNS_CENTER
 70
     0
  3

 72
    65
 73
     4
 40
2.0
 49
0.45
 49
-0.5
 49
0.05
 49
-0.5
  0
ENDTAB
  0
TABLE
  2
LAYER
 70
     4
  0
LAYER
  2
0
 70
     0
 62
     7
  6
CONTINUOUS
  0
LAYER
  2
1
 70
     0
 62
     1
  6
CENTER
  0
LAYER
  2
2
 70
     0
 62
     2
  6
HIDDEN
  0
LAYER
  2
3
 70
     0
 62
     3
  6
CONTINUOUS
  0
ENDTAB
  0
TABLE
  2
STYLE
 70
     2
  0
STYLE
  2
STANDARD
 70
     0
 40
0.0
 41
1.0
 50
0.0
 71
     0
 42
0.2
  3
TXT
  4
BIGFONT
  0
STYLE
  2
STANDARD1
 70
     0
 40
0.0
 41
1.0
 50
0.0
 71
     0
 42
3.0
  3
txt
  4

  0
ENDTAB
  0
TABLE
  2
VIEW
 70
     1
  0
VIEW
  2
ALL
 70
     0
 40
540.0
 10
441.98319299999991
 20
270.0
 41
0.0
 11
0.0
 21
0.0
 31
1.0
 12
0.0
 22
0.0
 32
0.0
 42
0.0
 43
0.0
 44
0.0
 50
0.0
 71
     0
  0
ENDTAB
  0
TABLE
  2
UCS
 70
     0
  0
ENDTAB
  0
TABLE
  2
APPID
 70
     6
  0
APPID
  2
ACAD
 70
     0
  0
APPID
  2
ACAD_NAV_VCDISPLAY
 70
     0
  0
APPID
  2
ACAD_EXEMPT_FROM_CAD_STANDARDS
 70
     0
  0
APPID
  2
ACAD_DSTYLE_DIMJAG
 70
     0
  0
APPID
  2
ACAD_DSTYLE_DIMTALN
 70
     0
  0
APPID
  2
ACAD_MLEADERVER
 70
     0
  0
ENDTAB
  0
TABLE
  2
DIMSTYLE
 70
     2
  0
DIMSTYLE
  2
STANDARD
 70
     0
  3

  4

  5

  6

  7

 40
1.0
 41
0.18
 42
0.0625
 43
0.38
 44
0.18
 45
0.0
 46
0.0
 47
0.0
 48
0.0
140
0.18
141
0.09
142
0.0
143
25.399999999999999
144
1.0
145
0.0
146
1.0
147
0.09
 71
     0
 72
     0
 73
     1
 74
     1
 75
     0
 76
     0
 77
     0
 78
     0
170
     0
171
     2
172
     0
173
     0
174
     0
175
     0
176
     0
177
     0
178
     0
  0
DIMSTYLE
  2
ISO-25
 70
     0
  3

  4

  5

  6

  7

 40
1.0
 41
2.5
 42
0.625
 43
3.75
 44
1.25
 45
0.0
 46
0.0
 47
0.0
 48
0.0
140
2.5
141
2.5
142
0.0
143
0.03937007874016
144
1.0
145
0.0
146
1.0
147
0.625
 71
     0
 72
     0
 73
     0
 74
     0
 75
     0
 76
     0
 77
     1
 78
     8
170
     0
171
     3
172
     1
173
     0
174
     0
175
     0
176
     0
177
     0
178
     0
  0
ENDTAB
  0
ENDSEC
  0
SECTION
  2
BLOCKS
  0
BLOCK
  8
0
  2
$MODEL_SPACE
 70
     0
 10
0.0
 20
0.0
 30
0.0
  3
$MODEL_SPACE
  1

  0
ENDBLK
  5
11D
  8
0
  0
BLOCK
 67
     1
  8
0
  2
$PAPER_SPACE
 70
     0
 10
0.0
 20
0.0
 30
0.0
  3
$PAPER_SPACE
  1

  0
ENDBLK
  5
11B
 67
     1
  8
0
  0
ENDSEC
  0
SECTION
  2
ENTITIES
  0
LINE
  5
36D
  8
0
 10
118.6625664661106
 20
128.10113754584671
 30
0.0
 11
113.4555664661107
 21
128.10113754584671
 31
0.0
  0
LINE
  5
36E
  8
0
 10
133.26756646611059
 20
128.10113754584671
 30
0.0
 11
128.0605664661106
 21
128.10113754584671
 31
0.0
  0
LINE
  5
36F
  8
0
 10
126.1555664661106
 20
90.763137545846675
 30
0.0
 11
133.26756646611059
 21
90.763137545846675
 31
0.0
  0
LINE
  5
370
  8
0
 10
113.4555664661107
 20
90.763137545846675
 30
0.0
 11
120.56756646611061
 21
90.763137545846675
 31
0.0
  0
LINE
  5
371
  8
2
 10
126.1555664661106
 20
97.367137545846674
 30
0.0
 11
133.26756646611059
 21
97.367137545846674
 31
0.0
  0
LINE
  5
372
  8
2
 10
113.4555664661107
 20
97.367137545846674
 30
0.0
 11
120.56756646611061
 21
97.367137545846674
 31
0.0
  0
LINE
  5
373
  8
2
 10
118.6625664661106
 20
121.4971375458467
 30
0.0
 11
113.4555664661107
 21
121.4971375458467
 31
0.0
  0
LINE
  5
374
  8
2
 10
133.26756646611059
 20
121.4971375458467
 30
0.0
 11
128.0605664661106
 21
121.4971375458467
 31
0.0
  0
LINE
  5
375
  8
2
 10
128.0605664661106
 20
128.10113754584671
 30
0.0
 11
128.0605664661106
 21
121.4971375458467
 31
0.0
  0
LINE
  5
376
  8
2
 10
118.6625664661106
 20
121.4971375458467
 30
0.0
 11
118.6625664661106
 21
128.10113754584671
 31
0.0
  0
LINE
  5
377
  8
2
 10
120.56756646611061
 20
90.763137545846675
 30
0.0
 11
120.56756646611061
 21
97.367137545846674
 31
0.0
  0
LINE
  5
378
  8
2
 10
126.1555664661106
 20
97.367137545846674
 30
0.0
 11
126.1555664661106
 21
90.763137545846675
 31
0.0
  0
LINE
  5
379
  8
0
 10
133.26756646611059
 20
90.763137545846675
 30
0.0
 11
133.26756646611071
 21
128.10113754584671
 31
0.0
  0
LINE
  5
37A
  8
0
 10
113.4555664661107
 20
90.763137545846675
 30
0.0
 11
113.4555664661107
 21
128.10113754584671
 31
0.0
  0
LINE
  5
37B
  8
2
 10
51.041495615934181
 20
90.924445306343557
 30
0.0
 11
51.041495615934181
 21
97.586285781682335
 31
0.0
  0
LINE
  5
37C
  8
2
 10
56.629495615934168
 20
90.924445306343586
 30
0.0
 11
56.629495615934168
 21
97.586285781682292
 31
0.0
  0
LINE
  5
37D
  8
2
 10
49.136495615934187
 20
127.6426479104112
 30
0.0
 11
49.136495615934187
 21
120.866710503276
 31
0.0
  0
LINE
  5
37E
  8
2
 10
58.534495615935491
 20
127.642647910411
 30
0.0
 11
58.534495615935491
 21
120.8667105032756
 31
0.0
  0
LINE
  5
37F
  8
1
 10
53.835495615929048
 20
130.6010366080441
 30
0.0
 11
53.835468669793542
 21
88.263219440003581
 31
0.0
  0
LINE
  5
380
  8
1
 10
46.636526733157382
 20
178.9581726141831
 30
0.0
 11
61.034437552577351
 21
178.95827112399681
 31
0.0
  0
LINE
  5
381
  8
1
 10
48.541492981238321
 20
39.906000111023332
 30
0.0
 11
59.129471304496377
 21
39.906106334183391
 31
0.0
  0
LINE
  5
382
  8
1
 10
53.835482142867349
 20
45.200042384737202
 30
0.0
 11
53.835482142867349
 21
34.612064060469521
 31
0.0
  0
CIRCLE
  5
383
  8
0
 10
53.835482142867349
 20
39.906053222603362
 30
0.0
 40
2.7939891617749639
  0
CIRCLE
  5
384
  8
0
 10
53.83548214286737
 20
178.95822186909001
 30
0.0
 40
4.6989554107388543
  0
LINE
  5
385
  8
1
 10
53.83548214286737
 20
186.1571772789099
 30
0.0
 11
53.83548214286737
 21
171.75926645927001
 31
0.0
  0
LINE
  5
386
  8
1
 10
110.9555664661107
 20
109.4321375458466
 30
0.0
 11
135.76756646611071
 21
109.4321375458466
 31
0.0
  0
LINE
  5
387
  8
1
 10
123.3615664661106
 20
130.60113754584671
 30
0.0
 11
123.3615664661106
 21
88.263137545846675
 31
0.0
  0
POLYLINE
  5
388
  8
0
 10
75.17146866978409
 20
109.43211444461848
 30
0.0
 66
     1
 70
     8
  0
VERTEX
  8
0
  5
4C9
 10
75.1715
 20
109.432
 30
0.000000
  70
    32
  0
VERTEX
  8
0
  5
4CA
 10
75.1458
 20
110.348
 30
0.000000
  70
    32
  0
VERTEX
  8
0
  5
4CB
 10
75.0687
 20
111.262
 30
0.000000
  70
    32
  0
VERTEX
  8
0
  5
4CC
 10
74.9405
 20
112.171
 30
0.000000
  70
    32
  0
VERTEX
  8
0
  5
4CD
 10
74.7615
 20
113.074
 30
0.000000
  70
    32
  0
VERTEX
  8
0
  5
4CE
 10
74.5321
 20
113.968
 30
0.000000
  70
    32
  0
VERTEX
  8
0
  5
4CF
 10
74.2528
 20
114.851
 30
0.000000
  70
    32
  0
VERTEX
  8
0
  5
4D0
 10
73.9243
 20
115.722
 30
0.000000
  70
    32
  0
VERTEX
  8
0
  5
4D1
 10
73.5474
 20
116.576
 30
0.000000
  70
    32
  0
VERTEX
  8
0
  5
4D2
 10
73.1230
 20
117.414
 30
0.000000
  70
    32
  0
VERTEX
  8
0
  5
4D3
 10
72.6521
 20
118.233
 30
0.000000
  70
    32
  0
VERTEX
  8
0
  5
4D4
 10
72.1360
 20
119.030
 30
0.000000
  70
    32
  0
VERTEX
  8
0
  5
4D5
 10
71.5757
 20
119.804
 30
0.000000
  70
    32
  0
VERTEX
  8
0
  5
4D6
 10
70.9727
 20
120.553
 30
0.000000
  70
    32
  0
VERTEX
  8
0
  5
4D7
 10
70.3284
 20
121.276
 30
0.000000
  70
    32
  0
VERTEX
  8
0
  5
4D8
 10
69.6444
 20
121.969
 30
0.000000
  70
    32
  0
VERTEX
  8
0
  5
4D9
 10
68.9223
 20
122.633
 30
0.000000
  70
    32
  0
VERTEX
  8
0
  5
4DA
 10
68.1639
 20
123.265
 30
0.000000
  70
    32
  0
VERTEX
  8
0
  5
4DB
 10
67.3709
 20
123.863
 30
0.000000
  70
    32
  0
VERTEX
  8
0
  5
4DC
 10
66.5453
 20
124.427
 30
0.000000
  70
    32
  0
VERTEX
  8
0
  5
4DD
 10
65.6891
 20
124.955
 30
0.000000
  70
    32
  0
VERTEX
  8
0
  5
4DE
 10
64.8044
 20
125.445
 30
0.000000
  70
    32
  0
VERTEX
  8
0
  5
4DF
 10
63.8932
 20
125.897
 30
0.000000
  70
    32
  0
VERTEX
  8
0
  5
4E0
 10
62.9578
 20
126.309
 30
0.000000
  70
    32
  0
VERTEX
  8
0
  5
4E1
 10
62.0004
 20
126.680
 30
0.000000
  70
    32
  0
VERTEX
  8
0
  5
4E2
 10
61.0234
 20
127.010
 30
0.000000
  70
    32
  0
VERTEX
  8
0
  5
4E3
 10
60.0290
 20
127.297
 30
0.000000
  70
    32
  0
VERTEX
  8
0
  5
4E4
 10
59.0197
 20
127.542
 30
0.000000
  70
    32
  0
VERTEX
  8
0
  5
4E5
 10
57.9979
 20
127.742
 30
0.000000
  70
    32
  0
VERTEX
  8
0
  5
4E6
 10
56.9661
 20
127.899
 30
0.000000
  70
    32
  0
VERTEX
  8
0
  5
4E7
 10
55.9268
 20
128.011
 30
0.000000
  70
    32
  0
VERTEX
  8
0
  5
4E8
 10
54.8824
 20
128.079
 30
0.000000
  70
    32
  0
VERTEX
  8
0
  5
4E9
 10
53.8355
 20
128.101
 30
0.000000
  70
    32
  0
VERTEX
  8
0
  5
4EA
 10
52.7886
 20
128.079
 30
0.000000
  70
    32
  0
VERTEX
  8
0
  5
4EB
 10
51.7442
 20
128.011
 30
0.000000
  70
    32
  0
VERTEX
  8
0
  5
4EC
 10
50.7049
 20
127.899
 30
0.000000
  70
    32
  0
VERTEX
  8
0
  5
4ED
 10
49.6730
 20
127.742
 30
0.000000
  70
    32
  0
VERTEX
  8
0
  5
4EE
 10
48.6513
 20
127.542
 30
0.000000
  70
    32
  0
VERTEX
  8
0
  5
4EF
 10
47.6420
 20
127.297
 30
0.000000
  70
    32
  0
VERTEX
  8
0
  5
4F0
 10
46.6476
 20
127.010
 30
0.000000
  70
    32
  0
VERTEX
  8
0
  5
4F1
 10
45.6706
 20
126.680
 30
0.000000
  70
    32
  0
VERTEX
  8
0
  5
4F2
 10
44.7132
 20
126.309
 30
0.000000
  70
    32
  0
VERTEX
  8
0
  5
4F3
 10
43.7778
 20
125.897
 30
0.000000
  70
    32
  0
VERTEX
  8
0
  5
4F4
 10
42.8666
 20
125.445
 30
0.000000
  70
    32
  0
VERTEX
  8
0
  5
4F5
 10
41.9819
 20
124.955
 30
0.000000
  70
    32
  0
VERTEX
  8
0
  5
4F6
 10
41.1257
 20
124.427
 30
0.000000
  70
    32
  0
VERTEX
  8
0
  5
4F7
 10
40.3001
 20
123.863
 30
0.000000
  70
    32
  0
VERTEX
  8
0
  5
4F8
 10
39.5071
 20
123.265
 30
0.000000
  70
    32
  0
VERTEX
  8
0
  5
4F9
 10
38.7487
 20
122.633
 30
0.000000
  70
    32
  0
VERTEX
  8
0
  5
4FA
 10
38.0266
 20
121.969
 30
0.000000
  70
    32
  0
VERTEX
  8
0
  5
4FB
 10
37.3425
 20
121.276
 30
0.000000
  70
    32
  0
VERTEX
  8
0
  5
4FC
 10
36.6983
 20
120.553
 30
0.000000
  70
    32
  0
VERTEX
  8
0
  5
4FD
 10
36.0953
 20
119.804
 30
0.000000
  70
    32
  0
VERTEX
  8
0
  5
4FE
 10
35.5350
 20
119.030
 30
0.000000
  70
    32
  0
VERTEX
  8
0
  5
4FF
 10
35.0188
 20
118.233
 30
0.000000
  70
    32
  0
VERTEX
  8
0
  5
500
 10
34.5480
 20
117.414
 30
0.000000
  70
    32
  0
VERTEX
  8
0
  5
501
 10
34.1236
 20
116.576
 30
0.000000
  70
    32
  0
VERTEX
  8
0
  5
502
 10
33.7467
 20
115.722
 30
0.000000
  70
    32
  0
VERTEX
  8
0
  5
503
 10
33.4182
 20
114.851
 30
0.000000
  70
    32
  0
VERTEX
  8
0
  5
504
 10
33.1389
 20
113.968
 30
0.000000
  70
    32
  0
VERTEX
  8
0
  5
505
 10
32.9095
 20
113.074
 30
0.000000
  70
    32
  0
VERTEX
  8
0
  5
506
 10
32.7304
 20
112.171
 30
0.000000
  70
    32
  0
VERTEX
  8
0
  5
507
 10
32.6022
 20
111.262
 30
0.000000
  70
    32
  0
VERTEX
  8
0
  5
508
 10
32.5252
 20
110.348
 30
0.000000
  70
    32
  0
VERTEX
  8
0
  5
509
 10
32.4995
 20
109.432
 30
0.000000
  70
    32
  0
VERTEX
  8
0
  5
50A
 10
32.5252
 20
108.516
 30
0.000000
  70
    32
  0
VERTEX
  8
0
  5
50B
 10
32.6022
 20
107.602
 30
0.000000
  70
    32
  0
VERTEX
  8
0
  5
50C
 10
32.7304
 20
106.693
 30
0.000000
  70
    32
  0
VERTEX
  8
0
  5
50D
 10
32.9095
 20
105.790
 30
0.000000
  70
    32
  0
VERTEX
  8
0
  5
50E
 10
33.1389
 20
104.896
 30
0.000000
  70
    32
  0
VERTEX
  8
0
  5
50F
 10
33.4182
 20
104.013
 30
0.000000
  70
    32
  0
VERTEX
  8
0
  5
510
 10
33.7467
 20
103.143
 30
0.000000
  70
    32
  0
VERTEX
  8
0
  5
511
 10
34.1236
 20
102.288
 30
0.000000
  70
    32
  0
VERTEX
  8
0
  5
512
 10
34.5480
 20
101.450
 30
0.000000
  70
    32
  0
VERTEX
  8
0
  5
513
 10
35.0188
 20
100.632
 30
0.000000
  70
    32
  0
VERTEX
  8
0
  5
514
 10
35.5350
 20
99.8344
 30
0.000000
  70
    32
  0
VERTEX
  8
0
  5
515
 10
36.0953
 20
99.0602
 30
0.000000
  70
    32
  0
VERTEX
  8
0
  5
516
 10
36.6982
 20
98.3110
 30
0.000000
  70
    32
  0
VERTEX
  8
0
  5
517
 10
37.3425
 20
97.5887
 30
0.000000
  70
    32
  0
VERTEX
  8
0
  5
518
 10
38.0266
 20
96.8948
 30
0.000000
  70
    32
  0
VERTEX
  8
0
  5
519
 10
38.7487
 20
96.2312
 30
0.000000
  70
    32
  0
VERTEX
  8
0
  5
51A
 10
39.5071
 20
95.5993
 30
0.000000
  70
    32
  0
VERTEX
  8
0
  5
51B
 10
40.3001
 20
95.0008
 30
0.000000
  70
    32
  0
VERTEX
  8
0
  5
51C
 10
41.1256
 20
94.4371
 30
0.000000
  70
    32
  0
VERTEX
  8
0
  5
51D
 10
41.9818
 20
93.9094
 30
0.000000
  70
    32
  0
VERTEX
  8
0
  5
51E
 10
42.8666
 20
93.4192
 30
0.000000
  70
    32
  0
VERTEX
  8
0
  5
51F
 10
43.7778
 20
92.9675
 30
0.000000
  70
    32
  0
VERTEX
  8
0
  5
520
 10
44.7132
 20
92.5556
 30
0.000000
  70
    32
  0
VERTEX
  8
0
  5
521
 10
45.6705
 20
92.1842
 30
0.000000
  70
    32
  0
VERTEX
  8
0
  5
522
 10
46.6476
 20
91.8544
 30
0.000000
  70
    32
  0
VERTEX
  8
0
  5
523
 10
47.6420
 20
91.5670
 30
0.000000
  70
    32
  0
VERTEX
  8
0
  5
524
 10
48.6512
 20
91.3226
 30
0.000000
  70
    32
  0
VERTEX
  8
0
  5
525
 10
49.6730
 20
91.1219
 30
0.000000
  70
    32
  0
VERTEX
  8
0
  5
526
 10
50.7048
 20
90.9652
 30
0.000000
  70
    32
  0
VERTEX
  8
0
  5
527
 10
51.7442
 20
90.8530
 30
0.000000
  70
    32
  0
VERTEX
  8
0
  5
528
 10
52.7886
 20
90.7856
 30
0.000000
  70
    32
  0
VERTEX
  8
0
  5
529
 10
53.8355
 20
90.7631
 30
0.000000
  70
    32
  0
VERTEX
  8
0
  5
52A
 10
54.8824
 20
90.7856
 30
0.000000
  70
    32
  0
VERTEX
  8
0
  5
52B
 10
55.9268
 20
90.8530
 30
0.000000
  70
    32
  0
VERTEX
  8
0
  5
52C
 10
56.9661
 20
90.9652
 30
0.000000
  70
    32
  0
VERTEX
  8
0
  5
52D
 10
57.9979
 20
91.1218
 30
0.000000
  70
    32
  0
VERTEX
  8
0
  5
52E
 10
59.0197
 20
91.3226
 30
0.000000
  70
    32
  0
VERTEX
  8
0
  5
52F
 10
60.0290
 20
91.5670
 30
0.000000
  70
    32
  0
VERTEX
  8
0
  5
530
 10
61.0233
 20
91.8544
 30
0.000000
  70
    32
  0
VERTEX
  8
0
  5
531
 10
62.0004
 20
92.1842
 30
0.000000
  70
    32
  0
VERTEX
  8
0
  5
532
 10
62.9578
 20
92.5555
 30
0.000000
  70
    32
  0
VERTEX
  8
0
  5
533
 10
63.8932
 20
92.9675
 30
0.000000
  70
    32
  0
VERTEX
  8
0
  5
534
 10
64.8044
 20
93.4192
 30
0.000000
  70
    32
  0
VERTEX
  8
0
  5
535
 10
65.6891
 20
93.9094
 30
0.000000
  70
    32
  0
VERTEX
  8
0
  5
536
 10
66.5453
 20
94.4370
 30
0.000000
  70
    32
  0
VERTEX
  8
0
  5
537
 10
67.3709
 20
95.0008
 30
0.000000
  70
    32
  0
VERTEX
  8
0
  5
538
 10
68.1638
 20
95.5993
 30
0.000000
  70
    32
  0
VERTEX
  8
0
  5
539
 10
68.9223
 20
96.2311
 30
0.000000
  70
    32
  0
VERTEX
  8
0
  5
53A
 10
69.6444
 20
96.8948
 30
0.000000
  70
    32
  0
VERTEX
  8
0
  5
53B
 10
70.3284
 20
97.5886
 30
0.000000
  70
    32
  0
VERTEX
  8
0
  5
53C
 10
70.9727
 20
98.3110
 30
0.000000
  70
    32
  0
VERTEX
  8
0
  5
53D
 10
71.5757
 20
99.0602
 30
0.000000
  70
    32
  0
VERTEX
  8
0
  5
53E
 10
72.1360
 20
99.8343
 30
0.000000
  70
    32
  0
VERTEX
  8
0
  5
53F
 10
72.6521
 20
100.632
 30
0.000000
  70
    32
  0
VERTEX
  8
0
  5
540
 10
73.1230
 20
101.450
 30
0.000000
  70
    32
  0
VERTEX
  8
0
  5
541
 10
73.5474
 20
102.288
 30
0.000000
  70
    32
  0
VERTEX
  8
0
  5
542
 10
73.9242
 20
103.143
 30
0.000000
  70
    32
  0
VERTEX
  8
0
  5
543
 10
74.2527
 20
104.013
 30
0.000000
  70
    32
  0
VERTEX
  8
0
  5
544
 10
74.5321
 20
104.896
 30
0.000000
  70
    32
  0
VERTEX
  8
0
  5
545
 10
74.7615
 20
105.790
 30
0.000000
  70
    32
  0
VERTEX
  8
0
  5
546
 10
74.9405
 20
106.693
 30
0.000000
  70
    32
  0
VERTEX
  8
0
  5
547
 10
75.0687
 20
107.602
 30
0.000000
  70
    32
  0
VERTEX
  8
0
  5
548
 10
75.1458
 20
108.516
 30
0.000000
  70
    32
  0
VERTEX
  8
0
  5
549
 10
75.1715
 20
109.432
 30
0.000000
  70
    32
  0
SEQEND
  8
0
  5
54A
  0
LINE
  5
389
  8
1
 10
29.999999922920608
 20
109.4321622376911
 30
0.0
 11
77.671468669783593
 21
109.43211285347979
 31
0.0
  0
POLYLINE
  5
38A
  8
0
 10
68.567972973356675
 20
109.43182027175008
 30
0.0
 66
     1
 70
     8
  0
VERTEX
  8
0
  5
54B
 10
68.5680
 20
109.432
 30
0.000000
  70
    32
  0
VERTEX
  8
0
  5
54C
 10
68.5502
 20
110.024
 30
0.000000
  70
    32
  0
VERTEX
  8
0
  5
54D
 10
68.4971
 20
110.614
 30
0.000000
  70
    32
  0
VERTEX
  8
0
  5
54E
 10
68.4086
 20
111.202
 30
0.000000
  70
    32
  0
VERTEX
  8
0
  5
54F
 10
68.2849
 20
111.786
 30
0.000000
  70
    32
  0
VERTEX
  8
0
  5
550
 10
68.1265
 20
112.363
 30
0.000000
  70
    32
  0
VERTEX
  8
0
  5
551
 10
67.9337
 20
112.934
 30
0.000000
  70
    32
  0
VERTEX
  8
0
  5
552
 10
67.7069
 20
113.496
 30
0.000000
  70
    32
  0
VERTEX
  8
0
  5
553
 10
67.4466
 20
114.049
 30
0.000000
  70
    32
  0
VERTEX
  8
0
  5
554
 10
67.1536
 20
114.590
 30
0.000000
  70
    32
  0
VERTEX
  8
0
  5
555
 10
66.8285
 20
115.119
 30
0.000000
  70
    32
  0
VERTEX
  8
0
  5
556
 10
66.4721
 20
115.635
 30
0.000000
  70
    32
  0
VERTEX
  8
0
  5
557
 10
66.0853
 20
116.135
 30
0.000000
  70
    32
  0
VERTEX
  8
0
  5
558
 10
65.6689
 20
116.619
 30
0.000000
  70
    32
  0
VERTEX
  8
0
  5
559
 10
65.2241
 20
117.086
 30
0.000000
  70
    32
  0
VERTEX
  8
0
  5
55A
 10
64.7518
 20
117.534
 30
0.000000
  70
    32
  0
VERTEX
  8
0
  5
55B
 10
64.2532
 20
117.963
 30
0.000000
  70
    32
  0
VERTEX
  8
0
  5
55C
 10
63.7295
 20
118.372
 30
0.000000
  70
    32
  0
VERTEX
  8
0
  5
55D
 10
63.1820
 20
118.758
 30
0.000000
  70
    32
  0
VERTEX
  8
0
  5
55E
 10
62.6119
 20
119.123
 30
0.000000
  70
    32
  0
VERTEX
  8
0
  5
55F
 10
62.0207
 20
119.464
 30
0.000000
  70
    32
  0
VERTEX
  8
0
  5
560
 10
61.4098
 20
119.780
 30
0.000000
  70
    32
  0
VERTEX
  8
0
  5
561
 10
60.7807
 20
120.072
 30
0.000000
  70
    32
  0
VERTEX
  8
0
  5
562
 10
60.1348
 20
120.339
 30
0.000000
  70
    32
  0
VERTEX
  8
0
  5
563
 10
59.4738
 20
120.579
 30
0.000000
  70
    32
  0
VERTEX
  8
0
  5
564
 10
58.7991
 20
120.792
 30
0.000000
  70
    32
  0
VERTEX
  8
0
  5
565
 10
58.1125
 20
120.978
 30
0.000000
  70
    32
  0
VERTEX
  8
0
  5
566
 10
57.4156
 20
121.135
 30
0.000000
  70
    32
  0
VERTEX
  8
0
  5
567
 10
56.7101
 20
121.265
 30
0.000000
  70
    32
  0
VERTEX
  8
0
  5
568
 10
55.9977
 20
121.367
 30
0.000000
  70
    32
  0
VERTEX
  8
0
  5
569
 10
55.2800
 20
121.439
 30
0.000000
  70
    32
  0
VERTEX
  8
0
  5
56A
 10
54.5589
 20
121.483
 30
0.000000
  70
    32
  0
VERTEX
  8
0
  5
56B
 10
53.8360
 20
121.497
 30
0.000000
  70
    32
  0
VERTEX
  8
0
  5
56C
 10
53.1131
 20
121.483
 30
0.000000
  70
    32
  0
VERTEX
  8
0
  5
56D
 10
52.3920
 20
121.439
 30
0.000000
  70
    32
  0
VERTEX
  8
0
  5
56E
 10
51.6743
 20
121.367
 30
0.000000
  70
    32
  0
VERTEX
  8
0
  5
56F
 10
50.9619
 20
121.265
 30
0.000000
  70
    32
  0
VERTEX
  8
0
  5
570
 10
50.2563
 20
121.136
 30
0.000000
  70
    32
  0
VERTEX
  8
0
  5
571
 10
49.5594
 20
120.978
 30
0.000000
  70
    32
  0
VERTEX
  8
0
  5
572
 10
48.8728
 20
120.792
 30
0.000000
  70
    32
  0
VERTEX
  8
0
  5
573
 10
48.1982
 20
120.579
 30
0.000000
  70
    32
  0
VERTEX
  8
0
  5
574
 10
47.5371
 20
120.339
 30
0.000000
  70
    32
  0
VERTEX
  8
0
  5
575
 10
46.8912
 20
120.073
 30
0.000000
  70
    32
  0
VERTEX
  8
0
  5
576
 10
46.2621
 20
119.781
 30
0.000000
  70
    32
  0
VERTEX
  8
0
  5
577
 10
45.6512
 20
119.464
 30
0.000000
  70
    32
  0
VERTEX
  8
0
  5
578
 10
45.0600
 20
119.123
 30
0.000000
  70
    32
  0
VERTEX
  8
0
  5
579
 10
44.4899
 20
118.759
 30
0.000000
  70
    32
  0
VERTEX
  8
0
  5
57A
 10
43.9424
 20
118.372
 30
0.000000
  70
    32
  0
VERTEX
  8
0
  5
57B
 10
43.4187
 20
117.964
 30
0.000000
  70
    32
  0
VERTEX
  8
0
  5
57C
 10
42.9200
 20
117.535
 30
0.000000
  70
    32
  0
VERTEX
  8
0
  5
57D
 10
42.4477
 20
117.086
 30
0.000000
  70
    32
  0
VERTEX
  8
0
  5
57E
 10
42.0028
 20
116.620
 30
0.000000
  70
    32
  0
VERTEX
  8
0
  5
57F
 10
41.5865
 20
116.135
 30
0.000000
  70
    32
  0
VERTEX
  8
0
  5
580
 10
41.1996
 20
115.635
 30
0.000000
  70
    32
  0
VERTEX
  8
0
  5
581
 10
40.8432
 20
115.120
 30
0.000000
  70
    32
  0
VERTEX
  8
0
  5
582
 10
40.5181
 20
114.591
 30
0.000000
  70
    32
  0
VERTEX
  8
0
  5
583
 10
40.2250
 20
114.050
 30
0.000000
  70
    32
  0
VERTEX
  8
0
  5
584
 10
39.9648
 20
113.497
 30
0.000000
  70
    32
  0
VERTEX
  8
0
  5
585
 10
39.7379
 20
112.935
 30
0.000000
  70
    32
  0
VERTEX
  8
0
  5
586
 10
39.5451
 20
112.364
 30
0.000000
  70
    32
  0
VERTEX
  8
0
  5
587
 10
39.3866
 20
111.786
 30
0.000000
  70
    32
  0
VERTEX
  8
0
  5
588
 10
39.2630
 20
111.203
 30
0.000000
  70
    32
  0
VERTEX
  8
0
  5
589
 10
39.1745
 20
110.615
 30
0.000000
  70
    32
  0
VERTEX
  8
0
  5
58A
 10
39.1213
 20
110.024
 30
0.000000
  70
    32
  0
VERTEX
  8
0
  5
58B
 10
39.1035
 20
109.432
 30
0.000000
  70
    32
  0
VERTEX
  8
0
  5
58C
 10
39.1212
 20
108.840
 30
0.000000
  70
    32
  0
VERTEX
  8
0
  5
58D
 10
39.1744
 20
108.250
 30
0.000000
  70
    32
  0
VERTEX
  8
0
  5
58E
 10
39.2629
 20
107.662
 30
0.000000
  70
    32
  0
VERTEX
  8
0
  5
58F
 10
39.3865
 20
107.079
 30
0.000000
  70
    32
  0
VERTEX
  8
0
  5
590
 10
39.5449
 20
106.501
 30
0.000000
  70
    32
  0
VERTEX
  8
0
  5
591
 10
39.7378
 20
105.930
 30
0.000000
  70
    32
  0
VERTEX
  8
0
  5
592
 10
39.9646
 20
105.368
 30
0.000000
  70
    32
  0
VERTEX
  8
0
  5
593
 10
40.2248
 20
104.815
 30
0.000000
  70
    32
  0
VERTEX
  8
0
  5
594
 10
40.5178
 20
104.274
 30
0.000000
  70
    32
  0
VERTEX
  8
0
  5
595
 10
40.8429
 20
103.745
 30
0.000000
  70
    32
  0
VERTEX
  8
0
  5
596
 10
41.1993
 20
103.230
 30
0.000000
  70
    32
  0
VERTEX
  8
0
  5
597
 10
41.5862
 20
102.729
 30
0.000000
  70
    32
  0
VERTEX
  8
0
  5
598
 10
42.0025
 20
102.245
 30
0.000000
  70
    32
  0
VERTEX
  8
0
  5
599
 10
42.4474
 20
101.778
 30
0.000000
  70
    32
  0
VERTEX
  8
0
  5
59A
 10
42.9197
 20
101.330
 30
0.000000
  70
    32
  0
VERTEX
  8
0
  5
59B
 10
43.4183
 20
100.901
 30
0.000000
  70
    32
  0
VERTEX
  8
0
  5
59C
 10
43.9420
 20
100.493
 30
0.000000
  70
    32
  0
VERTEX
  8
0
  5
59D
 10
44.4895
 20
100.106
 30
0.000000
  70
    32
  0
VERTEX
  8
0
  5
59E
 10
45.0595
 20
99.7416
 30
0.000000
  70
    32
  0
VERTEX
  8
0
  5
59F
 10
45.6507
 20
99.4006
 30
0.000000
  70
    32
  0
VERTEX
  8
0
  5
5A0
 10
46.2616
 20
99.0838
 30
0.000000
  70
    32
  0
VERTEX
  8
0
  5
5A1
 10
46.8908
 20
98.7919
 30
0.000000
  70
    32
  0
VERTEX
  8
0
  5
5A2
 10
47.5367
 20
98.5256
 30
0.000000
  70
    32
  0
VERTEX
  8
0
  5
5A3
 10
48.1977
 20
98.2856
 30
0.000000
  70
    32
  0
VERTEX
  8
0
  5
5A4
 10
48.8723
 20
98.0725
 30
0.000000
  70
    32
  0
VERTEX
  8
0
  5
5A5
 10
49.5589
 20
97.8867
 30
0.000000
  70
    32
  0
VERTEX
  8
0
  5
5A6
 10
50.2558
 20
97.7288
 30
0.000000
  70
    32
  0
VERTEX
  8
0
  5
5A7
 10
50.9614
 20
97.5990
 30
0.000000
  70
    32
  0
VERTEX
  8
0
  5
5A8
 10
51.6738
 20
97.4978
 30
0.000000
  70
    32
  0
VERTEX
  8
0
  5
5A9
 10
52.3915
 20
97.4253
 30
0.000000
  70
    32
  0
VERTEX
  8
0
  5
5AA
 10
53.1126
 20
97.3817
 30
0.000000
  70
    32
  0
VERTEX
  8
0
  5
5AB
 10
53.8355
 20
97.3671
 30
0.000000
  70
    32
  0
VERTEX
  8
0
  5
5AC
 10
54.5584
 20
97.3816
 30
0.000000
  70
    32
  0
VERTEX
  8
0
  5
5AD
 10
55.2795
 20
97.4252
 30
0.000000
  70
    32
  0
VERTEX
  8
0
  5
5AE
 10
55.9971
 20
97.4977
 30
0.000000
  70
    32
  0
VERTEX
  8
0
  5
5AF
 10
56.7096
 20
97.5989
 30
0.000000
  70
    32
  0
VERTEX
  8
0
  5
5B0
 10
57.4151
 20
97.7286
 30
0.000000
  70
    32
  0
VERTEX
  8
0
  5
5B1
 10
58.1120
 20
97.8866
 30
0.000000
  70
    32
  0
VERTEX
  8
0
  5
5B2
 10
58.7986
 20
98.0723
 30
0.000000
  70
    32
  0
VERTEX
  8
0
  5
5B3
 10
59.4733
 20
98.2854
 30
0.000000
  70
    32
  0
VERTEX
  8
0
  5
5B4
 10
60.1343
 20
98.5254
 30
0.000000
  70
    32
  0
VERTEX
  8
0
  5
5B5
 10
60.7802
 20
98.7916
 30
0.000000
  70
    32
  0
VERTEX
  8
0
  5
5B6
 10
61.4094
 20
99.0835
 30
0.000000
  70
    32
  0
VERTEX
  8
0
  5
5B7
 10
62.0203
 20
99.4003
 30
0.000000
  70
    32
  0
VERTEX
  8
0
  5
5B8
 10
62.6115
 20
99.7412
 30
0.000000
  70
    32
  0
VERTEX
  8
0
  5
5B9
 10
63.1816
 20
100.106
 30
0.000000
  70
    32
  0
VERTEX
  8
0
  5
5BA
 10
63.7291
 20
100.492
 30
0.000000
  70
    32
  0
VERTEX
  8
0
  5
5BB
 10
64.2528
 20
100.901
 30
0.000000
  70
    32
  0
VERTEX
  8
0
  5
5BC
 10
64.7514
 20
101.330
 30
0.000000
  70
    32
  0
VERTEX
  8
0
  5
5BD
 10
65.2237
 20
101.778
 30
0.000000
  70
    32
  0
VERTEX
  8
0
  5
5BE
 10
65.6686
 20
102.245
 30
0.000000
  70
    32
  0
VERTEX
  8
0
  5
5BF
 10
66.0850
 20
102.729
 30
0.000000
  70
    32
  0
VERTEX
  8
0
  5
5C0
 10
66.4719
 20
103.229
 30
0.000000
  70
    32
  0
VERTEX
  8
0
  5
5C1
 10
66.8283
 20
103.744
 30
0.000000
  70
    32
  0
VERTEX
  8
0
  5
5C2
 10
67.1534
 20
104.273
 30
0.000000
  70
    32
  0
VERTEX
  8
0
  5
5C3
 10
67.4464
 20
104.815
 30
0.000000
  70
    32
  0
VERTEX
  8
0
  5
5C4
 10
67.7067
 20
105.367
 30
0.000000
  70
    32
  0
VERTEX
  8
0
  5
5C5
 10
67.9335
 20
105.930
 30
0.000000
  70
    32
  0
VERTEX
  8
0
  5
5C6
 10
68.1264
 20
106.500
 30
0.000000
  70
    32
  0
VERTEX
  8
0
  5
5C7
 10
68.2848
 20
107.078
 30
0.000000
  70
    32
  0
VERTEX
  8
0
  5
5C8
 10
68.4085
 20
107.662
 30
0.000000
  70
    32
  0
VERTEX
  8
0
  5
5C9
 10
68.4970
 20
108.249
 30
0.000000
  70
    32
  0
VERTEX
  8
0
  5
5CA
 10
68.5502
 20
108.840
 30
0.000000
  70
    32
  0
VERTEX
  8
0
  5
5CB
 10
68.5680
 20
109.432
 30
0.000000
  70
    32
  0
SEQEND
  8
0
  5
5CC
  0
POLYLINE
  5
38B
  8
0
 66
     1
 10
0.0
 20
0.0
 30
0.0
 70
     1
  0
VERTEX
  5
4BA
  8
0
 10
32.499526733157381
 20
169.05217261421089
 30
0.0
  0
VERTEX
  5
4BB
  8
0
 10
75.171526733157378
 20
169.05217261421089
 30
0.0
  0
VERTEX
  5
4BC
  8
0
 10
75.171526733157378
 20
188.86417261421079
 30
0.0
  0
VERTEX
  5
4BD
  8
0
 10
32.499526733157381
 20
188.86417261421079
 30
0.0
  0
SEQEND
  5
4BE
  8
0
  0
POLYLINE
  5
38C
  8
0
 66
     1
 10
0.0
 20
0.0
 30
0.0
 70
     1
  0
VERTEX
  5
4BF
  8
0
 10
32.499492981238319
 20
30.000000111023329
 30
0.0
  0
VERTEX
  5
4C0
  8
0
 10
75.171492981238316
 20
30.000000111023329
 30
0.0
  0
VERTEX
  5
4C1
  8
0
 10
75.171492981238316
 20
49.812000111023302
 30
0.0
  0
VERTEX
  5
4C2
  8
0
 10
32.499492981238319
 20
49.812000111023302
 30
0.0
  0
SEQEND
  5
4C3
  8
0
  0
ARC
  5
38D
  8
0
 10
123.3615664661249
 20
151.9565793427476
 30
0.0
 40
24.313837712816881
 50
258.85664574053033
 51
281.1433542594699
  0
ARC
  5
38E
  8
0
 10
123.36156646613991
 20
66.564509288146795
 30
0.0
 40
24.359393374104268
 50
83.413731267845279
 51
96.58626873215492
  0
ARC
  5
38F
  8
2
 10
123.3615664661106
 20
79.651314461511078
 30
0.0
 40
17.934793658012289
 50
81.037582387922157
 51
98.962417612077843
  0
ARC
  5
390
  8
2
 10
123.3615664661391
 20
138.70078155680619
 30
0.0
 40
17.833843339443838
 50
254.72288351512691
 51
285.2771164848732
  0
TEXT
  5
455
  8
0
 62
     3
 10
2.4994929812383191
 20
0.0000001110233256
 30
0.0
 40
10.0
  1
TPGBR-3
  7
STANDARD1
  0
ENDSEC
  0
EOF
