  0
SECTION
  2
HEADER
  9
$ACADVER
  1
AC1009
  9
$INSBASE
 10
0.0
 20
0.0
 30
0.0
  9
$EXTMIN
 10
2.4999998813611342
 20
-2.9604366134540379
 30
0.0
  9
$EXTMAX
 10
172.0859722005153
 20
241.17999994861961
 30
0.0
  9
$LIMMIN
 10
0.0
 20
0.0
  9
$LIMMAX
 10
750.0
 20
540.0
  9
$ORTHOMODE
 70
     1
  9
$REGENMODE
 70
     1
  9
$FILLMODE
 70
     1
  9
$QTEXTMODE
 70
     0
  9
$MIRRTEXT
 70
     0
  9
$DRAGMODE
 70
     2
  9
$LTSCALE
 40
10.0
  9
$OSMODE
 70
  3071
  9
$ATTMODE
 70
     1
  9
$TEXTSIZE
 40
0.2
  9
$TRACEWID
 40
0.05
  9
$TEXTSTYLE
  7
STANDARD
  9
$CLAYER
  8
0
  9
$CELTYPE
  6
BYLAYER
  9
$CECOLOR
 62
   256
  9
$DIMSCALE
 40
1.0
  9
$DIMASZ
 40
3.0
  9
$DIMEXO
 40
2.0
  9
$DIMDLI
 40
0.38
  9
$DIMRND
 40
0.0
  9
$DIMDLE
 40
0.0
  9
$DIMEXE
 40
2.0
  9
$DIMTP
 40
0.0
  9
$DIMTM
 40
0.0
  9
$DIMTXT
 40
3.2000000000000002
  9
$DIMCEN
 40
0.0
  9
$DIMTSZ
 40
0.0
  9
$DIMTOL
 70
     0
  9
$DIMLIM
 70
     0
  9
$DIMTIH
 70
     0
  9
$DIMTOH
 70
     0
  9
$DIMSE1
 70
     0
  9
$DIMSE2
 70
     0
  9
$DIMTAD
 70
     1
  9
$DIMZIN
 70
     0
  9
$DIMBLK
  1

  9
$DIMASO
 70
     0
  9
$DIMSHO
 70
     0
  9
$DIMPOST
  1

  9
$DIMAPOST
  1

  9
$DIMALT
 70
     0
  9
$DIMALTD
 70
     2
  9
$DIMALTF
 40
25.399999999999999
  9
$DIMLFAC
 40
1.0
  9
$DIMTOFL
 70
     0
  9
$DIMTVP
 40
1.6000000000000001
  9
$DIMTIX
 70
     1
  9
$DIMSOXD
 70
     0
  9
$DIMSAH
 70
     0
  9
$DIMBLK1
  1

  9
$DIMBLK2
  1

  9
$DIMSTYLE
  2
STANDARD
  9
$DIMCLRD
 70
     0
  9
$DIMCLRE
 70
     0
  9
$DIMCLRT
 70
     0
  9
$DIMTFAC
 40
1.0
  9
$DIMGAP
 40
0.09
  9
$LUNITS
 70
     2
  9
$LUPREC
 70
     4
  9
$SKETCHINC
 40
0.1
  9
$FILLETRAD
 40
0.0
  9
$AUNITS
 70
     0
  9
$AUPREC
 70
     4
  9
$MENU
  1
E:\r13\win\SUPPORT\ACAD
  9
$ELEVATION
 40
0.0
  9
$PELEVATION
 40
0.0
  9
$THICKNESS
 40
0.0
  9
$LIMCHECK
 70
     0
  9
$BLIPMODE
 70
     0
  9
$CHAMFERA
 40
0.0
  9
$CHAMFERB
 40
0.0
  9
$SKPOLY
 70
     0
  9
$TDCREATE
 40
2449840.6227546302
  9
$TDUPDATE
 40
2456602.610803681
  9
$TDINDWG
 40
0.0115561111
  9
$TDUSRTIMER
 40
2456598.3508156831
  9
$USRTIMER
 70
     1
  9
$ANGBASE
 50
0.0
  9
$ANGDIR
 70
     0
  9
$PDMODE
 70
     0
  9
$PDSIZE
 40
0.0
  9
$PLINEWID
 40
0.0
  9
$COORDS
 70
     1
  9
$SPLFRAME
 70
     0
  9
$SPLINETYPE
 70
     6
  9
$SPLINESEGS
 70
     8
  9
$ATTDIA
 70
     0
  9
$ATTREQ
 70
     1
  9
$HANDLING
 70
     1
  9
$HANDSEED
  5
5D9
  9
$SURFTAB1
 70
     6
  9
$SURFTAB2
 70
     6
  9
$SURFTYPE
 70
     6
  9
$SURFU
 70
     6
  9
$SURFV
 70
     6
  9
$UCSNAME
  2

  9
$UCSORG
 10
0.0
 20
0.0
 30
0.0
  9
$UCSXDIR
 10
1.0
 20
0.0
 30
0.0
  9
$UCSYDIR
 10
0.0
 20
1.0
 30
0.0
  9
$PUCSNAME
  2

  9
$PUCSORG
 10
0.0
 20
0.0
 30
0.0
  9
$PUCSXDIR
 10
1.0
 20
0.0
 30
0.0
  9
$PUCSYDIR
 10
0.0
 20
1.0
 30
0.0
  9
$USERI1
 70
     0
  9
$USERI2
 70
     1
  9
$USERI3
 70
     0
  9
$USERI4
 70
     0
  9
$USERI5
 70
     0
  9
$USERR1
 40
0.0
  9
$USERR2
 40
0.0
  9
$USERR3
 40
0.0
  9
$USERR4
 40
0.0
  9
$USERR5
 40
0.0
  9
$WORLDVIEW
 70
     1
  9
$SHADEDGE
 70
     3
  9
$SHADEDIF
 70
    70
  9
$TILEMODE
 70
     1
  9
$MAXACTVP
 70
    16
  9
$PLIMCHECK
 70
     0
  9
$PEXTMIN
 10
1.0000000000000000E+020
 20
1.0000000000000000E+020
 30
1.0000000000000000E+020
  9
$PEXTMAX
 10
-1.0000000000000000E+020
 20
-1.0000000000000000E+020
 30
-1.0000000000000000E+020
  9
$PLIMMIN
 10
0.0
 20
0.0
  9
$PLIMMAX
 10
12.0
 20
9.0
  9
$UNITMODE
 70
     0
  9
$VISRETAIN
 70
     0
  9
$PLINEGEN
 70
     0
  9
$PSLTSCALE
 70
     0
  0
ENDSEC
  0
SECTION
  2
TABLES
  0
TABLE
  2
VPORT
 70
     1
  0
VPORT
  2
*ACTIVE
 70
     0
 10
0.0
 20
0.0
 11
1.0
 21
1.0
 12
242.4829648685602
 22
108.4370486251152
 13
0.0
 23
0.0
 14
20.0
 24
20.0
 15
20.0
 25
20.0
 16
0.0
 26
0.0
 36
1.0
 17
0.0
 27
0.0
 37
0.0
 40
317.02925719585693
 41
1.831871345029239
 42
50.0
 43
0.0
 44
0.0
 50
0.0
 51
0.0
 71
    16
 72
   100
 73
     1
 74
     0
 75
     0
 76
     0
 77
     0
 78
     2
  0
ENDTAB
  0
TABLE
  2
LTYPE
 70
     7
  0
LTYPE
  2
CONTINUOUS
 70
     0
  3
Solid Line
 72
    65
 73
     0
 40
0.0
  0
LTYPE
  2
CENTER
 70
     0
  3
____ _ ____ _ ____ _ ____ _ ____ _ ____ _ ____
 72
    65
 73
     4
 40
2.0
 49
1.25
 49
-0.25
 49
0.25
 49
-0.25
  0
LTYPE
  2
HIDDEN
 70
     0
  3
_ _ _ _ _ _ _ _ _ _ _ _ _ _ _ _ _ _ _ _ _ _ _
 72
    65
 73
     2
 40
0.375
 49
0.25
 49
-0.125
  0
LTYPE
  2
PHANTOM2
 70
     0
  3
___ _ _ ___ _ _ ___ _ _ ___ _ _
 72
    65
 73
     6
 40
1.25
 49
0.625
 49
-0.125
 49
0.125
 49
-0.125
 49
0.125
 49
-0.125
  0
LTYPE
  2
CNS_SOLID
 70
     0
  3

 72
    65
 73
     0
 40
0.0
  0
LTYPE
  2
CNS_DASHED
 70
     0
  3

 72
    65
 73
     2
 40
2.0
 49
1.0
 49
-1.0
  0
LTYPE
  2
CNS_CENTER
 70
     0
  3

 72
    65
 73
     4
 40
2.0
 49
0.45
 49
-0.5
 49
0.05
 49
-0.5
  0
ENDTAB
  0
TABLE
  2
LAYER
 70
     4
  0
LAYER
  2
0
 70
     0
 62
     7
  6
CONTINUOUS
  0
LAYER
  2
1
 70
     0
 62
     1
  6
CENTER
  0
LAYER
  2
2
 70
     0
 62
     2
  6
HIDDEN
  0
LAYER
  2
3
 70
     0
 62
     3
  6
CONTINUOUS
  0
ENDTAB
  0
TABLE
  2
STYLE
 70
     2
  0
STYLE
  2
STANDARD
 70
     0
 40
0.0
 41
1.0
 50
0.0
 71
     0
 42
0.2
  3
TXT
  4
BIGFONT
  0
STYLE
  2
STANDARD1
 70
     0
 40
0.0
 41
1.0
 50
0.0
 71
     0
 42
3.0
  3
txt
  4

  0
ENDTAB
  0
TABLE
  2
VIEW
 70
     1
  0
VIEW
  2
ALL
 70
     0
 40
540.0
 10
441.98319299999991
 20
270.0
 41
0.0
 11
0.0
 21
0.0
 31
1.0
 12
0.0
 22
0.0
 32
0.0
 42
0.0
 43
0.0
 44
0.0
 50
0.0
 71
     0
  0
ENDTAB
  0
TABLE
  2
UCS
 70
     0
  0
ENDTAB
  0
TABLE
  2
APPID
 70
     6
  0
APPID
  2
ACAD
 70
     0
  0
APPID
  2
ACAD_NAV_VCDISPLAY
 70
     0
  0
APPID
  2
ACAD_EXEMPT_FROM_CAD_STANDARDS
 70
     0
  0
APPID
  2
ACAD_DSTYLE_DIMJAG
 70
     0
  0
APPID
  2
ACAD_DSTYLE_DIMTALN
 70
     0
  0
APPID
  2
ACAD_MLEADERVER
 70
     0
  0
ENDTAB
  0
TABLE
  2
DIMSTYLE
 70
     2
  0
DIMSTYLE
  2
STANDARD
 70
     0
  3

  4

  5

  6

  7

 40
1.0
 41
0.18
 42
0.0625
 43
0.38
 44
0.18
 45
0.0
 46
0.0
 47
0.0
 48
0.0
140
0.18
141
0.09
142
0.0
143
25.399999999999999
144
1.0
145
0.0
146
1.0
147
0.09
 71
     0
 72
     0
 73
     1
 74
     1
 75
     0
 76
     0
 77
     0
 78
     0
170
     0
171
     2
172
     0
173
     0
174
     0
175
     0
176
     0
177
     0
178
     0
  0
DIMSTYLE
  2
ISO-25
 70
     0
  3

  4

  5

  6

  7

 40
1.0
 41
2.5
 42
0.625
 43
3.75
 44
1.25
 45
0.0
 46
0.0
 47
0.0
 48
0.0
140
2.5
141
2.5
142
0.0
143
0.03937007874016
144
1.0
145
0.0
146
1.0
147
0.625
 71
     0
 72
     0
 73
     0
 74
     0
 75
     0
 76
     0
 77
     1
 78
     8
170
     0
171
     3
172
     1
173
     0
174
     0
175
     0
176
     0
177
     0
178
     0
  0
ENDTAB
  0
ENDSEC
  0
SECTION
  2
BLOCKS
  0
BLOCK
  8
0
  2
$MODEL_SPACE
 70
     0
 10
0.0
 20
0.0
 30
0.0
  3
$MODEL_SPACE
  1

  0
ENDBLK
  5
11D
  8
0
  0
BLOCK
 67
     1
  8
0
  2
$PAPER_SPACE
 70
     0
 10
0.0
 20
0.0
 30
0.0
  3
$PAPER_SPACE
  1

  0
ENDBLK
  5
11B
 67
     1
  8
0
  0
ENDSEC
  0
SECTION
  2
ENTITIES
  0
LINE
  5
379
  8
0
 10
150.84423447311531
 20
108.03099994861959
 30
0.0
 11
169.5859722005153
 21
108.03099994861959
 31
0.0
  0
LINE
  5
37A
  8
0
 10
126.40597220051529
 20
108.03099994861959
 30
0.0
 11
145.14770992791529
 21
108.03099994861959
 31
0.0
  0
LINE
  5
37B
  8
0
 10
143.24231579321531
 20
163.1489999486196
 30
0.0
 11
126.40597220051529
 21
163.1489999486196
 31
0.0
  0
LINE
  5
37C
  8
0
 10
169.5859722005153
 20
163.1489999486196
 30
0.0
 11
152.74962860781531
 21
163.1489999486196
 31
0.0
  0
LINE
  5
37D
  8
2
 10
150.85347220051531
 20
114.5079999486196
 30
0.0
 11
169.5859722005153
 21
114.5079999486196
 31
0.0
  0
LINE
  5
37E
  8
2
 10
126.40597220051529
 20
114.5079999486196
 30
0.0
 11
145.13847220051531
 21
114.5079999486196
 31
0.0
  0
LINE
  5
37F
  8
2
 10
143.23347220051531
 20
156.6719999486196
 30
0.0
 11
126.40597220051529
 21
156.6719999486196
 31
0.0
  0
LINE
  5
380
  8
2
 10
169.5859722005153
 20
156.6719999486196
 30
0.0
 11
152.75847220051531
 21
156.6719999486196
 31
0.0
  0
LINE
  5
381
  8
2
 10
152.75847220051531
 20
163.1489999486196
 30
0.0
 11
152.75847220051531
 21
156.6719999486196
 31
0.0
  0
LINE
  5
382
  8
2
 10
143.23347220051531
 20
156.6719999486196
 30
0.0
 11
143.23347220051531
 21
163.1489999486196
 31
0.0
  0
LINE
  5
383
  8
2
 10
145.13847220051531
 20
108.03099994861959
 30
0.0
 11
145.13847220051531
 21
114.5079999486196
 31
0.0
  0
LINE
  5
384
  8
2
 10
150.85347220051531
 20
114.5079999486196
 30
0.0
 11
150.85347220051531
 21
108.03099994861959
 31
0.0
  0
LINE
  5
385
  8
0
 10
126.40597220051529
 20
163.1489999486196
 30
0.0
 11
126.40597220051529
 21
108.03099994861959
 31
0.0
  0
LINE
  5
386
  8
0
 10
169.5859722005153
 20
163.1489999486196
 30
0.0
 11
169.5859722005153
 21
108.03099994861959
 31
0.0
  0
LINE
  5
387
  8
1
 10
56.733494004526023
 20
219.5899445869276
 30
0.0
 11
71.258499881361132
 21
219.58999994861949
 31
0.0
  0
LINE
  5
388
  8
1
 10
63.995958226609702
 20
165.64844558867441
 30
0.0
 11
63.996041536112557
 21
105.5315543085644
 31
0.0
  0
LINE
  5
389
  8
1
 10
29.999999881361141
 20
135.58999994861961
 30
0.0
 11
97.991999881361096
 21
135.58999994861961
 31
0.0
  0
LINE
  5
38A
  8
1
 10
58.638499881361128
 20
51.589999948619571
 30
0.0
 11
69.353293517939733
 21
51.589966729857402
 31
0.0
  0
LINE
  5
38B
  8
1
 10
123.90597220051529
 20
135.58999994861961
 30
0.0
 11
172.0859722005153
 21
135.58999994861961
 31
0.0
  0
LINE
  5
38C
  8
1
 10
147.9959722005153
 20
105.53099994861959
 30
0.0
 11
147.9959722005153
 21
165.6489999486196
 31
0.0
  0
LINE
  5
38D
  8
1
 10
63.995996942943577
 20
212.32756864423331
 30
0.0
 11
63.995996942943577
 21
226.852472962501
 31
0.0
  0
LINE
  5
38E
  8
1
 10
63.995896699650437
 20
46.232490836380691
 30
0.0
 11
63.995896699650437
 21
56.947526380544069
 31
0.0
  0
LINE
  5
38F
  8
2
 10
59.233499881580506
 20
162.83137123654319
 30
0.0
 11
59.233499881580506
 21
156.2861994778718
 31
0.0
  0
LINE
  5
390
  8
2
 10
68.758499881361132
 20
162.83137123651389
 30
0.0
 11
68.758499881361132
 21
156.28619947783611
 31
0.0
  0
LINE
  5
391
  8
2
 10
61.138499881361128
 20
108.1453528600766
 30
0.0
 11
61.138499881361128
 21
114.6465713641073
 31
0.0
  0
LINE
  5
392
  8
2
 10
66.853499881245284
 20
108.14535286006731
 30
0.0
 11
66.853499881245284
 21
114.6465713640961
 31
0.0
  0
POLYLINE
  5
393
  8
0
 66
     1
 10
0.0
 20
0.0
 30
0.0
 70
     1
  0
VERTEX
  5
4C6
  8
0
 10
32.499999881361141
 20
197.9999999486196
 30
0.0
  0
VERTEX
  5
4C7
  8
0
 10
95.491999881361124
 20
197.9999999486196
 30
0.0
  0
VERTEX
  5
4C8
  8
0
 10
95.491999881361124
 20
241.17999994861961
 30
0.0
  0
VERTEX
  5
4C9
  8
0
 10
32.499999881361141
 20
241.17999994861961
 30
0.0
  0
SEQEND
  5
4CA
  8
0
  0
CIRCLE
  5
394
  8
0
 10
63.995996942943577
 20
219.58997226777359
 30
0.0
 40
4.7625276511035963
  0
POLYLINE
  5
395
  8
0
 10
95.491999881361153
 20
135.58999994861961
 30
0.0
 66
     1
 70
     8
  0
VERTEX
  8
0
  5
4D5
 10
95.4920
 20
135.590
 30
0.000000
  70
    32
  0
VERTEX
  8
0
  5
4D6
 10
95.4541
 20
136.942
 30
0.000000
  70
    32
  0
VERTEX
  8
0
  5
4D7
 10
95.3403
 20
138.291
 30
0.000000
  70
    32
  0
VERTEX
  8
0
  5
4D8
 10
95.1511
 20
139.634
 30
0.000000
  70
    32
  0
VERTEX
  8
0
  5
4D9
 10
94.8868
 20
140.966
 30
0.000000
  70
    32
  0
VERTEX
  8
0
  5
4DA
 10
94.5481
 20
142.286
 30
0.000000
  70
    32
  0
VERTEX
  8
0
  5
4DB
 10
94.1358
 20
143.590
 30
0.000000
  70
    32
  0
VERTEX
  8
0
  5
4DC
 10
93.6509
 20
144.874
 30
0.000000
  70
    32
  0
VERTEX
  8
0
  5
4DD
 10
93.0945
 20
146.136
 30
0.000000
  70
    32
  0
VERTEX
  8
0
  5
4DE
 10
92.4680
 20
147.373
 30
0.000000
  70
    32
  0
VERTEX
  8
0
  5
4DF
 10
91.7730
 20
148.581
 30
0.000000
  70
    32
  0
VERTEX
  8
0
  5
4E0
 10
91.0110
 20
149.758
 30
0.000000
  70
    32
  0
VERTEX
  8
0
  5
4E1
 10
90.1840
 20
150.901
 30
0.000000
  70
    32
  0
VERTEX
  8
0
  5
4E2
 10
89.2938
 20
152.007
 30
0.000000
  70
    32
  0
VERTEX
  8
0
  5
4E3
 10
88.3427
 20
153.073
 30
0.000000
  70
    32
  0
VERTEX
  8
0
  5
4E4
 10
87.3330
 20
154.097
 30
0.000000
  70
    32
  0
VERTEX
  8
0
  5
4E5
 10
86.2670
 20
155.077
 30
0.000000
  70
    32
  0
VERTEX
  8
0
  5
4E6
 10
85.1474
 20
156.010
 30
0.000000
  70
    32
  0
VERTEX
  8
0
  5
4E7
 10
83.9769
 20
156.893
 30
0.000000
  70
    32
  0
VERTEX
  8
0
  5
4E8
 10
82.7581
 20
157.726
 30
0.000000
  70
    32
  0
VERTEX
  8
0
  5
4E9
 10
81.4942
 20
158.504
 30
0.000000
  70
    32
  0
VERTEX
  8
0
  5
4EA
 10
80.1882
 20
159.228
 30
0.000000
  70
    32
  0
VERTEX
  8
0
  5
4EB
 10
78.8431
 20
159.895
 30
0.000000
  70
    32
  0
VERTEX
  8
0
  5
4EC
 10
77.4623
 20
160.503
 30
0.000000
  70
    32
  0
VERTEX
  8
0
  5
4ED
 10
76.0490
 20
161.051
 30
0.000000
  70
    32
  0
VERTEX
  8
0
  5
4EE
 10
74.6067
 20
161.538
 30
0.000000
  70
    32
  0
VERTEX
  8
0
  5
4EF
 10
73.1388
 20
161.962
 30
0.000000
  70
    32
  0
VERTEX
  8
0
  5
4F0
 10
71.6489
 20
162.323
 30
0.000000
  70
    32
  0
VERTEX
  8
0
  5
4F1
 10
70.1406
 20
162.619
 30
0.000000
  70
    32
  0
VERTEX
  8
0
  5
4F2
 10
68.6174
 20
162.851
 30
0.000000
  70
    32
  0
VERTEX
  8
0
  5
4F3
 10
67.0831
 20
163.016
 30
0.000000
  70
    32
  0
VERTEX
  8
0
  5
4F4
 10
65.5414
 20
163.116
 30
0.000000
  70
    32
  0
VERTEX
  8
0
  5
4F5
 10
63.9960
 20
163.149
 30
0.000000
  70
    32
  0
VERTEX
  8
0
  5
4F6
 10
62.4506
 20
163.116
 30
0.000000
  70
    32
  0
VERTEX
  8
0
  5
4F7
 10
60.9089
 20
163.016
 30
0.000000
  70
    32
  0
VERTEX
  8
0
  5
4F8
 10
59.3746
 20
162.851
 30
0.000000
  70
    32
  0
VERTEX
  8
0
  5
4F9
 10
57.8514
 20
162.619
 30
0.000000
  70
    32
  0
VERTEX
  8
0
  5
4FA
 10
56.3431
 20
162.323
 30
0.000000
  70
    32
  0
VERTEX
  8
0
  5
4FB
 10
54.8532
 20
161.962
 30
0.000000
  70
    32
  0
VERTEX
  8
0
  5
4FC
 10
53.3853
 20
161.538
 30
0.000000
  70
    32
  0
VERTEX
  8
0
  5
4FD
 10
51.9430
 20
161.051
 30
0.000000
  70
    32
  0
VERTEX
  8
0
  5
4FE
 10
50.5297
 20
160.503
 30
0.000000
  70
    32
  0
VERTEX
  8
0
  5
4FF
 10
49.1489
 20
159.895
 30
0.000000
  70
    32
  0
VERTEX
  8
0
  5
500
 10
47.8038
 20
159.228
 30
0.000000
  70
    32
  0
VERTEX
  8
0
  5
501
 10
46.4978
 20
158.504
 30
0.000000
  70
    32
  0
VERTEX
  8
0
  5
502
 10
45.2339
 20
157.726
 30
0.000000
  70
    32
  0
VERTEX
  8
0
  5
503
 10
44.0151
 20
156.893
 30
0.000000
  70
    32
  0
VERTEX
  8
0
  5
504
 10
42.8446
 20
156.010
 30
0.000000
  70
    32
  0
VERTEX
  8
0
  5
505
 10
41.7250
 20
155.077
 30
0.000000
  70
    32
  0
VERTEX
  8
0
  5
506
 10
40.6590
 20
154.097
 30
0.000000
  70
    32
  0
VERTEX
  8
0
  5
507
 10
39.6493
 20
153.073
 30
0.000000
  70
    32
  0
VERTEX
  8
0
  5
508
 10
38.6982
 20
152.007
 30
0.000000
  70
    32
  0
VERTEX
  8
0
  5
509
 10
37.8080
 20
150.901
 30
0.000000
  70
    32
  0
VERTEX
  8
0
  5
50A
 10
36.9810
 20
149.758
 30
0.000000
  70
    32
  0
VERTEX
  8
0
  5
50B
 10
36.2190
 20
148.581
 30
0.000000
  70
    32
  0
VERTEX
  8
0
  5
50C
 10
35.5240
 20
147.373
 30
0.000000
  70
    32
  0
VERTEX
  8
0
  5
50D
 10
34.8975
 20
146.136
 30
0.000000
  70
    32
  0
VERTEX
  8
0
  5
50E
 10
34.3411
 20
144.874
 30
0.000000
  70
    32
  0
VERTEX
  8
0
  5
50F
 10
33.8562
 20
143.590
 30
0.000000
  70
    32
  0
VERTEX
  8
0
  5
510
 10
33.4439
 20
142.286
 30
0.000000
  70
    32
  0
VERTEX
  8
0
  5
511
 10
33.1052
 20
140.966
 30
0.000000
  70
    32
  0
VERTEX
  8
0
  5
512
 10
32.8409
 20
139.634
 30
0.000000
  70
    32
  0
VERTEX
  8
0
  5
513
 10
32.6517
 20
138.291
 30
0.000000
  70
    32
  0
VERTEX
  8
0
  5
514
 10
32.5379
 20
136.942
 30
0.000000
  70
    32
  0
VERTEX
  8
0
  5
515
 10
32.5000
 20
135.590
 30
0.000000
  70
    32
  0
VERTEX
  8
0
  5
516
 10
32.5379
 20
134.238
 30
0.000000
  70
    32
  0
VERTEX
  8
0
  5
517
 10
32.6517
 20
132.889
 30
0.000000
  70
    32
  0
VERTEX
  8
0
  5
518
 10
32.8409
 20
131.546
 30
0.000000
  70
    32
  0
VERTEX
  8
0
  5
519
 10
33.1052
 20
130.214
 30
0.000000
  70
    32
  0
VERTEX
  8
0
  5
51A
 10
33.4439
 20
128.894
 30
0.000000
  70
    32
  0
VERTEX
  8
0
  5
51B
 10
33.8562
 20
127.590
 30
0.000000
  70
    32
  0
VERTEX
  8
0
  5
51C
 10
34.3411
 20
126.306
 30
0.000000
  70
    32
  0
VERTEX
  8
0
  5
51D
 10
34.8975
 20
125.044
 30
0.000000
  70
    32
  0
VERTEX
  8
0
  5
51E
 10
35.5240
 20
123.807
 30
0.000000
  70
    32
  0
VERTEX
  8
0
  5
51F
 10
36.2190
 20
122.599
 30
0.000000
  70
    32
  0
VERTEX
  8
0
  5
520
 10
36.9810
 20
121.422
 30
0.000000
  70
    32
  0
VERTEX
  8
0
  5
521
 10
37.8080
 20
120.279
 30
0.000000
  70
    32
  0
VERTEX
  8
0
  5
522
 10
38.6982
 20
119.173
 30
0.000000
  70
    32
  0
VERTEX
  8
0
  5
523
 10
39.6493
 20
118.107
 30
0.000000
  70
    32
  0
VERTEX
  8
0
  5
524
 10
40.6590
 20
117.083
 30
0.000000
  70
    32
  0
VERTEX
  8
0
  5
525
 10
41.7250
 20
116.103
 30
0.000000
  70
    32
  0
VERTEX
  8
0
  5
526
 10
42.8446
 20
115.170
 30
0.000000
  70
    32
  0
VERTEX
  8
0
  5
527
 10
44.0151
 20
114.287
 30
0.000000
  70
    32
  0
VERTEX
  8
0
  5
528
 10
45.2339
 20
113.454
 30
0.000000
  70
    32
  0
VERTEX
  8
0
  5
529
 10
46.4978
 20
112.676
 30
0.000000
  70
    32
  0
VERTEX
  8
0
  5
52A
 10
47.8038
 20
111.952
 30
0.000000
  70
    32
  0
VERTEX
  8
0
  5
52B
 10
49.1489
 20
111.285
 30
0.000000
  70
    32
  0
VERTEX
  8
0
  5
52C
 10
50.5297
 20
110.677
 30
0.000000
  70
    32
  0
VERTEX
  8
0
  5
52D
 10
51.9430
 20
110.129
 30
0.000000
  70
    32
  0
VERTEX
  8
0
  5
52E
 10
53.3853
 20
109.642
 30
0.000000
  70
    32
  0
VERTEX
  8
0
  5
52F
 10
54.8532
 20
109.218
 30
0.000000
  70
    32
  0
VERTEX
  8
0
  5
530
 10
56.3431
 20
108.857
 30
0.000000
  70
    32
  0
VERTEX
  8
0
  5
531
 10
57.8514
 20
108.561
 30
0.000000
  70
    32
  0
VERTEX
  8
0
  5
532
 10
59.3746
 20
108.329
 30
0.000000
  70
    32
  0
VERTEX
  8
0
  5
533
 10
60.9089
 20
108.164
 30
0.000000
  70
    32
  0
VERTEX
  8
0
  5
534
 10
62.4506
 20
108.064
 30
0.000000
  70
    32
  0
VERTEX
  8
0
  5
535
 10
63.9960
 20
108.031
 30
0.000000
  70
    32
  0
VERTEX
  8
0
  5
536
 10
65.5414
 20
108.064
 30
0.000000
  70
    32
  0
VERTEX
  8
0
  5
537
 10
67.0831
 20
108.164
 30
0.000000
  70
    32
  0
VERTEX
  8
0
  5
538
 10
68.6174
 20
108.329
 30
0.000000
  70
    32
  0
VERTEX
  8
0
  5
539
 10
70.1406
 20
108.561
 30
0.000000
  70
    32
  0
VERTEX
  8
0
  5
53A
 10
71.6489
 20
108.857
 30
0.000000
  70
    32
  0
VERTEX
  8
0
  5
53B
 10
73.1388
 20
109.218
 30
0.000000
  70
    32
  0
VERTEX
  8
0
  5
53C
 10
74.6067
 20
109.642
 30
0.000000
  70
    32
  0
VERTEX
  8
0
  5
53D
 10
76.0490
 20
110.129
 30
0.000000
  70
    32
  0
VERTEX
  8
0
  5
53E
 10
77.4623
 20
110.677
 30
0.000000
  70
    32
  0
VERTEX
  8
0
  5
53F
 10
78.8431
 20
111.285
 30
0.000000
  70
    32
  0
VERTEX
  8
0
  5
540
 10
80.1882
 20
111.952
 30
0.000000
  70
    32
  0
VERTEX
  8
0
  5
541
 10
81.4942
 20
112.676
 30
0.000000
  70
    32
  0
VERTEX
  8
0
  5
542
 10
82.7581
 20
113.454
 30
0.000000
  70
    32
  0
VERTEX
  8
0
  5
543
 10
83.9769
 20
114.287
 30
0.000000
  70
    32
  0
VERTEX
  8
0
  5
544
 10
85.1474
 20
115.170
 30
0.000000
  70
    32
  0
VERTEX
  8
0
  5
545
 10
86.2670
 20
116.103
 30
0.000000
  70
    32
  0
VERTEX
  8
0
  5
546
 10
87.3330
 20
117.083
 30
0.000000
  70
    32
  0
VERTEX
  8
0
  5
547
 10
88.3427
 20
118.107
 30
0.000000
  70
    32
  0
VERTEX
  8
0
  5
548
 10
89.2938
 20
119.173
 30
0.000000
  70
    32
  0
VERTEX
  8
0
  5
549
 10
90.1840
 20
120.279
 30
0.000000
  70
    32
  0
VERTEX
  8
0
  5
54A
 10
91.0110
 20
121.422
 30
0.000000
  70
    32
  0
VERTEX
  8
0
  5
54B
 10
91.7730
 20
122.599
 30
0.000000
  70
    32
  0
VERTEX
  8
0
  5
54C
 10
92.4680
 20
123.807
 30
0.000000
  70
    32
  0
VERTEX
  8
0
  5
54D
 10
93.0945
 20
125.044
 30
0.000000
  70
    32
  0
VERTEX
  8
0
  5
54E
 10
93.6509
 20
126.306
 30
0.000000
  70
    32
  0
VERTEX
  8
0
  5
54F
 10
94.1358
 20
127.590
 30
0.000000
  70
    32
  0
VERTEX
  8
0
  5
550
 10
94.5481
 20
128.894
 30
0.000000
  70
    32
  0
VERTEX
  8
0
  5
551
 10
94.8868
 20
130.214
 30
0.000000
  70
    32
  0
VERTEX
  8
0
  5
552
 10
95.1511
 20
131.546
 30
0.000000
  70
    32
  0
VERTEX
  8
0
  5
553
 10
95.3403
 20
132.889
 30
0.000000
  70
    32
  0
VERTEX
  8
0
  5
554
 10
95.4541
 20
134.238
 30
0.000000
  70
    32
  0
VERTEX
  8
0
  5
555
 10
95.4920
 20
135.590
 30
0.000000
  70
    32
  0
SEQEND
  8
0
  5
556
  0
POLYLINE
  5
396
  8
0
 10
89.014999881361121
 20
135.58999994861961
 30
0.0
 66
     1
 70
     8
  0
VERTEX
  8
0
  5
557
 10
89.0150
 20
135.590
 30
0.000000
  70
    32
  0
VERTEX
  8
0
  5
558
 10
88.9849
 20
136.624
 30
0.000000
  70
    32
  0
VERTEX
  8
0
  5
559
 10
88.8945
 20
137.656
 30
0.000000
  70
    32
  0
VERTEX
  8
0
  5
55A
 10
88.7442
 20
138.683
 30
0.000000
  70
    32
  0
VERTEX
  8
0
  5
55B
 10
88.5343
 20
139.703
 30
0.000000
  70
    32
  0
VERTEX
  8
0
  5
55C
 10
88.2652
 20
140.713
 30
0.000000
  70
    32
  0
VERTEX
  8
0
  5
55D
 10
87.9377
 20
141.710
 30
0.000000
  70
    32
  0
VERTEX
  8
0
  5
55E
 10
87.5525
 20
142.692
 30
0.000000
  70
    32
  0
VERTEX
  8
0
  5
55F
 10
87.1105
 20
143.658
 30
0.000000
  70
    32
  0
VERTEX
  8
0
  5
560
 10
86.6129
 20
144.604
 30
0.000000
  70
    32
  0
VERTEX
  8
0
  5
561
 10
86.0608
 20
145.528
 30
0.000000
  70
    32
  0
VERTEX
  8
0
  5
562
 10
85.4555
 20
146.428
 30
0.000000
  70
    32
  0
VERTEX
  8
0
  5
563
 10
84.7985
 20
147.303
 30
0.000000
  70
    32
  0
VERTEX
  8
0
  5
564
 10
84.0914
 20
148.149
 30
0.000000
  70
    32
  0
VERTEX
  8
0
  5
565
 10
83.3359
 20
148.964
 30
0.000000
  70
    32
  0
VERTEX
  8
0
  5
566
 10
82.5339
 20
149.748
 30
0.000000
  70
    32
  0
VERTEX
  8
0
  5
567
 10
81.6871
 20
150.497
 30
0.000000
  70
    32
  0
VERTEX
  8
0
  5
568
 10
80.7977
 20
151.211
 30
0.000000
  70
    32
  0
VERTEX
  8
0
  5
569
 10
79.8679
 20
151.887
 30
0.000000
  70
    32
  0
VERTEX
  8
0
  5
56A
 10
78.8998
 20
152.523
 30
0.000000
  70
    32
  0
VERTEX
  8
0
  5
56B
 10
77.8958
 20
153.119
 30
0.000000
  70
    32
  0
VERTEX
  8
0
  5
56C
 10
76.8583
 20
153.673
 30
0.000000
  70
    32
  0
VERTEX
  8
0
  5
56D
 10
75.7899
 20
154.183
 30
0.000000
  70
    32
  0
VERTEX
  8
0
  5
56E
 10
74.6930
 20
154.648
 30
0.000000
  70
    32
  0
VERTEX
  8
0
  5
56F
 10
73.5704
 20
155.067
 30
0.000000
  70
    32
  0
VERTEX
  8
0
  5
570
 10
72.4246
 20
155.440
 30
0.000000
  70
    32
  0
VERTEX
  8
0
  5
571
 10
71.2586
 20
155.764
 30
0.000000
  70
    32
  0
VERTEX
  8
0
  5
572
 10
70.0751
 20
156.040
 30
0.000000
  70
    32
  0
VERTEX
  8
0
  5
573
 10
68.8770
 20
156.267
 30
0.000000
  70
    32
  0
VERTEX
  8
0
  5
574
 10
67.6670
 20
156.444
 30
0.000000
  70
    32
  0
VERTEX
  8
0
  5
575
 10
66.4483
 20
156.570
 30
0.000000
  70
    32
  0
VERTEX
  8
0
  5
576
 10
65.2236
 20
156.647
 30
0.000000
  70
    32
  0
VERTEX
  8
0
  5
577
 10
63.9960
 20
156.672
 30
0.000000
  70
    32
  0
VERTEX
  8
0
  5
578
 10
62.7684
 20
156.647
 30
0.000000
  70
    32
  0
VERTEX
  8
0
  5
579
 10
61.5437
 20
156.570
 30
0.000000
  70
    32
  0
VERTEX
  8
0
  5
57A
 10
60.3250
 20
156.444
 30
0.000000
  70
    32
  0
VERTEX
  8
0
  5
57B
 10
59.1150
 20
156.267
 30
0.000000
  70
    32
  0
VERTEX
  8
0
  5
57C
 10
57.9169
 20
156.040
 30
0.000000
  70
    32
  0
VERTEX
  8
0
  5
57D
 10
56.7334
 20
155.764
 30
0.000000
  70
    32
  0
VERTEX
  8
0
  5
57E
 10
55.5674
 20
155.440
 30
0.000000
  70
    32
  0
VERTEX
  8
0
  5
57F
 10
54.4216
 20
155.067
 30
0.000000
  70
    32
  0
VERTEX
  8
0
  5
580
 10
53.2990
 20
154.648
 30
0.000000
  70
    32
  0
VERTEX
  8
0
  5
581
 10
52.2021
 20
154.183
 30
0.000000
  70
    32
  0
VERTEX
  8
0
  5
582
 10
51.1337
 20
153.673
 30
0.000000
  70
    32
  0
VERTEX
  8
0
  5
583
 10
50.0962
 20
153.119
 30
0.000000
  70
    32
  0
VERTEX
  8
0
  5
584
 10
49.0922
 20
152.523
 30
0.000000
  70
    32
  0
VERTEX
  8
0
  5
585
 10
48.1241
 20
151.887
 30
0.000000
  70
    32
  0
VERTEX
  8
0
  5
586
 10
47.1943
 20
151.211
 30
0.000000
  70
    32
  0
VERTEX
  8
0
  5
587
 10
46.3049
 20
150.497
 30
0.000000
  70
    32
  0
VERTEX
  8
0
  5
588
 10
45.4581
 20
149.748
 30
0.000000
  70
    32
  0
VERTEX
  8
0
  5
589
 10
44.6561
 20
148.964
 30
0.000000
  70
    32
  0
VERTEX
  8
0
  5
58A
 10
43.9006
 20
148.149
 30
0.000000
  70
    32
  0
VERTEX
  8
0
  5
58B
 10
43.1935
 20
147.303
 30
0.000000
  70
    32
  0
VERTEX
  8
0
  5
58C
 10
42.5365
 20
146.428
 30
0.000000
  70
    32
  0
VERTEX
  8
0
  5
58D
 10
41.9312
 20
145.528
 30
0.000000
  70
    32
  0
VERTEX
  8
0
  5
58E
 10
41.3791
 20
144.604
 30
0.000000
  70
    32
  0
VERTEX
  8
0
  5
58F
 10
40.8815
 20
143.658
 30
0.000000
  70
    32
  0
VERTEX
  8
0
  5
590
 10
40.4395
 20
142.692
 30
0.000000
  70
    32
  0
VERTEX
  8
0
  5
591
 10
40.0543
 20
141.710
 30
0.000000
  70
    32
  0
VERTEX
  8
0
  5
592
 10
39.7268
 20
140.713
 30
0.000000
  70
    32
  0
VERTEX
  8
0
  5
593
 10
39.4577
 20
139.703
 30
0.000000
  70
    32
  0
VERTEX
  8
0
  5
594
 10
39.2478
 20
138.683
 30
0.000000
  70
    32
  0
VERTEX
  8
0
  5
595
 10
39.0975
 20
137.656
 30
0.000000
  70
    32
  0
VERTEX
  8
0
  5
596
 10
39.0071
 20
136.624
 30
0.000000
  70
    32
  0
VERTEX
  8
0
  5
597
 10
38.9770
 20
135.590
 30
0.000000
  70
    32
  0
VERTEX
  8
0
  5
598
 10
39.0071
 20
134.556
 30
0.000000
  70
    32
  0
VERTEX
  8
0
  5
599
 10
39.0975
 20
133.524
 30
0.000000
  70
    32
  0
VERTEX
  8
0
  5
59A
 10
39.2478
 20
132.497
 30
0.000000
  70
    32
  0
VERTEX
  8
0
  5
59B
 10
39.4577
 20
131.477
 30
0.000000
  70
    32
  0
VERTEX
  8
0
  5
59C
 10
39.7268
 20
130.467
 30
0.000000
  70
    32
  0
VERTEX
  8
0
  5
59D
 10
40.0543
 20
129.470
 30
0.000000
  70
    32
  0
VERTEX
  8
0
  5
59E
 10
40.4395
 20
128.488
 30
0.000000
  70
    32
  0
VERTEX
  8
0
  5
59F
 10
40.8815
 20
127.522
 30
0.000000
  70
    32
  0
VERTEX
  8
0
  5
5A0
 10
41.3791
 20
126.576
 30
0.000000
  70
    32
  0
VERTEX
  8
0
  5
5A1
 10
41.9312
 20
125.652
 30
0.000000
  70
    32
  0
VERTEX
  8
0
  5
5A2
 10
42.5365
 20
124.752
 30
0.000000
  70
    32
  0
VERTEX
  8
0
  5
5A3
 10
43.1935
 20
123.877
 30
0.000000
  70
    32
  0
VERTEX
  8
0
  5
5A4
 10
43.9006
 20
123.031
 30
0.000000
  70
    32
  0
VERTEX
  8
0
  5
5A5
 10
44.6561
 20
122.216
 30
0.000000
  70
    32
  0
VERTEX
  8
0
  5
5A6
 10
45.4581
 20
121.432
 30
0.000000
  70
    32
  0
VERTEX
  8
0
  5
5A7
 10
46.3049
 20
120.683
 30
0.000000
  70
    32
  0
VERTEX
  8
0
  5
5A8
 10
47.1943
 20
119.969
 30
0.000000
  70
    32
  0
VERTEX
  8
0
  5
5A9
 10
48.1241
 20
119.293
 30
0.000000
  70
    32
  0
VERTEX
  8
0
  5
5AA
 10
49.0922
 20
118.657
 30
0.000000
  70
    32
  0
VERTEX
  8
0
  5
5AB
 10
50.0962
 20
118.061
 30
0.000000
  70
    32
  0
VERTEX
  8
0
  5
5AC
 10
51.1337
 20
117.507
 30
0.000000
  70
    32
  0
VERTEX
  8
0
  5
5AD
 10
52.2021
 20
116.997
 30
0.000000
  70
    32
  0
VERTEX
  8
0
  5
5AE
 10
53.2990
 20
116.532
 30
0.000000
  70
    32
  0
VERTEX
  8
0
  5
5AF
 10
54.4216
 20
116.113
 30
0.000000
  70
    32
  0
VERTEX
  8
0
  5
5B0
 10
55.5674
 20
115.740
 30
0.000000
  70
    32
  0
VERTEX
  8
0
  5
5B1
 10
56.7334
 20
115.416
 30
0.000000
  70
    32
  0
VERTEX
  8
0
  5
5B2
 10
57.9169
 20
115.140
 30
0.000000
  70
    32
  0
VERTEX
  8
0
  5
5B3
 10
59.1150
 20
114.913
 30
0.000000
  70
    32
  0
VERTEX
  8
0
  5
5B4
 10
60.3250
 20
114.736
 30
0.000000
  70
    32
  0
VERTEX
  8
0
  5
5B5
 10
61.5437
 20
114.610
 30
0.000000
  70
    32
  0
VERTEX
  8
0
  5
5B6
 10
62.7684
 20
114.533
 30
0.000000
  70
    32
  0
VERTEX
  8
0
  5
5B7
 10
63.9960
 20
114.508
 30
0.000000
  70
    32
  0
VERTEX
  8
0
  5
5B8
 10
65.2236
 20
114.533
 30
0.000000
  70
    32
  0
VERTEX
  8
0
  5
5B9
 10
66.4483
 20
114.610
 30
0.000000
  70
    32
  0
VERTEX
  8
0
  5
5BA
 10
67.6670
 20
114.736
 30
0.000000
  70
    32
  0
VERTEX
  8
0
  5
5BB
 10
68.8770
 20
114.913
 30
0.000000
  70
    32
  0
VERTEX
  8
0
  5
5BC
 10
70.0751
 20
115.140
 30
0.000000
  70
    32
  0
VERTEX
  8
0
  5
5BD
 10
71.2586
 20
115.416
 30
0.000000
  70
    32
  0
VERTEX
  8
0
  5
5BE
 10
72.4246
 20
115.740
 30
0.000000
  70
    32
  0
VERTEX
  8
0
  5
5BF
 10
73.5704
 20
116.113
 30
0.000000
  70
    32
  0
VERTEX
  8
0
  5
5C0
 10
74.6930
 20
116.532
 30
0.000000
  70
    32
  0
VERTEX
  8
0
  5
5C1
 10
75.7899
 20
116.997
 30
0.000000
  70
    32
  0
VERTEX
  8
0
  5
5C2
 10
76.8583
 20
117.507
 30
0.000000
  70
    32
  0
VERTEX
  8
0
  5
5C3
 10
77.8958
 20
118.061
 30
0.000000
  70
    32
  0
VERTEX
  8
0
  5
5C4
 10
78.8998
 20
118.657
 30
0.000000
  70
    32
  0
VERTEX
  8
0
  5
5C5
 10
79.8679
 20
119.293
 30
0.000000
  70
    32
  0
VERTEX
  8
0
  5
5C6
 10
80.7977
 20
119.969
 30
0.000000
  70
    32
  0
VERTEX
  8
0
  5
5C7
 10
81.6871
 20
120.683
 30
0.000000
  70
    32
  0
VERTEX
  8
0
  5
5C8
 10
82.5339
 20
121.432
 30
0.000000
  70
    32
  0
VERTEX
  8
0
  5
5C9
 10
83.3359
 20
122.216
 30
0.000000
  70
    32
  0
VERTEX
  8
0
  5
5CA
 10
84.0914
 20
123.031
 30
0.000000
  70
    32
  0
VERTEX
  8
0
  5
5CB
 10
84.7985
 20
123.877
 30
0.000000
  70
    32
  0
VERTEX
  8
0
  5
5CC
 10
85.4555
 20
124.752
 30
0.000000
  70
    32
  0
VERTEX
  8
0
  5
5CD
 10
86.0608
 20
125.652
 30
0.000000
  70
    32
  0
VERTEX
  8
0
  5
5CE
 10
86.6129
 20
126.576
 30
0.000000
  70
    32
  0
VERTEX
  8
0
  5
5CF
 10
87.1105
 20
127.522
 30
0.000000
  70
    32
  0
VERTEX
  8
0
  5
5D0
 10
87.5525
 20
128.488
 30
0.000000
  70
    32
  0
VERTEX
  8
0
  5
5D1
 10
87.9377
 20
129.470
 30
0.000000
  70
    32
  0
VERTEX
  8
0
  5
5D2
 10
88.2652
 20
130.467
 30
0.000000
  70
    32
  0
VERTEX
  8
0
  5
5D3
 10
88.5343
 20
131.477
 30
0.000000
  70
    32
  0
VERTEX
  8
0
  5
5D4
 10
88.7442
 20
132.497
 30
0.000000
  70
    32
  0
VERTEX
  8
0
  5
5D5
 10
88.8945
 20
133.524
 30
0.000000
  70
    32
  0
VERTEX
  8
0
  5
5D6
 10
88.9849
 20
134.556
 30
0.000000
  70
    32
  0
VERTEX
  8
0
  5
5D7
 10
89.0150
 20
135.590
 30
0.000000
  70
    32
  0
SEQEND
  8
0
  5
5D8
  0
POLYLINE
  5
397
  8
0
 66
     1
 10
0.0
 20
0.0
 30
0.0
 70
     1
  0
VERTEX
  5
4CB
  8
0
 10
32.499999881361141
 20
29.999999948619632
 30
0.0
  0
VERTEX
  5
4CC
  8
0
 10
95.491999881361124
 20
29.999999948619632
 30
0.0
  0
VERTEX
  5
4CD
  8
0
 10
95.491999881361124
 20
73.179999948619624
 30
0.0
  0
VERTEX
  5
4CE
  8
0
 10
32.499999881361141
 20
73.179999948619624
 30
0.0
  0
SEQEND
  5
4CF
  8
0
  0
CIRCLE
  5
398
  8
0
 10
63.995896699650437
 20
51.589983339238479
 30
0.0
 40
2.8575165895931458
  0
ARC
  5
399
  8
0
 10
147.9959722005153
 20
198.6462554660493
 30
0.0
 40
35.814136852761813
 50
262.37254851559999
 51
277.62745148440001
  0
ARC
  5
39A
  8
2
 10
147.99597220061739
 20
185.89903559638549
 30
0.0
 40
29.612514567438382
 50
260.74508257662859
 51
279.25491742297129
  0
ARC
  5
39B
  8
2
 10
147.99597220034329
 20
84.982900049976038
 30
0.0
 40
29.663054972033841
 50
84.472013296328555
 51
95.527986703003137
  0
ARC
  5
39C
  8
0
 10
147.99135333681551
 20
72.282749557164266
 30
0.0
 40
35.861906486243122
 50
85.437193257564388
 51
94.562806742436379
  0
TEXT
  5
461
  8
0
 62
     3
 10
2.4999998813611342
 20
-0.0000000513803684
 30
0.0
 40
10.0
  1
TPGBR-5
  7
STANDARD1
  0
ENDSEC
  0
EOF
