  0
SECTION
  2
HEADER
  9
$ACADVER
  1
AC1009
  9
$INSBASE
 10
0.0
 20
0.0
 30
0.0
  9
$EXTMIN
 10
0.0
 20
-2.960436562073669
 30
0.0
  9
$EXTMAX
 10
255.62200000000001
 20
300.87600000000009
 30
0.0
  9
$LIMMIN
 10
0.0
 20
0.0
  9
$LIMMAX
 10
750.0
 20
540.0
  9
$ORTHOMODE
 70
     1
  9
$REGENMODE
 70
     1
  9
$FILLMODE
 70
     1
  9
$QTEXTMODE
 70
     0
  9
$MIRRTEXT
 70
     0
  9
$DRAGMODE
 70
     2
  9
$LTSCALE
 40
10.0
  9
$OSMODE
 70
    37
  9
$ATTMODE
 70
     1
  9
$TEXTSIZE
 40
0.2
  9
$TRACEWID
 40
0.05
  9
$TEXTSTYLE
  7
STANDARD
  9
$CLAYER
  8
0
  9
$CELTYPE
  6
BYLAYER
  9
$CECOLOR
 62
   256
  9
$DIMSCALE
 40
1.0
  9
$DIMASZ
 40
3.0
  9
$DIMEXO
 40
2.0
  9
$DIMDLI
 40
0.38
  9
$DIMRND
 40
0.0
  9
$DIMDLE
 40
0.0
  9
$DIMEXE
 40
2.0
  9
$DIMTP
 40
0.0
  9
$DIMTM
 40
0.0
  9
$DIMTXT
 40
3.2000000000000002
  9
$DIMCEN
 40
0.0
  9
$DIMTSZ
 40
0.0
  9
$DIMTOL
 70
     0
  9
$DIMLIM
 70
     0
  9
$DIMTIH
 70
     0
  9
$DIMTOH
 70
     0
  9
$DIMSE1
 70
     0
  9
$DIMSE2
 70
     0
  9
$DIMTAD
 70
     1
  9
$DIMZIN
 70
     8
  9
$DIMBLK
  1

  9
$DIMASO
 70
     0
  9
$DIMSHO
 70
     0
  9
$DIMPOST
  1

  9
$DIMAPOST
  1

  9
$DIMALT
 70
     0
  9
$DIMALTD
 70
     2
  9
$DIMALTF
 40
25.399999999999999
  9
$DIMLFAC
 40
1.0
  9
$DIMTOFL
 70
     0
  9
$DIMTVP
 40
1.6000000000000001
  9
$DIMTIX
 70
     1
  9
$DIMSOXD
 70
     0
  9
$DIMSAH
 70
     0
  9
$DIMBLK1
  1

  9
$DIMBLK2
  1

  9
$DIMSTYLE
  2
STANDARD
  9
$DIMCLRD
 70
     0
  9
$DIMCLRE
 70
     0
  9
$DIMCLRT
 70
     0
  9
$DIMTFAC
 40
1.0
  9
$DIMGAP
 40
0.09
  9
$LUNITS
 70
     2
  9
$LUPREC
 70
     1
  9
$SKETCHINC
 40
0.1
  9
$FILLETRAD
 40
0.0
  9
$AUNITS
 70
     0
  9
$AUPREC
 70
     1
  9
$MENU
  1
E:\r13\win\SUPPORT\ACAD
  9
$ELEVATION
 40
0.0
  9
$PELEVATION
 40
0.0
  9
$THICKNESS
 40
0.0
  9
$LIMCHECK
 70
     0
  9
$BLIPMODE
 70
     0
  9
$CHAMFERA
 40
0.0
  9
$CHAMFERB
 40
0.0
  9
$SKPOLY
 70
     0
  9
$TDCREATE
 40
2449840.6227546302
  9
$TDUPDATE
 40
2459439.725625278
  9
$TDINDWG
 40
0.1128256944
  9
$TDUSRTIMER
 40
2456598.4490888552
  9
$USRTIMER
 70
     1
  9
$ANGBASE
 50
0.0
  9
$ANGDIR
 70
     0
  9
$PDMODE
 70
     0
  9
$PDSIZE
 40
0.0
  9
$PLINEWID
 40
0.0
  9
$COORDS
 70
     1
  9
$SPLFRAME
 70
     0
  9
$SPLINETYPE
 70
     6
  9
$SPLINESEGS
 70
     8
  9
$ATTDIA
 70
     0
  9
$ATTREQ
 70
     1
  9
$HANDLING
 70
     1
  9
$HANDSEED
  5
10A8
  9
$SURFTAB1
 70
     6
  9
$SURFTAB2
 70
     6
  9
$SURFTYPE
 70
     6
  9
$SURFU
 70
     6
  9
$SURFV
 70
     6
  9
$UCSNAME
  2

  9
$UCSORG
 10
0.0
 20
0.0
 30
0.0
  9
$UCSXDIR
 10
1.0
 20
0.0
 30
0.0
  9
$UCSYDIR
 10
0.0
 20
1.0
 30
0.0
  9
$PUCSNAME
  2

  9
$PUCSORG
 10
0.0
 20
0.0
 30
0.0
  9
$PUCSXDIR
 10
1.0
 20
0.0
 30
0.0
  9
$PUCSYDIR
 10
0.0
 20
1.0
 30
0.0
  9
$USERI1
 70
     0
  9
$USERI2
 70
     1
  9
$USERI3
 70
     0
  9
$USERI4
 70
     0
  9
$USERI5
 70
     0
  9
$USERR1
 40
0.0
  9
$USERR2
 40
0.0
  9
$USERR3
 40
0.0
  9
$USERR4
 40
0.0
  9
$USERR5
 40
0.0
  9
$WORLDVIEW
 70
     1
  9
$SHADEDGE
 70
     3
  9
$SHADEDIF
 70
    70
  9
$TILEMODE
 70
     1
  9
$MAXACTVP
 70
    16
  9
$PLIMCHECK
 70
     0
  9
$PEXTMIN
 10
1.0000000000000000E+020
 20
1.0000000000000000E+020
 30
1.0000000000000000E+020
  9
$PEXTMAX
 10
-1.0000000000000000E+020
 20
-1.0000000000000000E+020
 30
-1.0000000000000000E+020
  9
$PLIMMIN
 10
0.0
 20
0.0
  9
$PLIMMAX
 10
12.0
 20
9.0
  9
$UNITMODE
 70
     0
  9
$VISRETAIN
 70
     0
  9
$PLINEGEN
 70
     0
  9
$PSLTSCALE
 70
     0
  0
ENDSEC
  0
SECTION
  2
TABLES
  0
TABLE
  2
VPORT
 70
     1
  0
VPORT
  2
*ACTIVE
 70
     0
 10
0.0
 20
0.0
 11
1.0
 21
1.0
 12
520.3915171288744
 22
200.0
 13
0.0
 23
0.0
 14
20.0
 24
20.0
 15
20.0
 25
20.0
 16
0.0
 26
0.0
 36
1.0
 17
0.0
 27
0.0
 37
0.0
 40
400.0
 41
2.6019575856443722
 42
50.0
 43
0.0
 44
0.0
 50
0.0
 51
0.0
 71
    16
 72
   100
 73
     1
 74
     0
 75
     0
 76
     0
 77
     0
 78
     2
  0
ENDTAB
  0
TABLE
  2
LTYPE
 70
     4
  0
LTYPE
  2
CONTINUOUS
 70
     0
  3
Solid Line
 72
    65
 73
     0
 40
0.0
  0
LTYPE
  2
CENTER
 70
     0
  3
____ _ ____ _ ____ _ ____ _ ____ _ ____ _ ____
 72
    65
 73
     4
 40
2.0
 49
1.25
 49
-0.25
 49
0.25
 49
-0.25
  0
LTYPE
  2
HIDDEN
 70
     0
  3
_ _ _ _ _ _ _ _ _ _ _ _ _ _ _ _ _ _ _ _ _ _ _
 72
    65
 73
     2
 40
0.375
 49
0.25
 49
-0.125
  0
LTYPE
  2
PHANTOM2
 70
     0
  3
___ _ _ ___ _ _ ___ _ _ ___ _ _
 72
    65
 73
     6
 40
1.25
 49
0.625
 49
-0.125
 49
0.125
 49
-0.125
 49
0.125
 49
-0.125
  0
ENDTAB
  0
TABLE
  2
LAYER
 70
     3
  0
LAYER
  2
0
 70
     0
 62
     7
  6
CONTINUOUS
  0
LAYER
  2
1
 70
     0
 62
     1
  6
CENTER
  0
LAYER
  2
2
 70
     0
 62
     2
  6
HIDDEN
  0
ENDTAB
  0
TABLE
  2
STYLE
 70
     2
  0
STYLE
  2
STANDARD
 70
     0
 40
0.0
 41
1.0
 50
0.0
 71
     0
 42
0.2
  3
TXT
  4
BIGFONT
  0
STYLE
  2
STANDARD1
 70
     0
 40
0.0
 41
1.0
 50
0.0
 71
     0
 42
3.0
  3
txt
  4

  0
ENDTAB
  0
TABLE
  2
VIEW
 70
     1
  0
VIEW
  2
ALL
 70
     0
 40
540.0
 10
441.98319299999991
 20
270.0
 41
0.0
 11
0.0
 21
0.0
 31
1.0
 12
0.0
 22
0.0
 32
0.0
 42
50.0
 43
0.0
 44
0.0
 50
0.0
 71
     0
  0
ENDTAB
  0
TABLE
  2
UCS
 70
     0
  0
ENDTAB
  0
TABLE
  2
APPID
 70
     6
  0
APPID
  2
ACAD
 70
     0
  0
APPID
  2
ACAD_NAV_VCDISPLAY
 70
     0
  0
APPID
  2
ACAD_EXEMPT_FROM_CAD_STANDARDS
 70
     0
  0
APPID
  2
ACAD_DSTYLE_DIMJAG
 70
     0
  0
APPID
  2
ACAD_DSTYLE_DIMTALN
 70
     0
  0
APPID
  2
ACAD_MLEADERVER
 70
     0
  0
ENDTAB
  0
TABLE
  2
DIMSTYLE
 70
     1
  0
DIMSTYLE
  2
STANDARD
 70
     0
  3

  4

  5

  6

  7

 40
1.0
 41
0.18
 42
0.0625
 43
0.38
 44
0.18
 45
0.0
 46
0.0
 47
0.0
 48
0.0
140
0.18
141
0.09
142
0.0
143
25.399999999999999
144
1.0
145
0.0
146
1.0
147
0.09
 71
     0
 72
     0
 73
     1
 74
     1
 75
     0
 76
     0
 77
     0
 78
     0
170
     0
171
     2
172
     0
173
     0
174
     0
175
     0
176
     0
177
     0
178
     0
  0
ENDTAB
  0
ENDSEC
  0
SECTION
  2
BLOCKS
  0
BLOCK
  8
0
  2
$MODEL_SPACE
 70
     0
 10
0.0
 20
0.0
 30
0.0
  3
$MODEL_SPACE
  1

  0
ENDBLK
  5
11D
  8
0
  0
BLOCK
 67
     1
  8
0
  2
$PAPER_SPACE
 70
     0
 10
0.0
 20
0.0
 30
0.0
  3
$PAPER_SPACE
  1

  0
ENDBLK
  5
11B
 67
     1
  8
0
  0
ENDSEC
  0
SECTION
  2
ENTITIES
  0
TEXT
  5
453
  8
0
 62
     3
 10
0.0
 20
0.0
 30
0.0
 40
10.0
  1
TPTRB-10140
  7
STANDARD1
  0
LINE
  5
E36
  8
0
 10
250.6219999999999
 20
196.774
 30
0.0
 11
149.02199999999991
 21
196.774
 31
0.0
  0
LINE
  5
E38
  8
0
 10
149.02199999999991
 20
154.10200000000009
 30
0.0
 11
250.6219999999999
 21
154.10200000000009
 31
0.0
  0
LINE
  5
E3A
  8
0
 10
250.6219999999999
 20
201.8540000000001
 30
0.0
 11
149.02199999999991
 21
201.8540000000001
 31
0.0
  0
LINE
  5
E3B
  8
0
 10
250.6219999999999
 20
201.8540000000001
 30
0.0
 11
250.6219999999999
 21
149.02199999999991
 31
0.0
  0
LINE
  5
E3C
  8
0
 10
149.02199999999991
 20
201.8540000000001
 30
0.0
 11
149.02199999999991
 21
149.02199999999999
 31
0.0
  0
LINE
  5
E3D
  8
0
 10
250.6219999999999
 20
149.02199999999999
 30
0.0
 11
149.02199999999991
 21
149.02199999999999
 31
0.0
  0
POLYLINE
  5
E40
  8
2
 66
     1
 10
0.0
 20
0.0
 30
0.0
 70
   128
  0
VERTEX
  5
1016
  8
2
 10
183.819999999998
 20
185.5979999999989
 30
0.0
  0
VERTEX
  5
1017
  8
2
 10
183.715288835384
 20
185.53739016571211
 30
0.0
  0
VERTEX
  5
1018
  8
2
 10
183.3938257624263
 20
185.35333796080729
 30
0.0
  0
VERTEX
  5
1019
  8
2
 10
182.88960783203979
 20
185.07112610990691
 30
0.0
  0
VERTEX
  5
101A
  8
2
 10
182.1960778063729
 20
184.6970573493756
 30
0.0
  0
VERTEX
  5
101B
  8
2
 10
181.29303687504441
 20
184.23759264149601
 30
0.0
  0
VERTEX
  5
101C
  8
2
 10
180.20948281713041
 20
183.73423030185049
 30
0.0
  0
VERTEX
  5
101D
  8
2
 10
178.8541755286966
 20
183.1928439881695
 30
0.0
  0
VERTEX
  5
101E
  8
2
 10
177.29615541758449
 20
182.71781959590501
 30
0.0
  0
VERTEX
  5
101F
  8
2
 10
176.0939460920296
 20
182.4783736047346
 30
0.0
  0
VERTEX
  5
1020
  8
2
 10
174.8109447347841
 20
182.3595579063456
 30
0.0
  0
VERTEX
  5
1021
  8
2
 10
173.54834085703041
 20
182.38723935730479
 30
0.0
  0
VERTEX
  5
1022
  8
2
 10
172.27338322570171
 20
182.5590554711932
 30
0.0
  0
VERTEX
  5
1023
  8
2
 10
171.12775550065871
 20
182.82863688348289
 30
0.0
  0
VERTEX
  5
1024
  8
2
 10
170.0313054053658
 20
183.17802536954801
 30
0.0
  0
VERTEX
  5
1025
  8
2
 10
168.83650859490089
 20
183.64690803169071
 30
0.0
  0
VERTEX
  5
1026
  8
2
 10
167.750075780722
 20
184.14093214514131
 30
0.0
  0
VERTEX
  5
1027
  8
2
 10
166.69915320153029
 20
184.67012023457079
 30
0.0
  0
VERTEX
  5
1028
  8
2
 10
165.85159319106
 20
185.12799408318131
 30
0.0
  0
VERTEX
  5
1029
  8
2
 10
165.32266454107119
 20
185.42597216604261
 30
0.0
  0
VERTEX
  5
102A
  8
2
 10
165.0496809092302
 20
185.58310590845801
 30
0.0
  0
VERTEX
  5
102B
  8
2
 10
165.024
 20
185.59800000000001
 30
0.0
  0
VERTEX
  5
102C
  8
2
 10
165.024
 20
185.59800000000001
 30
0.0
  0
SEQEND
  5
102D
  8
2
  0
POLYLINE
  5
E41
  8
2
 66
     1
 10
0.0
 20
0.0
 30
0.0
 70
   128
  0
VERTEX
  5
102E
  8
2
 10
234.61999999999799
 20
185.59799999999879
 30
0.0
  0
VERTEX
  5
102F
  8
2
 10
234.51528883538401
 20
185.53739016571211
 30
0.0
  0
VERTEX
  5
1030
  8
2
 10
234.19382576242629
 20
185.35333796080729
 30
0.0
  0
VERTEX
  5
1031
  8
2
 10
233.6896078320398
 20
185.07112610990691
 30
0.0
  0
VERTEX
  5
1032
  8
2
 10
232.99607780637291
 20
184.6970573493756
 30
0.0
  0
VERTEX
  5
1033
  8
2
 10
232.0930368750445
 20
184.23759264149601
 30
0.0
  0
VERTEX
  5
1034
  8
2
 10
231.0094828171303
 20
183.73423030185049
 30
0.0
  0
VERTEX
  5
1035
  8
2
 10
229.65417552869661
 20
183.1928439881695
 30
0.0
  0
VERTEX
  5
1036
  8
2
 10
228.09615541758461
 20
182.71781959590501
 30
0.0
  0
VERTEX
  5
1037
  8
2
 10
226.89394609202969
 20
182.4783736047346
 30
0.0
  0
VERTEX
  5
1038
  8
2
 10
225.61094473478411
 20
182.3595579063456
 30
0.0
  0
VERTEX
  5
1039
  8
2
 10
224.34834085703039
 20
182.38723935730479
 30
0.0
  0
VERTEX
  5
103A
  8
2
 10
223.0733832257018
 20
182.5590554711932
 30
0.0
  0
VERTEX
  5
103B
  8
2
 10
221.9277555006588
 20
182.82863688348289
 30
0.0
  0
VERTEX
  5
103C
  8
2
 10
220.8313054053659
 20
183.17802536954801
 30
0.0
  0
VERTEX
  5
103D
  8
2
 10
219.6365085949009
 20
183.64690803169071
 30
0.0
  0
VERTEX
  5
103E
  8
2
 10
218.5500757807221
 20
184.14093214514131
 30
0.0
  0
VERTEX
  5
103F
  8
2
 10
217.49915320153019
 20
184.67012023457079
 30
0.0
  0
VERTEX
  5
1040
  8
2
 10
216.65159319105999
 20
185.12799408318131
 30
0.0
  0
VERTEX
  5
1041
  8
2
 10
216.12266454107129
 20
185.42597216604261
 30
0.0
  0
VERTEX
  5
1042
  8
2
 10
215.84968090923019
 20
185.5831059084579
 30
0.0
  0
VERTEX
  5
1043
  8
2
 10
215.82400000000001
 20
185.59800000000001
 30
0.0
  0
VERTEX
  5
1044
  8
2
 10
215.82400000000001
 20
185.59800000000001
 30
0.0
  0
SEQEND
  5
1045
  8
2
  0
POLYLINE
  5
E42
  8
2
 66
     1
 10
0.0
 20
0.0
 30
0.0
 70
   128
  0
VERTEX
  5
1046
  8
2
 10
215.82400000000001
 20
165.27799999999999
 30
0.0
  0
VERTEX
  5
1047
  8
2
 10
215.92871116462021
 20
165.33860983429039
 30
0.0
  0
VERTEX
  5
1048
  8
2
 10
216.2501742375822
 20
165.52266203919751
 30
0.0
  0
VERTEX
  5
1049
  8
2
 10
216.75439216797281
 20
165.80487389010011
 30
0.0
  0
VERTEX
  5
104A
  8
2
 10
217.44792219364371
 20
166.1789426506333
 30
0.0
  0
VERTEX
  5
104B
  8
2
 10
218.3509631249768
 20
166.63840735851451
 30
0.0
  0
VERTEX
  5
104C
  8
2
 10
219.4345171828958
 20
167.141769698161
 30
0.0
  0
VERTEX
  5
104D
  8
2
 10
220.7898244713341
 20
167.6831560118415
 30
0.0
  0
VERTEX
  5
104E
  8
2
 10
222.3478445824511
 20
168.15818040410389
 30
0.0
  0
VERTEX
  5
104F
  8
2
 10
223.5500539080052
 20
168.39762639527061
 30
0.0
  0
VERTEX
  5
1050
  8
2
 10
224.83305526524919
 20
168.5164420936556
 30
0.0
  0
VERTEX
  5
1051
  8
2
 10
226.0956591430002
 20
168.4887606426928
 30
0.0
  0
VERTEX
  5
1052
  8
2
 10
227.37061677432499
 20
168.31694452880171
 30
0.0
  0
VERTEX
  5
1053
  8
2
 10
228.5162444993679
 20
168.0473631165097
 30
0.0
  0
VERTEX
  5
1054
  8
2
 10
229.61269459466021
 20
167.6979746304427
 30
0.0
  0
VERTEX
  5
1055
  8
2
 10
230.80749140512549
 20
167.22909196829801
 30
0.0
  0
VERTEX
  5
1056
  8
2
 10
231.89392421930381
 20
166.73506785484631
 30
0.0
  0
VERTEX
  5
1057
  8
2
 10
232.9448467984914
 20
166.20587976541779
 30
0.0
  0
VERTEX
  5
1058
  8
2
 10
233.79240680895629
 20
165.7480059168096
 30
0.0
  0
VERTEX
  5
1059
  8
2
 10
234.32133545893799
 20
165.45002783395199
 30
0.0
  0
VERTEX
  5
105A
  8
2
 10
234.5943190907725
 20
165.2928940915406
 30
0.0
  0
VERTEX
  5
105B
  8
2
 10
234.62
 20
165.27799999999999
 30
0.0
  0
VERTEX
  5
105C
  8
2
 10
234.5852171559516
 20
165.29813331072739
 30
0.0
  0
SEQEND
  5
105D
  8
2
  0
POLYLINE
  5
E43
  8
2
 66
     1
 10
0.0
 20
0.0
 30
0.0
 70
   128
  0
VERTEX
  5
105E
  8
2
 10
165.024
 20
165.27799999999999
 30
0.0
  0
VERTEX
  5
105F
  8
2
 10
165.1287111646202
 20
165.33860983429039
 30
0.0
  0
VERTEX
  5
1060
  8
2
 10
165.45017423758219
 20
165.52266203919751
 30
0.0
  0
VERTEX
  5
1061
  8
2
 10
165.9543921679728
 20
165.80487389010011
 30
0.0
  0
VERTEX
  5
1062
  8
2
 10
166.64792219364369
 20
166.1789426506333
 30
0.0
  0
VERTEX
  5
1063
  8
2
 10
167.55096312497679
 20
166.63840735851451
 30
0.0
  0
VERTEX
  5
1064
  8
2
 10
168.63451718289571
 20
167.141769698161
 30
0.0
  0
VERTEX
  5
1065
  8
2
 10
169.98982447133409
 20
167.6831560118415
 30
0.0
  0
VERTEX
  5
1066
  8
2
 10
171.54784458245101
 20
168.1581804041038
 30
0.0
  0
VERTEX
  5
1067
  8
2
 10
172.75005390800521
 20
168.39762639527061
 30
0.0
  0
VERTEX
  5
1068
  8
2
 10
174.0330552652492
 20
168.5164420936556
 30
0.0
  0
VERTEX
  5
1069
  8
2
 10
175.29565914300031
 20
168.4887606426928
 30
0.0
  0
VERTEX
  5
106A
  8
2
 10
176.570616774325
 20
168.31694452880171
 30
0.0
  0
VERTEX
  5
106B
  8
2
 10
177.71624449936789
 20
168.0473631165097
 30
0.0
  0
VERTEX
  5
106C
  8
2
 10
178.8126945946602
 20
167.6979746304427
 30
0.0
  0
VERTEX
  5
106D
  8
2
 10
180.00749140512551
 20
167.22909196829801
 30
0.0
  0
VERTEX
  5
106E
  8
2
 10
181.0939242193038
 20
166.73506785484631
 30
0.0
  0
VERTEX
  5
106F
  8
2
 10
182.1448467984913
 20
166.20587976541779
 30
0.0
  0
VERTEX
  5
1070
  8
2
 10
182.99240680895639
 20
165.7480059168096
 30
0.0
  0
VERTEX
  5
1071
  8
2
 10
183.5213354589381
 20
165.45002783395199
 30
0.0
  0
VERTEX
  5
1072
  8
2
 10
183.79431909077249
 20
165.2928940915406
 30
0.0
  0
VERTEX
  5
1073
  8
2
 10
183.81999999999991
 20
165.27799999999999
 30
0.0
  0
VERTEX
  5
1074
  8
2
 10
183.78521715595079
 20
165.29813331072779
 30
0.0
  0
SEQEND
  5
1075
  8
2
  0
LINE
  5
E44
  8
2
 10
215.82400000000001
 20
161.72200000000001
 30
0.0
 11
234.62
 21
161.72200000000001
 31
0.0
  0
LINE
  5
E45
  8
2
 10
165.024
 20
161.72200000000001
 30
0.0
 11
183.81999999999991
 21
161.72200000000001
 31
0.0
  0
LINE
  5
E46
  8
2
 10
165.024
 20
185.59800000000001
 30
0.0
 11
149.02199999999991
 21
185.59800000000001
 31
0.0
  0
LINE
  5
E47
  8
2
 10
215.82400000000001
 20
185.59800000000001
 30
0.0
 11
183.819999999998
 21
185.59800000000001
 31
0.0
  0
LINE
  5
E48
  8
2
 10
250.6219999999999
 20
185.59800000000001
 30
0.0
 11
234.61999999999799
 21
185.59800000000001
 31
0.0
  0
LINE
  5
E49
  8
2
 10
234.61999999999799
 20
165.27799999999999
 30
0.0
 11
250.6219999999999
 21
165.27799999999999
 31
0.0
  0
LINE
  5
E4A
  8
2
 10
183.819999999998
 20
165.27799999999999
 30
0.0
 11
215.82400000000001
 21
165.27799999999999
 31
0.0
  0
LINE
  5
E4B
  8
2
 10
149.02199999999991
 20
165.27799999999999
 30
0.0
 11
165.024
 21
165.27799999999999
 31
0.0
  0
LINE
  5
E4C
  8
2
 10
215.82400000000001
 20
165.27799999999999
 30
0.0
 11
215.82400000000001
 21
161.72200000000001
 31
0.0
  0
LINE
  5
E4D
  8
2
 10
234.62
 20
161.72200000000001
 30
0.0
 11
234.62
 21
165.27800000000121
 31
0.0
  0
LINE
  5
E4E
  8
2
 10
215.82400000000001
 20
201.85400000000001
 30
0.0
 11
215.82400000000001
 21
185.59800000000001
 31
0.0
  0
LINE
  5
E4F
  8
2
 10
234.62
 20
185.5979999999989
 30
0.0
 11
234.62
 21
201.85400000000001
 31
0.0
  0
LINE
  5
E50
  8
2
 10
165.024
 20
201.85400000000001
 30
0.0
 11
165.024
 21
185.59800000000001
 31
0.0
  0
LINE
  5
E51
  8
2
 10
183.81999999999991
 20
185.5979999999989
 30
0.0
 11
183.81999999999991
 21
201.85400000000001
 31
0.0
  0
LINE
  5
E52
  8
2
 10
165.024
 20
165.27799999999999
 30
0.0
 11
165.024
 21
161.72200000000001
 31
0.0
  0
LINE
  5
E53
  8
2
 10
183.81999999999991
 20
161.72200000000001
 30
0.0
 11
183.81999999999991
 21
165.27800000000121
 31
0.0
  0
LINE
  5
E54
  8
2
 10
230.1750000000001
 20
149.02199999999999
 30
0.0
 11
230.1750000000001
 21
161.72200000000001
 31
0.0
  0
LINE
  5
E55
  8
2
 10
220.26899999999989
 20
161.72200000000001
 30
0.0
 11
220.26899999999989
 21
149.02199999999999
 31
0.0
  0
LINE
  5
E56
  8
2
 10
179.375
 20
149.02199999999999
 30
0.0
 11
179.375
 21
161.72200000000001
 31
0.0
  0
LINE
  5
E57
  8
2
 10
169.46899999999991
 20
161.72200000000001
 30
0.0
 11
169.46899999999991
 21
149.02199999999999
 31
0.0
  0
POLYLINE
  5
E58
  8
0
 66
     1
 10
0.0
 20
0.0
 30
0.0
 70
   128
  0
VERTEX
  5
1076
  8
0
 10
87.337999999999965
 20
175.43799999999999
 30
0.0
  0
VERTEX
  5
1077
  8
0
 10
87.216946331299823
 20
176.8305412133931
 30
0.0
  0
VERTEX
  5
1078
  8
0
 10
86.846659759230135
 20
178.22308242678619
 30
0.0
  0
VERTEX
  5
1079
  8
0
 10
86.270585973400784
 20
179.4957396616266
 30
0.0
  0
VERTEX
  5
107A
  8
0
 10
85.488126331738144
 20
180.69412604976259
 30
0.0
  0
VERTEX
  5
107B
  8
0
 10
84.471168915820954
 20
181.83998793595589
 30
0.0
  0
VERTEX
  5
107C
  8
0
 10
83.280073896812496
 20
182.8529475379483
 30
0.0
  0
VERTEX
  5
107D
  8
0
 10
81.733808518773799
 20
183.83415042337211
 30
0.0
  0
VERTEX
  5
107E
  8
0
 10
80.033733130603537
 20
184.6080521512597
 30
0.0
  0
VERTEX
  5
107F
  8
0
 10
77.908048227667905
 20
185.23522232245739
 30
0.0
  0
VERTEX
  5
1080
  8
0
 10
75.666844931641663
 20
185.5566669961222
 30
0.0
  0
VERTEX
  5
1081
  8
0
 10
73.098061295882076
 20
185.53617222597441
 30
0.0
  0
VERTEX
  5
1082
  8
0
 10
71.793502381761982
 20
185.3673735165049
 30
0.0
  0
VERTEX
  5
1083
  8
0
 10
70.49863782424336
 20
185.0881412105191
 30
0.0
  0
VERTEX
  5
1084
  8
0
 10
69.235427250371785
 20
184.69890193348729
 30
0.0
  0
VERTEX
  5
1085
  8
0
 10
68.002646174430708
 20
184.1930109487113
 30
0.0
  0
VERTEX
  5
1086
  8
0
 10
66.791425360819673
 20
183.55208107095299
 30
0.0
  0
VERTEX
  5
1087
  8
0
 10
65.642223886414513
 20
182.7781745252222
 30
0.0
  0
VERTEX
  5
1088
  8
0
 10
64.343888692862933
 20
181.63253426395269
 30
0.0
  0
VERTEX
  5
1089
  8
0
 10
63.219208283307921
 20
180.25781134109721
 30
0.0
  0
VERTEX
  5
108A
  8
0
 10
62.490203336038462
 20
178.98315192165251
 30
0.0
  0
VERTEX
  5
108B
  8
0
 10
61.968839185894133
 20
177.5672248779575
 30
0.0
  0
VERTEX
  5
108C
  8
0
 10
61.757129788202178
 20
176.52136157578531
 30
0.0
  0
VERTEX
  5
108D
  8
0
 10
61.683999999999969
 20
175.43799999999999
 30
0.0
  0
SEQEND
  5
108E
  8
0
  0
POLYLINE
  5
E59
  8
0
 66
     1
 10
0.0
 20
0.0
 30
0.0
 70
   128
  0
VERTEX
  5
108F
  8
0
 10
61.683999999999969
 20
175.43799999999999
 30
0.0
  0
VERTEX
  5
1090
  8
0
 10
61.805053668700047
 20
174.0454587866069
 30
0.0
  0
VERTEX
  5
1091
  8
0
 10
62.175340240769742
 20
172.65291757321381
 30
0.0
  0
VERTEX
  5
1092
  8
0
 10
62.75141402659915
 20
171.3802603383734
 30
0.0
  0
VERTEX
  5
1093
  8
0
 10
63.53387366826172
 20
170.18187395023739
 30
0.0
  0
VERTEX
  5
1094
  8
0
 10
64.550831084178924
 20
169.03601206404409
 30
0.0
  0
VERTEX
  5
1095
  8
0
 10
65.741926103187438
 20
168.02305246205179
 30
0.0
  0
VERTEX
  5
1096
  8
0
 10
67.288191481226079
 20
167.04184957662801
 30
0.0
  0
VERTEX
  5
1097
  8
0
 10
68.988266869396284
 20
166.26794784874031
 30
0.0
  0
VERTEX
  5
1098
  8
0
 10
71.113951772331916
 20
165.64077767754259
 30
0.0
  0
VERTEX
  5
1099
  8
0
 10
73.355155068358144
 20
165.3193330038778
 30
0.0
  0
VERTEX
  5
109A
  8
0
 10
75.923938704117745
 20
165.33982777402559
 30
0.0
  0
VERTEX
  5
109B
  8
0
 10
77.228497618237839
 20
165.50862648349511
 30
0.0
  0
VERTEX
  5
109C
  8
0
 10
78.523362175756461
 20
165.78785878948091
 30
0.0
  0
VERTEX
  5
109D
  8
0
 10
79.786572749628021
 20
166.17709806651271
 30
0.0
  0
VERTEX
  5
109E
  8
0
 10
81.019353825569155
 20
166.6829890512887
 30
0.0
  0
VERTEX
  5
109F
  8
0
 10
82.23057463918019
 20
167.32391892904701
 30
0.0
  0
VERTEX
  5
10A0
  8
0
 10
83.379776113585294
 20
168.09782547477781
 30
0.0
  0
VERTEX
  5
10A1
  8
0
 10
84.678111307136874
 20
169.24346573604731
 30
0.0
  0
VERTEX
  5
10A2
  8
0
 10
85.802791716691885
 20
170.61818865890271
 30
0.0
  0
VERTEX
  5
10A3
  8
0
 10
86.531796663961359
 20
171.8928480783475
 30
0.0
  0
VERTEX
  5
10A4
  8
0
 10
87.053160814105809
 20
173.3087751220425
 30
0.0
  0
VERTEX
  5
10A5
  8
0
 10
87.264870211797643
 20
174.35463842421481
 30
0.0
  0
VERTEX
  5
10A6
  8
0
 10
87.337999999999965
 20
175.43799999999999
 30
0.0
  0
SEQEND
  5
10A7
  8
0
  0
LINE
  5
E5A
  8
0
 10
90.258999999999915
 20
149.02199999999999
 30
0.0
 11
58.762999999999799
 21
149.02199999999999
 31
0.0
  0
LINE
  5
E5B
  8
0
 10
58.762999999999799
 20
149.02199999999999
 30
0.0
 11
51.142999999999923
 21
154.102
 31
0.0
  0
ARC
  5
E5C
  8
0
 10
249.7074999999989
 20
175.43799999999999
 30
0.0
 40
199.7074999999989
 50
173.86702899774801
 51
186.13297100225259
  0
LINE
  5
E5D
  8
0
 10
51.142999999999923
 20
196.774
 30
0.0
 11
58.76299999999992
 21
201.85400000000001
 31
0.0
  0
LINE
  5
E5E
  8
0
 10
58.76299999999992
 20
201.85400000000001
 30
0.0
 11
90.258999999999773
 21
201.8540000000001
 31
0.0
  0
LINE
  5
E5F
  8
0
 10
90.258999999999773
 20
201.8540000000001
 30
0.0
 11
97.878999999999905
 21
196.774
 31
0.0
  0
ARC
  5
E60
  8
0
 10
-100.685499999999
 20
175.43799999999999
 30
0.0
 40
199.7074999999989
 50
353.86702899774917
 51
6.1329710022520132
  0
LINE
  5
E61
  8
0
 10
97.878999999999905
 20
154.10200000000009
 30
0.0
 11
90.258999999999915
 21
149.02199999999999
 31
0.0
  0
LINE
  5
E63
  8
2
 10
65.112999999999943
 20
161.72200000000001
 30
0.0
 11
83.908999999999935
 21
161.72200000000001
 31
0.0
  0
LINE
  5
E64
  8
2
 10
65.112999999999943
 20
201.85400000000001
 30
0.0
 11
65.112999999999943
 21
182.36807491099319
 31
0.0
  0
LINE
  5
E65
  8
2
 10
83.908999999999935
 20
182.36807491099401
 30
0.0
 11
83.908999999999935
 21
201.85400000000001
 31
0.0
  0
LINE
  5
E66
  8
2
 10
65.112999999999943
 20
168.50792508900599
 30
0.0
 11
65.112999999999943
 21
161.72200000000001
 31
0.0
  0
LINE
  5
E67
  8
2
 10
83.908999999999935
 20
161.72200000000001
 30
0.0
 11
83.908999999999935
 21
168.50792508900679
 31
0.0
  0
LINE
  5
E68
  8
2
 10
79.463999999999942
 20
149.02199999999999
 30
0.0
 11
79.463999999999942
 21
161.72200000000001
 31
0.0
  0
LINE
  5
E69
  8
2
 10
69.557999999999993
 20
161.72200000000001
 30
0.0
 11
69.557999999999993
 21
149.02199999999999
 31
0.0
  0
LINE
  5
E6A
  8
0
 10
250.6219999999999
 20
300.87600000000009
 30
0.0
 11
149.02199999999991
 21
300.87600000000009
 31
0.0
  0
LINE
  5
E6B
  8
0
 10
149.02199999999991
 20
251.8540000000001
 30
0.0
 11
250.6219999999999
 21
251.8540000000001
 31
0.0
  0
LINE
  5
E6D
  8
0
 10
149.02199999999991
 20
292.11300000000011
 30
0.0
 11
250.6219999999999
 21
292.11300000000011
 31
0.0
  0
CIRCLE
  5
E70
  8
0
 10
174.422
 20
276.36500000000012
 30
0.0
 40
9.3980000000000246
  0
LINE
  5
E71
  8
0
 10
250.6219999999999
 20
260.61700000000019
 30
0.0
 11
149.02199999999991
 21
260.61700000000019
 31
0.0
  0
CIRCLE
  5
E72
  8
0
 10
225.22200000000001
 20
276.36500000000012
 30
0.0
 40
9.3979999999999677
  0
LINE
  5
E78
  8
0
 10
250.6219999999999
 20
251.8540000000001
 30
0.0
 11
250.6219999999999
 21
300.87600000000009
 31
0.0
  0
LINE
  5
E79
  8
0
 10
149.02199999999991
 20
300.87600000000009
 30
0.0
 11
149.02199999999991
 21
251.8540000000001
 31
0.0
  0
CIRCLE
  5
E7C
  8
0
 10
174.422
 20
276.36500000000012
 30
0.0
 40
4.9529999999999736
  0
CIRCLE
  5
E7D
  8
0
 10
225.22200000000001
 20
276.36500000000012
 30
0.0
 40
4.9530000000000314
  0
LINE
  5
E82
  8
0
 10
149.02199999999991
 20
50.0
 30
0.0
 11
250.6219999999999
 21
50.0
 31
0.0
  0
LINE
  5
E83
  8
0
 10
250.6219999999999
 20
99.022000000000006
 30
0.0
 11
149.02199999999991
 21
99.022000000000006
 31
0.0
  0
LINE
  5
E84
  8
0
 10
250.6219999999999
 20
58.76299999999992
 30
0.0
 11
149.02199999999991
 21
58.76299999999992
 31
0.0
  0
CIRCLE
  5
E88
  8
0
 10
225.22200000000001
 20
74.51100000000001
 30
0.0
 40
4.9530000000000314
  0
CIRCLE
  5
E89
  8
0
 10
174.422
 20
74.51100000000001
 30
0.0
 40
4.9529999999999736
  0
LINE
  5
E8A
  8
0
 10
250.6219999999999
 20
90.259000000000015
 30
0.0
 11
149.02199999999991
 21
90.259000000000015
 31
0.0
  0
LINE
  5
E92
  8
0
 10
149.02199999999991
 20
99.022000000000077
 30
0.0
 11
149.02199999999991
 21
50.000000000000007
 31
0.0
  0
LINE
  5
E93
  8
0
 10
250.6219999999999
 20
99.022000000000077
 30
0.0
 11
250.6219999999999
 21
50.000000000000007
 31
0.0
  0
CIRCLE
  5
E94
  8
2
 10
225.22200000000001
 20
74.51100000000001
 30
0.0
 40
9.3979999999999677
  0
CIRCLE
  5
E95
  8
2
 10
174.422
 20
74.51100000000001
 30
0.0
 40
9.3980000000000246
  0
LINE
  5
EBD
  8
1
 10
74.510999999999953
 20
144.02199999999999
 30
0.0
 11
74.510999999999953
 21
206.85400000000001
 31
0.0
  0
LINE
  5
EBE
  8
1
 10
45.0
 20
175.43799999999999
 30
0.0
 11
104.02199999999991
 21
175.43799999999999
 31
0.0
  0
LINE
  5
ED6
  8
1
 10
255.62200000000001
 20
175.43799999999999
 30
0.0
 11
144.02199999999991
 21
175.43799999999999
 31
0.0
  0
LINE
  5
ED7
  8
1
 10
225.22200000000001
 20
206.85400000000001
 30
0.0
 11
225.22200000000001
 21
144.02199999999999
 31
0.0
  0
LINE
  5
ED8
  8
1
 10
174.42199999999991
 20
206.85400000000001
 30
0.0
 11
174.42199999999991
 21
144.02199999999999
 31
0.0
  0
LINE
  5
F11
  8
1
 10
225.22200000000001
 20
288.76300000000009
 30
0.0
 11
225.22200000000001
 21
263.9670000000001
 31
0.0
  0
LINE
  5
F12
  8
1
 10
174.422
 20
288.76300000000009
 30
0.0
 11
174.422
 21
263.9670000000001
 31
0.0
  0
LINE
  5
F13
  8
1
 10
255.62200000000001
 20
276.36500000000012
 30
0.0
 11
144.02199999999991
 21
276.36500000000012
 31
0.0
  0
LINE
  5
F4F
  8
1
 10
225.22200000000001
 20
86.908999999999992
 30
0.0
 11
225.22200000000001
 21
62.113000000000042
 31
0.0
  0
LINE
  5
F50
  8
1
 10
174.422
 20
86.909000000000034
 30
0.0
 11
174.422
 21
62.112999999999978
 31
0.0
  0
LINE
  5
F51
  8
1
 10
255.62200000000001
 20
74.51100000000001
 30
0.0
 11
144.02199999999991
 21
74.51100000000001
 31
0.0
  0
ENDSEC
  0
EOF
