  0
SECTION
  2
HEADER
  9
$ACADVER
  1
AC1009
  9
$INSBASE
 10
0.0
 20
0.0
 30
0.0
  9
$EXTMIN
 10
0.0
 20
-2.960436562073669
 30
0.0
  9
$EXTMAX
 10
306.6287386066457
 20
243.07102159806101
 30
0.0
  9
$LIMMIN
 10
0.0
 20
0.0
  9
$LIMMAX
 10
375.0
 20
270.0
  9
$ORTHOMODE
 70
     1
  9
$REGENMODE
 70
     1
  9
$FILLMODE
 70
     1
  9
$QTEXTMODE
 70
     0
  9
$MIRRTEXT
 70
     0
  9
$DRAGMODE
 70
     2
  9
$LTSCALE
 40
10.0
  9
$OSMODE
 70
    55
  9
$ATTMODE
 70
     1
  9
$TEXTSIZE
 40
0.2
  9
$TRACEWID
 40
0.05
  9
$TEXTSTYLE
  7
STANDARD
  9
$CLAYER
  8
0
  9
$CELTYPE
  6
BYLAYER
  9
$CECOLOR
 62
   256
  9
$DIMSCALE
 40
1.0
  9
$DIMASZ
 40
3.0
  9
$DIMEXO
 40
2.0
  9
$DIMDLI
 40
0.38
  9
$DIMRND
 40
0.0
  9
$DIMDLE
 40
0.0
  9
$DIMEXE
 40
2.0
  9
$DIMTP
 40
0.0
  9
$DIMTM
 40
0.0
  9
$DIMTXT
 40
3.2000000000000002
  9
$DIMCEN
 40
0.0
  9
$DIMTSZ
 40
0.0
  9
$DIMTOL
 70
     0
  9
$DIMLIM
 70
     0
  9
$DIMTIH
 70
     0
  9
$DIMTOH
 70
     0
  9
$DIMSE1
 70
     0
  9
$DIMSE2
 70
     0
  9
$DIMTAD
 70
     1
  9
$DIMZIN
 70
     0
  9
$DIMBLK
  1

  9
$DIMASO
 70
     1
  9
$DIMSHO
 70
     0
  9
$DIMPOST
  1

  9
$DIMAPOST
  1

  9
$DIMALT
 70
     0
  9
$DIMALTD
 70
     2
  9
$DIMALTF
 40
25.399999999999999
  9
$DIMLFAC
 40
1.0
  9
$DIMTOFL
 70
     1
  9
$DIMTVP
 40
1.6000000000000001
  9
$DIMTIX
 70
     1
  9
$DIMSOXD
 70
     0
  9
$DIMSAH
 70
     0
  9
$DIMBLK1
  1

  9
$DIMBLK2
  1

  9
$DIMSTYLE
  2
STANDARD
  9
$DIMCLRD
 70
     0
  9
$DIMCLRE
 70
     0
  9
$DIMCLRT
 70
     0
  9
$DIMTFAC
 40
1.0
  9
$DIMGAP
 40
0.09
  9
$LUNITS
 70
     2
  9
$LUPREC
 70
     4
  9
$SKETCHINC
 40
0.1
  9
$FILLETRAD
 40
0.0
  9
$AUNITS
 70
     0
  9
$AUPREC
 70
     4
  9
$MENU
  1
E:\r13\win\SUPPORT\ACAD
  9
$ELEVATION
 40
0.0
  9
$PELEVATION
 40
0.0
  9
$THICKNESS
 40
0.0
  9
$LIMCHECK
 70
     0
  9
$BLIPMODE
 70
     0
  9
$CHAMFERA
 40
0.0
  9
$CHAMFERB
 40
0.0
  9
$SKPOLY
 70
     0
  9
$TDCREATE
 40
2449840.6322916672
  9
$TDUPDATE
 40
2456598.4523477661
  9
$TDINDWG
 40
0.0001577083
  9
$TDUSRTIMER
 40
0.0001577083
  9
$USRTIMER
 70
     1
  9
$ANGBASE
 50
0.0
  9
$ANGDIR
 70
     0
  9
$PDMODE
 70
     0
  9
$PDSIZE
 40
0.0
  9
$PLINEWID
 40
0.0
  9
$COORDS
 70
     1
  9
$SPLFRAME
 70
     0
  9
$SPLINETYPE
 70
     6
  9
$SPLINESEGS
 70
     8
  9
$ATTDIA
 70
     0
  9
$ATTREQ
 70
     1
  9
$HANDLING
 70
     1
  9
$HANDSEED
  5
2FE
  9
$SURFTAB1
 70
     6
  9
$SURFTAB2
 70
     6
  9
$SURFTYPE
 70
     6
  9
$SURFU
 70
     6
  9
$SURFV
 70
     6
  9
$UCSNAME
  2

  9
$UCSORG
 10
0.0
 20
0.0
 30
0.0
  9
$UCSXDIR
 10
1.0
 20
0.0
 30
0.0
  9
$UCSYDIR
 10
0.0
 20
1.0
 30
0.0
  9
$PUCSNAME
  2

  9
$PUCSORG
 10
0.0
 20
0.0
 30
0.0
  9
$PUCSXDIR
 10
1.0
 20
0.0
 30
0.0
  9
$PUCSYDIR
 10
0.0
 20
1.0
 30
0.0
  9
$USERI1
 70
     0
  9
$USERI2
 70
     1
  9
$USERI3
 70
     1
  9
$USERI4
 70
     0
  9
$USERI5
 70
     0
  9
$USERR1
 40
0.0
  9
$USERR2
 40
0.0
  9
$USERR3
 40
0.0
  9
$USERR4
 40
0.0
  9
$USERR5
 40
0.0
  9
$WORLDVIEW
 70
     1
  9
$SHADEDGE
 70
     3
  9
$SHADEDIF
 70
    70
  9
$TILEMODE
 70
     1
  9
$MAXACTVP
 70
    16
  9
$PLIMCHECK
 70
     0
  9
$PEXTMIN
 10
1.0000000000000000E+020
 20
1.0000000000000000E+020
 30
1.0000000000000000E+020
  9
$PEXTMAX
 10
-1.0000000000000000E+020
 20
-1.0000000000000000E+020
 30
-1.0000000000000000E+020
  9
$PLIMMIN
 10
0.0
 20
0.0
  9
$PLIMMAX
 10
12.0
 20
9.0
  9
$UNITMODE
 70
     0
  9
$VISRETAIN
 70
     0
  9
$PLINEGEN
 70
     0
  9
$PSLTSCALE
 70
     0
  0
ENDSEC
  0
SECTION
  2
TABLES
  0
TABLE
  2
VPORT
 70
     1
  0
VPORT
  2
*ACTIVE
 70
     0
 10
0.0
 20
0.0
 11
1.0
 21
1.0
 12
187.4942783906524
 22
197.0509055860143
 13
0.0
 23
0.0
 14
10.0
 24
10.0
 15
10.0
 25
10.0
 16
0.0
 26
0.0
 36
1.0
 17
0.0
 27
0.0
 37
0.0
 40
403.57315882993248
 41
1.7807262569832401
 42
50.0
 43
0.0
 44
0.0
 50
0.0
 51
0.0
 71
     0
 72
   500
 73
     1
 74
     0
 75
     0
 76
     0
 77
     0
 78
     2
  0
ENDTAB
  0
TABLE
  2
LTYPE
 70
     4
  0
LTYPE
  2
CONTINUOUS
 70
     0
  3
Solid Line
 72
    65
 73
     0
 40
0.0
  0
LTYPE
  2
CENTER
 70
     0
  3
____ _ ____ _ ____ _ ____ _ ____ _ ____ _ ____
 72
    65
 73
     4
 40
2.0
 49
1.25
 49
-0.25
 49
0.25
 49
-0.25
  0
LTYPE
  2
HIDDEN
 70
     0
  3
_ _ _ _ _ _ _ _ _ _ _ _ _ _ _ _ _ _ _ _ _ _ _
 72
    65
 73
     2
 40
0.375
 49
0.25
 49
-0.125
  0
LTYPE
  2
PHANTOM2
 70
     0
  3
___ _ _ ___ _ _ ___ _ _ ___ _ _
 72
    65
 73
     6
 40
1.25
 49
0.625
 49
-0.125
 49
0.125
 49
-0.125
 49
0.125
 49
-0.125
  0
ENDTAB
  0
TABLE
  2
LAYER
 70
     3
  0
LAYER
  2
0
 70
     0
 62
     7
  6
CONTINUOUS
  0
LAYER
  2
1
 70
     0
 62
     1
  6
CENTER
  0
LAYER
  2
2
 70
     0
 62
     2
  6
HIDDEN
  0
ENDTAB
  0
TABLE
  2
STYLE
 70
     2
  0
STYLE
  2
STANDARD
 70
     0
 40
0.0
 41
1.0
 50
0.0
 71
     0
 42
0.2
  3
TXT
  4
BIGFONT
  0
STYLE
  2
STANDARD1
 70
     0
 40
0.0
 41
1.0
 50
0.0
 71
     0
 42
3.0
  3
txt
  4

  0
ENDTAB
  0
TABLE
  2
VIEW
 70
     1
  0
VIEW
  2
ALL
 70
     0
 40
270.0
 10
220.99159663865549
 20
135.0
 41
0.0
 11
0.0
 21
0.0
 31
1.0
 12
0.0
 22
0.0
 32
0.0
 42
0.0
 43
0.0
 44
0.0
 50
0.0
 71
     0
  0
ENDTAB
  0
TABLE
  2
UCS
 70
     0
  0
ENDTAB
  0
TABLE
  2
APPID
 70
     3
  0
APPID
  2
ACAD
 70
     0
  0
APPID
  2
ACAD_MLEADERVER
 70
     0
  0
APPID
  2
ACAD_NAV_VCDISPLAY
 70
     0
  0
ENDTAB
  0
TABLE
  2
DIMSTYLE
 70
     1
  0
DIMSTYLE
  2
STANDARD
 70
     0
  3

  4

  5

  6

  7

 40
1.0
 41
0.18
 42
0.0625
 43
0.38
 44
0.18
 45
0.0
 46
0.0
 47
0.0
 48
0.0
140
0.18
141
0.09
142
0.0
143
25.399999999999999
144
1.0
145
0.0
146
1.0
147
0.09
 71
     0
 72
     0
 73
     1
 74
     1
 75
     0
 76
     0
 77
     0
 78
     0
170
     0
171
     2
172
     0
173
     0
174
     0
175
     0
176
     0
177
     0
178
     0
  0
ENDTAB
  0
ENDSEC
  0
SECTION
  2
BLOCKS
  0
BLOCK
  8
0
  2
$MODEL_SPACE
 70
     0
 10
0.0
 20
0.0
 30
0.0
  3
$MODEL_SPACE
  1

  0
ENDBLK
  5
146
  8
0
  0
BLOCK
 67
     1
  8
0
  2
$PAPER_SPACE
 70
     0
 10
0.0
 20
0.0
 30
0.0
  3
$PAPER_SPACE
  1

  0
ENDBLK
  5
144
 67
     1
  8
0
  0
ENDSEC
  0
SECTION
  2
ENTITIES
  0
LINE
  5
35
  8
1
 10
189.2176289043872
 20
193.90001211466051
 30
0.0
 11
189.2176289043872
 21
83.900012114660584
 31
0.0
  0
LINE
  5
36
  8
0
 10
135.7176289043872
 20
93.900012114660584
 30
0.0
 11
242.71762890438731
 21
93.900012114660584
 31
0.0
  0
LINE
  5
37
  8
0
 10
135.7176289043872
 20
183.9000121146606
 30
0.0
 11
242.71762890438731
 21
183.9000121146606
 31
0.0
  0
LINE
  5
38
  8
0
 10
139.2176289043872
 20
183.9000121146606
 30
0.0
 11
139.2176289043872
 21
93.900012114660584
 31
0.0
  0
LINE
  5
39
  8
0
 10
139.2176289043872
 20
171.90001211466051
 30
0.0
 11
239.2176289043872
 21
171.90001211466051
 31
0.0
  0
LINE
  5
3A
  8
0
 10
139.2176289043872
 20
153.9000121146606
 30
0.0
 11
239.2176289043872
 21
153.9000121146606
 31
0.0
  0
LINE
  5
3B
  8
0
 10
139.2176289043872
 20
133.9000121146606
 30
0.0
 11
239.2176289043872
 21
133.9000121146606
 31
0.0
  0
LINE
  5
3C
  8
0
 10
139.2176289043872
 20
103.9000121146606
 30
0.0
 11
239.2176289043872
 21
103.9000121146606
 31
0.0
  0
LINE
  5
3D
  8
0
 10
131.7176289043872
 20
179.9000121146606
 30
0.0
 11
131.7176289043872
 21
97.900012114660584
 31
0.0
  0
ARC
  5
3E
  8
0
 10
135.7176289043872
 20
179.9000121146606
 30
0.0
 40
4.0
 50
90.0
 51
179.99999999999989
  0
ARC
  5
3F
  8
0
 10
135.7176289043872
 20
97.900012114660584
 30
0.0
 40
4.0
 50
180.0
 51
269.99999999999989
  0
ARC
  5
40
  8
0
 10
242.71762890438731
 20
97.900012114660584
 30
0.0
 40
4.0
 50
270.00000000000011
 51
0.0000000000000254
  0
ARC
  5
41
  8
0
 10
242.71762890438731
 20
179.9000121146606
 30
0.0
 40
4.0
 50
0.0000000000000763
 51
90.000000000000028
  0
LINE
  5
42
  8
0
 10
246.71762890438731
 20
179.9000121146606
 30
0.0
 11
246.71762890438731
 21
97.900012114660584
 31
0.0
  0
LINE
  5
43
  8
0
 10
239.2176289043872
 20
183.9000121146606
 30
0.0
 11
239.2176289043872
 21
93.900012114660584
 31
0.0
  0
LINE
  5
44
  8
0
 10
297.1287386066457
 20
171.90001211466051
 30
0.0
 11
289.12873860664541
 21
173.40001211466051
 31
0.0
  0
ARC
  5
45
  8
0
 10
305.6287386066457
 20
169.9000121146606
 30
0.0
 40
1.0
 50
0.0000000000000763
 51
90.000000000000028
  0
LINE
  5
46
  8
0
 10
284.1287386066457
 20
182.9000121146606
 30
0.0
 11
284.1287386066457
 21
94.900012114660584
 31
0.0
  0
LINE
  5
47
  8
0
 10
285.1287386066457
 20
183.9000121146606
 30
0.0
 11
287.1287386066457
 21
183.9000121146606
 31
0.0
  0
LINE
  5
48
  8
0
 10
306.6287386066457
 20
169.9000121146606
 30
0.0
 11
306.6287386066457
 21
130.62531982234239
 31
0.0
  0
LINE
  5
49
  8
0
 10
297.12873860664581
 20
170.90001211466051
 30
0.0
 11
299.57873860664768
 21
170.90001211466051
 31
0.0
  0
LINE
  5
4A
  8
0
 10
303.6787386066456
 20
170.90001211466051
 30
0.0
 11
303.6787386066456
 21
168.90001211466051
 31
0.0
  0
LINE
  5
4B
  8
0
 10
303.6787386066456
 20
168.90001211466051
 30
0.0
 11
305.12873860664558
 21
168.90001211466051
 31
0.0
  0
LINE
  5
4C
  8
0
 10
305.12873860664558
 20
168.90001211466051
 30
0.0
 11
305.12873860664558
 21
166.90001211466051
 31
0.0
  0
LINE
  5
4D
  8
0
 10
305.62873860664581
 20
166.9000121146606
 30
0.0
 11
297.12873860664638
 21
166.90001211466051
 31
0.0
  0
LINE
  5
4E
  8
0
 10
298.12873860664757
 20
168.90001211466051
 30
0.0
 11
298.12873860664757
 21
166.90001211466051
 31
0.0
  0
LINE
  5
4F
  8
0
 10
299.57873860664768
 20
168.90001211466051
 30
0.0
 11
298.12873860664757
 21
168.90001211466051
 31
0.0
  0
LINE
  5
50
  8
0
 10
299.57873860664768
 20
170.90001211466051
 30
0.0
 11
299.57873860664768
 21
168.90001211466051
 31
0.0
  0
LINE
  5
51
  8
0
 10
303.6787386066456
 20
170.90001211466051
 30
0.0
 11
305.6287386066457
 21
170.9000121146606
 31
0.0
  0
LINE
  5
52
  8
0
 10
297.12873860664638
 20
166.90001211466051
 30
0.0
 11
297.1287386066457
 21
171.90001211466051
 31
0.0
  0
LINE
  5
53
  8
0
 10
289.12873860664541
 20
173.40001211466051
 30
0.0
 11
287.1287386066457
 21
173.40001211466051
 31
0.0
  0
ARC
  5
54
  8
0
 10
300.1287386066457
 20
85.900012114660569
 30
0.0
 40
3.0000000000000071
 50
224.99999999999989
 51
355.53702859847738
  0
LINE
  5
55
  8
0
 10
293.97148318516008
 20
95.299105879278969
 30
0.0
 11
292.35056671099198
 21
93.678189405110942
 31
0.0
  0
ARC
  5
56
  8
0
 10
294.47188435715339
 20
91.556866364152967
 30
0.0
 40
3.0000000000000071
 50
134.99992714467689
 51
225.0
  0
LINE
  5
57
  8
0
 10
298.00741826308598
 20
83.778691771100881
 30
0.0
 11
292.35056401359373
 21
89.435546020593335
 31
0.0
  0
LINE
  5
58
  8
0
 10
287.1287386066457
 20
93.900012114660584
 30
0.0
 11
285.1287386066457
 21
93.900012114660584
 31
0.0
  0
ARC
  5
59
  8
0
 10
285.1287386066457
 20
94.900012114660584
 30
0.0
 40
1.0
 50
180.0
 51
269.99999999999989
  0
ARC
  5
5A
  8
0
 10
285.1287386066457
 20
182.9000121146606
 30
0.0
 40
1.0
 50
90.000000000000554
 51
179.99999999999989
  0
LINE
  5
5B
  8
0
 10
287.1287386066457
 20
100.9000121146605
 30
0.0
 11
287.98477088482002
 21
100.9000121146606
 31
0.0
  0
ARC
  5
5C
  8
0
 10
287.98477088482002
 20
94.900012114660598
 30
0.0
 40
6.0
 50
3.8138805674134129
 51
90.00000000000081
  0
LINE
  5
5D
  8
0
 10
292.35056401359031
 20
88.728439239410235
 30
0.0
 11
291.1287386066457
 21
87.506613832465703
 31
0.0
  0
LINE
  5
5E
  8
0
 10
291.1287386066457
 20
85.546458724063839
 30
0.0
 11
291.1287386066457
 21
87.506613832465732
 31
0.0
  0
LINE
  5
5F
  8
0
 10
297.3003114819029
 20
83.778691771097485
 30
0.0
 11
296.07848607495851
 21
82.556866364153009
 31
0.0
  0
LINE
  5
60
  8
0
 10
291.12873860664581
 20
85.546458724063839
 30
0.0
 11
289.12873860664581
 21
81.546458724063825
 31
0.0
  0
LINE
  5
61
  8
0
 10
295.88609791952638
 20
85.90001211466047
 30
0.0
 11
295.53254452893322
 21
85.54645872406725
 31
0.0
  0
LINE
  5
62
  8
0
 10
294.47188435715339
 20
87.314225677033605
 30
0.0
 11
294.11833096655999
 21
86.960672286440342
 31
0.0
  0
LINE
  5
63
  8
0
 10
294.11833096655999
 20
86.960672286440342
 30
0.0
 11
292.35056401359031
 21
88.728439239410235
 31
0.0
  0
LINE
  5
64
  8
0
 10
297.3003114819029
 20
83.778691771097485
 30
0.0
 11
295.53254452893322
 21
85.54645872406725
 31
0.0
  0
LINE
  5
65
  8
0
 10
294.37174501087281
 20
84.263607428238785
 30
0.0
 11
296.07848607495862
 21
82.556866364153123
 31
0.0
  0
LINE
  5
66
  8
0
 10
290.04820941626667
 20
77.900012114660569
 30
0.0
 11
289.1287386066457
 21
77.900012114660569
 31
0.0
  0
LINE
  5
67
  8
0
 10
290.6287386066457
 20
81.192356757813883
 30
0.0
 11
290.04820941626667
 21
77.900012114660569
 31
0.0
  0
LINE
  5
68
  8
0
 10
290.80754904873072
 20
81.549977641983915
 30
0.0
 11
290.6287386066457
 21
81.192356757813883
 31
0.0
  0
ARC
  5
69
  8
0
 10
293.31108483909298
 20
83.20294725645897
 30
0.0
 40
1.5
 50
44.999854289297502
 51
247.91172247035249
  0
ARC
  5
6A
  8
0
 10
293.87513687632628
 20
84.592855634480003
 30
0.0
 40
3.0
 50
247.9117224703526
 51
317.2607396838938
  0
ARC
  5
6B
  8
0
 10
293.31108483909298
 20
83.20294725645897
 30
0.0
 40
3.0000000000000009
 50
213.43494882292831
 51
351.43169037671652
  0
LINE
  5
6C
  8
0
 10
287.12873860664581
 20
183.9000121146606
 30
0.0
 11
287.12873860664479
 21
93.900012114660584
 31
0.0
  0
LINE
  5
6D
  8
0
 10
289.1287386066457
 20
77.900012114660569
 30
0.0
 11
289.12873860664581
 21
81.546458724063825
 31
0.0
  0
ARC
  5
6E
  8
0
 10
296.12873860664581
 20
171.07008582740431
 30
0.0
 40
1.0
 50
0.0000000000071753
 51
79.380344723845226
  0
ARC
  5
6F
  8
0
 10
305.62873860664581
 20
165.9000121146606
 30
0.0
 40
1.0
 50
0.0
 51
90.0
  0
LINE
  5
70
  8
0
 10
306.6287386066457
 20
130.62531982234219
 30
0.0
 11
303.11964210077213
 21
85.666567712666478
 31
0.0
  0
LINE
  5
71
  8
0
 10
294.6287386066457
 20
102.9000121146625
 30
0.0
 11
294.6287386066457
 21
109.90001211465859
 31
0.0
  0
LINE
  5
72
  8
0
 10
294.6287386066457
 20
109.90001211465859
 30
0.0
 11
292.1287386066457
 21
109.90001211465859
 31
0.0
  0
LINE
  5
73
  8
0
 10
292.1287386066457
 20
109.90001211465859
 30
0.0
 11
292.1287386066457
 21
102.9000121146625
 31
0.0
  0
LINE
  5
74
  8
0
 10
294.6287386066457
 20
102.9000121146625
 30
0.0
 11
292.1287386066457
 21
102.9000121146625
 31
0.0
  0
LINE
  5
75
  8
0
 10
245.7176289043872
 20
215.5710215980609
 30
0.0
 11
132.7176289043872
 21
215.57102159806101
 31
0.0
  0
LINE
  5
76
  8
0
 10
239.21762890438731
 20
238.07102159806101
 30
0.0
 11
239.21762890438731
 21
215.57102159806101
 31
0.0
  0
LINE
  5
77
  8
0
 10
246.71762890438731
 20
218.57102159806109
 30
0.0
 11
246.71762890438731
 21
216.57102159806101
 31
0.0
  0
LINE
  5
78
  8
0
 10
131.7176289043872
 20
218.57102159806101
 30
0.0
 11
131.7176289043872
 21
216.57102159806101
 31
0.0
  0
LINE
  5
79
  8
0
 10
139.21762890438731
 20
238.07102159806101
 30
0.0
 11
139.21762890438731
 21
215.57102159806101
 31
0.0
  0
LINE
  5
7A
  8
0
 10
131.7176289043872
 20
218.57102159806101
 30
0.0
 11
246.7176289043872
 21
218.57102159806101
 31
0.0
  0
LINE
  5
7B
  8
0
 10
139.21762890438731
 20
220.5710215980607
 30
0.0
 11
239.2176289043872
 21
220.5710215980607
 31
0.0
  0
LINE
  5
7C
  8
0
 10
139.21762890438731
 20
225.5710215980609
 30
0.0
 11
239.2176289043872
 21
225.5710215980609
 31
0.0
  0
LINE
  5
7D
  8
0
 10
138.71762890438731
 20
228.5710215980609
 30
0.0
 11
239.71762890438731
 21
228.57102159806101
 31
0.0
  0
LINE
  5
7E
  8
0
 10
139.21762890438731
 20
231.0210215980629
 30
0.0
 11
239.2176289043872
 21
231.0210215980629
 31
0.0
  0
LINE
  5
7F
  8
0
 10
139.21762890438731
 20
235.12102159806091
 30
0.0
 11
239.2176289043872
 21
235.12102159806091
 31
0.0
  0
LINE
  5
80
  8
0
 10
138.71762890438731
 20
238.0710215980609
 30
0.0
 11
239.71762890438731
 21
238.07102159806101
 31
0.0
  0
ARC
  5
81
  8
0
 10
132.7176289043872
 20
216.57102159806101
 30
0.0
 40
1.0
 50
180.0
 51
269.99999999999989
  0
ARC
  5
82
  8
0
 10
245.7176289043872
 20
216.57102159806101
 30
0.0
 40
1.0
 50
270.0
 51
0.0
  0
LINE
  5
83
  8
0
 10
137.71762890438731
 20
237.0710215980609
 30
0.0
 11
137.71762890438731
 21
218.57102159806101
 31
0.0
  0
LINE
  5
84
  8
0
 10
240.71762890438731
 20
237.07102159806101
 30
0.0
 11
240.71762890438731
 21
218.57102159806109
 31
0.0
  0
ARC
  5
85
  8
0
 10
138.71762890438731
 20
237.0710215980609
 30
0.0
 40
1.0
 50
90.0
 51
179.99999999999989
  0
ARC
  5
86
  8
0
 10
239.71762890438731
 20
237.07102159806101
 30
0.0
 40
1.0
 50
0.0000000000000763
 51
89.999999999999943
  0
ARC
  5
87
  8
0
 10
138.71762890438731
 20
227.5710215980609
 30
0.0
 40
1.0
 50
90.000000000000014
 51
179.99999999999989
  0
ARC
  5
88
  8
0
 10
239.71762890438731
 20
227.5710215980609
 30
0.0
 40
1.0
 50
0.0
 51
89.999999999999943
  0
LINE
  5
89
  8
1
 10
189.2176289043872
 20
243.07102159806101
 30
0.0
 11
189.2176289043872
 21
210.57102159806101
 31
0.0
  0
LINE
  5
8A
  8
0
 10
234.21762890438731
 20
235.12102159806091
 30
0.0
 11
234.21762890438731
 21
231.0210215980629
 31
0.0
  0
LINE
  5
8B
  8
0
 10
144.21762890438731
 20
235.12102159806091
 30
0.0
 11
144.21762890438731
 21
231.0210215980629
 31
0.0
  0
LINE
  5
8C
  8
0
 10
144.21762890438731
 20
39.729002631260151
 30
0.0
 11
144.21762890438731
 21
43.229002631260151
 31
0.0
  0
LINE
  5
8D
  8
1
 10
189.2176289043872
 20
34.72900263126013
 30
0.0
 11
189.2176289043872
 21
67.22900263126013
 31
0.0
  0
ARC
  5
8E
  8
0
 10
138.71762890438731
 20
44.229002631260158
 30
0.0
 40
1.0
 50
180.00000000000011
 51
270.0
  0
ARC
  5
8F
  8
0
 10
138.71762890438731
 20
40.729002631260151
 30
0.0
 40
1.0
 50
180.00000000000011
 51
270.0
  0
LINE
  5
90
  8
0
 10
137.71762890438731
 20
40.729002631260151
 30
0.0
 11
137.71762890438731
 21
59.229002631260073
 31
0.0
  0
ARC
  5
91
  8
0
 10
132.7176289043872
 20
61.229002631260158
 30
0.0
 40
1.0
 50
90.000000000000057
 51
180.0
  0
LINE
  5
92
  8
0
 10
138.71762890438731
 20
39.729002631260158
 30
0.0
 11
239.71762890438731
 21
39.729002631260101
 31
0.0
  0
LINE
  5
93
  8
0
 10
138.71762890438731
 20
43.229002631260151
 30
0.0
 11
239.71762890438731
 21
43.22900263126013
 31
0.0
  0
LINE
  5
94
  8
0
 10
139.21762890438731
 20
46.229002631260123
 30
0.0
 11
239.2176289043872
 21
46.229002631260123
 31
0.0
  0
LINE
  5
95
  8
0
 10
139.21762890438731
 20
54.88585688075247
 30
0.0
 11
144.21762890438731
 21
54.885856880752478
 31
0.0
  0
LINE
  5
96
  8
0
 10
131.7176289043872
 20
59.229002631260101
 30
0.0
 11
246.7176289043872
 21
59.229002631260073
 31
0.0
  0
LINE
  5
97
  8
0
 10
139.21762890438731
 20
39.729002631260101
 30
0.0
 11
139.21762890438731
 21
62.229002631260158
 31
0.0
  0
LINE
  5
98
  8
0
 10
131.7176289043872
 20
59.229002631260101
 30
0.0
 11
131.7176289043872
 21
61.229002631260158
 31
0.0
  0
LINE
  5
99
  8
0
 10
245.7176289043872
 20
62.22900263126018
 30
0.0
 11
132.7176289043872
 21
62.229002631260158
 31
0.0
  0
LINE
  5
9A
  8
0
 10
139.21762890438731
 20
52.239410271349229
 30
0.0
 11
144.21762890438731
 21
52.239410271349243
 31
0.0
  0
LINE
  5
9B
  8
0
 10
139.21762890438731
 20
51.178750099569442
 30
0.0
 11
144.21762890438731
 21
51.178750099569442
 31
0.0
  0
LINE
  5
9C
  8
0
 10
139.21762890438731
 20
50.118089927782741
 30
0.0
 11
144.21762890438731
 21
50.118089927782741
 31
0.0
  0
LINE
  5
9D
  8
0
 10
144.21762890438731
 20
40.729002631260158
 30
0.0
 11
234.2176289043872
 21
40.729002631260158
 31
0.0
  0
LINE
  5
9E
  8
0
 10
246.71762890438731
 20
59.229002631260101
 30
0.0
 11
246.71762890438731
 21
61.229002631260158
 31
0.0
  0
LINE
  5
9F
  8
0
 10
239.2176289043872
 20
39.729002631260101
 30
0.0
 11
239.2176289043872
 21
62.229002631260158
 31
0.0
  0
ARC
  5
A0
  8
0
 10
245.7176289043872
 20
61.229002631260158
 30
0.0
 40
1.0
 50
0.0
 51
89.999999999999957
  0
LINE
  5
A1
  8
0
 10
240.7176289043872
 20
40.729002631260151
 30
0.0
 11
240.7176289043872
 21
59.229002631260073
 31
0.0
  0
ARC
  5
A2
  8
0
 10
239.7176289043872
 20
40.729002631260151
 30
0.0
 40
1.0
 50
270.00000000000011
 51
360.0
  0
ARC
  5
A3
  8
0
 10
239.7176289043872
 20
44.229002631260158
 30
0.0
 40
1.0
 50
270.00000000000011
 51
360.0
  0
LINE
  5
A4
  8
0
 10
234.2176289043872
 20
39.729002631260151
 30
0.0
 11
234.2176289043872
 21
43.229002631260151
 31
0.0
  0
LINE
  5
A5
  8
0
 10
144.21762890438731
 20
49.057429756002961
 30
0.0
 11
144.21762890438731
 21
57.229002631260158
 31
0.0
  0
LINE
  5
A6
  8
0
 10
144.21762890438731
 20
57.229002631260158
 30
0.0
 11
234.2176289043872
 21
57.229002631260173
 31
0.0
  0
LINE
  5
A7
  8
0
 10
144.21762890438731
 20
56.309531821639169
 30
0.0
 11
234.2176289043872
 21
56.309531821639169
 31
0.0
  0
LINE
  5
A8
  8
0
 10
144.21762890438731
 20
55.550192189175071
 30
0.0
 11
234.2176289043872
 21
55.5501921891751
 31
0.0
  0
LINE
  5
A9
  8
0
 10
144.21762890438731
 20
50.080139584776589
 30
0.0
 11
234.2176289043872
 21
50.080139584776603
 31
0.0
  0
LINE
  5
AA
  8
0
 10
144.21762890438731
 20
49.057429756002961
 30
0.0
 11
234.2176289043872
 21
49.057429756002961
 31
0.0
  0
LINE
  5
AB
  8
0
 10
234.2176289043872
 20
49.057429756002961
 30
0.0
 11
234.2176289043872
 21
57.229002631260173
 31
0.0
  0
LINE
  5
AC
  8
0
 10
234.2176289043872
 20
54.885856880752478
 30
0.0
 11
239.2176289043872
 21
54.88585688075247
 31
0.0
  0
LINE
  5
AD
  8
0
 10
234.2176289043872
 20
52.239410271349243
 30
0.0
 11
239.2176289043872
 21
52.239410271349229
 31
0.0
  0
LINE
  5
AE
  8
0
 10
234.2176289043872
 20
51.178750099569442
 30
0.0
 11
239.21762890438731
 21
51.178750099569442
 31
0.0
  0
LINE
  5
AF
  8
0
 10
234.2176289043872
 20
50.118089927782741
 30
0.0
 11
239.2176289043872
 21
50.118089927782741
 31
0.0
  0
ARC
  5
B0
  8
0
 10
287.00542892841418
 20
175.98919223430809
 30
0.0
 40
1.0
 50
300.00000000004201
 51
53.130102354172799
  0
LINE
  5
B1
  8
0
 10
287.12873860664592
 20
174.90568457184921
 30
0.0
 11
287.50542892841491
 21
175.12316683052401
 31
0.0
  0
LINE
  5
B2
  8
0
 10
287.60542892841391
 20
176.7891922343083
 30
0.0
 11
287.32873860664603
 21
176.9967099756341
 31
0.0
  0
ARC
  5
B3
  8
0
 10
287.62873860664592
 20
177.3967099756342
 30
0.0
 40
0.5
 50
180.00000000000011
 51
233.13010235417261
  0
ARC
  5
B4
  8
0
 10
287.62873860664592
 20
179.91771800498091
 30
0.0
 40
0.5
 50
53.615648184164627
 51
180.00000000000051
  0
LINE
  5
B5
  8
0
 10
293.92533812567081
 20
174.793930134184
 30
0.0
 11
287.92533812567081
 21
180.32024592365761
 31
0.0
  0
ARC
  5
B6
  8
0
 10
293.62873860664592
 20
174.3914022155073
 30
0.0
 40
0.5
 50
0.0
 51
53.61564818416457
  0
LINE
  5
B7
  8
0
 10
294.12873860664592
 20
173.8967099756415
 30
0.0
 11
294.12873860664592
 21
174.3914022155073
 31
0.0
  0
ARC
  5
B8
  8
0
 10
293.62873860664592
 20
173.8967099756415
 30
0.0
 40
0.5
 50
270.0000000000033
 51
0.0
  0
ARC
  5
B9
  8
0
 10
293.62873860664598
 20
172.8967099756342
 30
0.0
 40
0.5
 50
90.000000000006509
 51
179.99999999999841
  0
ARC
  5
BA
  8
2
 10
293.62873860664592
 20
168.84407839667949
 30
0.0
 40
0.5
 50
0.0
 51
89.999999999996746
  0
ARC
  5
BB
  8
2
 10
293.62873860664598
 20
169.8440783966868
 30
0.0
 40
0.5
 50
180.00000000000151
 51
269.99999999999352
  0
ARC
  5
BC
  8
2
 10
293.62873860664592
 20
168.34938615681369
 30
0.0
 40
0.5
 50
306.38435181583537
 51
0.0
  0
ARC
  5
BD
  8
2
 10
286.12873860664592
 20
162.82307036734011
 30
0.0
 40
0.5
 50
179.99999999999949
 51
306.38435181583537
  0
ARC
  5
BE
  8
2
 10
286.12873860664592
 20
165.3440783966868
 30
0.0
 40
0.5
 50
126.86989764582739
 51
179.99999999999989
  0
ARC
  5
BF
  8
2
 10
286.6287386066457
 20
166.96907839668609
 30
0.0
 40
0.5
 50
306.86989764582688
 51
359.99999999999631
  0
LINE
  5
C0
  8
2
 10
286.9287386066456
 20
166.569078396686
 30
0.0
 11
285.82873860664608
 21
165.74407839668689
 31
0.0
  0
LINE
  5
C1
  8
2
 10
285.62873860664592
 20
165.3440783966868
 30
0.0
 11
285.62873860664592
 21
162.82307036734011
 31
0.0
  0
LINE
  5
C2
  8
2
 10
294.12873860664592
 20
168.84407839667949
 30
0.0
 11
294.12873860664592
 21
168.34938615681369
 31
0.0
  0
LINE
  5
C3
  8
2
 10
293.92533812567081
 20
167.946858238137
 30
0.0
 11
286.42533812567081
 21
162.42054244866341
 31
0.0
  0
LINE
  5
C4
  8
2
 10
293.12873860664598
 20
169.8440783966868
 30
0.0
 11
293.12873860664592
 21
172.89671379033149
 31
0.0
  0
ARC
  5
C5
  8
0
 10
91.429828880360333
 20
175.98919223430809
 30
0.0
 40
1.0
 50
126.86989764582719
 51
239.99999999995811
  0
LINE
  5
C6
  8
0
 10
91.306519202128584
 20
174.90568457184921
 30
0.0
 11
90.929828880359651
 21
175.12316683052401
 31
0.0
  0
LINE
  5
C7
  8
0
 10
90.829828880360537
 20
176.7891922343083
 30
0.0
 11
91.106519202128482
 21
176.9967099756341
 31
0.0
  0
ARC
  5
C8
  8
0
 10
90.806519202128584
 20
177.3967099756342
 30
0.0
 40
0.5
 50
306.86989764582751
 51
360.0
  0
ARC
  5
C9
  8
0
 10
90.806519202128584
 20
179.91771800498091
 30
0.0
 40
0.5
 50
359.9999999999996
 51
126.3843518158354
  0
LINE
  5
CA
  8
0
 10
84.509919683103703
 20
174.793930134184
 30
0.0
 11
90.509919683103703
 21
180.32024592365761
 31
0.0
  0
ARC
  5
CB
  8
0
 10
84.806519202128584
 20
174.3914022155073
 30
0.0
 40
0.5
 50
126.3843518158354
 51
180.0
  0
LINE
  5
CC
  8
0
 10
84.306519202128584
 20
173.8967099756415
 30
0.0
 11
84.306519202128584
 21
174.3914022155073
 31
0.0
  0
ARC
  5
CD
  8
0
 10
84.806519202128584
 20
173.8967099756415
 30
0.0
 40
0.5
 50
180.0
 51
269.99999999999682
  0
ARC
  5
CE
  8
0
 10
84.806519202128484
 20
172.8967099756342
 30
0.0
 40
0.5
 50
0.0000000000015776
 51
89.999999999993506
  0
ARC
  5
CF
  8
2
 10
84.806519202128584
 20
168.84407839667949
 30
0.0
 40
0.5
 50
90.000000000003283
 51
180.0
  0
ARC
  5
D0
  8
2
 10
84.806519202128484
 20
169.8440783966868
 30
0.0
 40
0.5
 50
270.00000000000648
 51
359.99999999999841
  0
ARC
  5
D1
  8
2
 10
84.806519202128584
 20
168.34938615681369
 30
0.0
 40
0.5
 50
180.0
 51
233.6156481841646
  0
ARC
  5
D2
  8
2
 10
92.306519202128584
 20
162.82307036734011
 30
0.0
 40
0.5
 50
233.6156481841646
 51
0.0000000000004834
  0
ARC
  5
D3
  8
2
 10
92.306519202128584
 20
165.3440783966868
 30
0.0
 40
0.5
 50
0.0000000000000763
 51
53.130102354172649
  0
ARC
  5
D4
  8
2
 10
91.806519202128811
 20
166.96907839668609
 30
0.0
 40
0.5
 50
180.00000000000369
 51
233.1301023541732
  0
LINE
  5
D5
  8
2
 10
91.50651920212897
 20
166.569078396686
 30
0.0
 11
92.606519202128425
 21
165.74407839668689
 31
0.0
  0
LINE
  5
D6
  8
2
 10
92.806519202128584
 20
165.3440783966868
 30
0.0
 11
92.806519202128584
 21
162.82307036734011
 31
0.0
  0
LINE
  5
D7
  8
2
 10
84.306519202128584
 20
168.84407839667949
 30
0.0
 11
84.306519202128584
 21
168.34938615681369
 31
0.0
  0
LINE
  5
D8
  8
2
 10
84.509919683103703
 20
167.946858238137
 30
0.0
 11
92.009919683103703
 21
162.42054244866341
 31
0.0
  0
LINE
  5
D9
  8
2
 10
85.30651920212847
 20
169.8440783966868
 30
0.0
 11
85.306519202128584
 21
172.89671379033149
 31
0.0
  0
LINE
  5
DA
  8
0
 10
81.306519202128825
 20
171.90001211466051
 30
0.0
 11
89.306519202129095
 21
173.40001211466051
 31
0.0
  0
ARC
  5
DB
  8
0
 10
72.806519202128811
 20
169.9000121146606
 30
0.0
 40
1.0
 50
89.999999999999986
 51
179.99999999999989
  0
LINE
  5
DC
  8
0
 10
94.306519202128811
 20
182.9000121146606
 30
0.0
 11
94.306519202128811
 21
94.900012114660584
 31
0.0
  0
LINE
  5
DD
  8
0
 10
93.306519202128811
 20
183.9000121146606
 30
0.0
 11
91.306519202128825
 21
183.9000121146606
 31
0.0
  0
LINE
  5
DE
  8
0
 10
71.806519202128811
 20
169.9000121146606
 30
0.0
 11
71.806519202128811
 21
130.62531982234239
 31
0.0
  0
LINE
  5
DF
  8
0
 10
81.306519202128683
 20
170.90001211466051
 30
0.0
 11
78.856519202126833
 21
170.90001211466051
 31
0.0
  0
LINE
  5
E0
  8
0
 10
74.756519202128857
 20
170.90001211466051
 30
0.0
 11
74.756519202128857
 21
168.90001211466051
 31
0.0
  0
LINE
  5
E1
  8
0
 10
74.756519202128857
 20
168.90001211466051
 30
0.0
 11
73.306519202128925
 21
168.90001211466051
 31
0.0
  0
LINE
  5
E2
  8
0
 10
73.306519202128925
 20
168.90001211466051
 30
0.0
 11
73.306519202128925
 21
166.90001211466051
 31
0.0
  0
LINE
  5
E3
  8
0
 10
72.806519202128754
 20
166.9000121146606
 30
0.0
 11
81.306519202128186
 21
166.90001211466051
 31
0.0
  0
LINE
  5
E4
  8
0
 10
80.306519202126879
 20
168.90001211466051
 30
0.0
 11
80.306519202126879
 21
166.90001211466051
 31
0.0
  0
LINE
  5
E5
  8
0
 10
78.856519202126833
 20
168.90001211466051
 30
0.0
 11
80.306519202126879
 21
168.90001211466051
 31
0.0
  0
LINE
  5
E6
  8
0
 10
78.856519202126833
 20
170.90001211466051
 30
0.0
 11
78.856519202126833
 21
168.90001211466051
 31
0.0
  0
LINE
  5
E7
  8
0
 10
74.756519202128857
 20
170.90001211466051
 30
0.0
 11
72.806519202128811
 21
170.9000121146606
 31
0.0
  0
LINE
  5
E8
  8
0
 10
81.306519202128186
 20
166.90001211466051
 30
0.0
 11
81.306519202128825
 21
171.90001211466051
 31
0.0
  0
LINE
  5
E9
  8
0
 10
89.306519202129095
 20
173.40001211466051
 30
0.0
 11
91.306519202128825
 21
173.40001211466051
 31
0.0
  0
ARC
  5
EA
  8
0
 10
78.306519202128811
 20
85.900012114660569
 30
0.0
 40
3.0000000000000071
 50
184.46297140152259
 51
315.00000000000023
  0
LINE
  5
EB
  8
0
 10
84.463774623614427
 20
95.299105879278969
 30
0.0
 11
86.084691097782525
 21
93.678189405110942
 31
0.0
  0
ARC
  5
EC
  8
0
 10
83.963373451621123
 20
91.556866364152967
 30
0.0
 40
3.0000000000000071
 50
315.0
 51
45.00007285532304
  0
LINE
  5
ED
  8
0
 10
80.427839545688514
 20
83.778691771100881
 30
0.0
 11
86.084693795180783
 21
89.435546020593335
 31
0.0
  0
LINE
  5
EE
  8
0
 10
91.306519202128825
 20
93.900012114660584
 30
0.0
 11
93.306519202128811
 21
93.900012114660584
 31
0.0
  0
ARC
  5
EF
  8
0
 10
93.306519202128811
 20
94.900012114660584
 30
0.0
 40
1.0
 50
270.00000000000011
 51
0.0
  0
ARC
  5
F0
  8
0
 10
93.306519202128811
 20
182.9000121146606
 30
0.0
 40
1.0
 50
0.0000000000000509
 51
89.999999999999446
  0
LINE
  5
F1
  8
0
 10
91.306519202128825
 20
100.9000121146605
 30
0.0
 11
90.450486923954486
 21
100.9000121146606
 31
0.0
  0
ARC
  5
F2
  8
0
 10
90.450486923954486
 20
94.900012114660598
 30
0.0
 40
6.0
 50
89.999999999999204
 51
176.18611943258659
  0
LINE
  5
F3
  8
0
 10
86.084693795184194
 20
88.728439239410235
 30
0.0
 11
87.306519202128811
 21
87.506613832465703
 31
0.0
  0
LINE
  5
F4
  8
0
 10
87.306519202128811
 20
85.546458724063839
 30
0.0
 11
87.306519202128811
 21
87.506613832465732
 31
0.0
  0
LINE
  5
F5
  8
0
 10
81.134946326871614
 20
83.778691771097485
 30
0.0
 11
82.356771733816004
 21
82.556866364153009
 31
0.0
  0
LINE
  5
F6
  8
0
 10
87.306519202128683
 20
85.546458724063839
 30
0.0
 11
89.306519202128698
 21
81.546458724063825
 31
0.0
  0
LINE
  5
F7
  8
0
 10
82.549159889248074
 20
85.90001211466047
 30
0.0
 11
82.902713279841336
 21
85.54645872406725
 31
0.0
  0
LINE
  5
F8
  8
0
 10
83.963373451621123
 20
87.314225677033605
 30
0.0
 11
84.316926842214457
 21
86.960672286440342
 31
0.0
  0
LINE
  5
F9
  8
0
 10
84.316926842214457
 20
86.960672286440342
 30
0.0
 11
86.084693795184194
 21
88.728439239410235
 31
0.0
  0
LINE
  5
FA
  8
0
 10
81.134946326871614
 20
83.778691771097485
 30
0.0
 11
82.902713279841336
 21
85.54645872406725
 31
0.0
  0
LINE
  5
FB
  8
0
 10
84.063512797901694
 20
84.263607428238785
 30
0.0
 11
82.35677173381589
 21
82.556866364153123
 31
0.0
  0
LINE
  5
FC
  8
0
 10
88.387048392507836
 20
77.900012114660569
 30
0.0
 11
89.306519202128811
 21
77.900012114660569
 31
0.0
  0
LINE
  5
FD
  8
0
 10
87.806519202128797
 20
81.192356757813883
 30
0.0
 11
88.387048392507836
 21
77.900012114660569
 31
0.0
  0
LINE
  5
FE
  8
0
 10
87.627708760043788
 20
81.549977641983915
 30
0.0
 11
87.806519202128797
 21
81.192356757813883
 31
0.0
  0
ARC
  5
FF
  8
0
 10
85.124172969681467
 20
83.20294725645897
 30
0.0
 40
1.5
 50
292.0882775296476
 51
135.0001457107025
  0
ARC
  5
100
  8
0
 10
84.560120932448285
 20
84.592855634480003
 30
0.0
 40
3.0
 50
222.7392603161062
 51
292.08827752964743
  0
ARC
  5
101
  8
0
 10
85.124172969681467
 20
83.20294725645897
 30
0.0
 40
3.0000000000000009
 50
188.56830962328351
 51
326.56505117707172
  0
LINE
  5
102
  8
0
 10
91.306519202128683
 20
183.9000121146606
 30
0.0
 11
91.306519202129664
 21
93.900012114660584
 31
0.0
  0
LINE
  5
103
  8
0
 10
89.306519202128811
 20
77.900012114660569
 30
0.0
 11
89.306519202128698
 21
81.546458724063825
 31
0.0
  0
ARC
  5
104
  8
0
 10
82.306519202128683
 20
171.07008582740431
 30
0.0
 40
1.0
 50
100.6196552761547
 51
179.99999999999281
  0
ARC
  5
105
  8
0
 10
72.806519202128754
 20
165.9000121146606
 30
0.0
 40
1.0
 50
90.0
 51
180.0
  0
LINE
  5
106
  8
0
 10
71.806519202128811
 20
130.62531982234219
 30
0.0
 11
75.315615708002383
 21
85.666567712666478
 31
0.0
  0
LINE
  5
107
  8
0
 10
83.806519202128825
 20
102.9000121146625
 30
0.0
 11
83.806519202128825
 21
109.90001211465859
 31
0.0
  0
LINE
  5
108
  8
0
 10
83.806519202128825
 20
109.90001211465859
 30
0.0
 11
86.306519202128825
 21
109.90001211465859
 31
0.0
  0
LINE
  5
109
  8
0
 10
86.306519202128825
 20
109.90001211465859
 30
0.0
 11
86.306519202128825
 21
102.9000121146625
 31
0.0
  0
LINE
  5
10A
  8
0
 10
83.806519202128825
 20
102.9000121146625
 30
0.0
 11
86.306519202128825
 21
102.9000121146625
 31
0.0
  0
TEXT
  5
269
  8
0
 62
     3
 10
0.0
 20
0.0
 30
0.0
 40
10.0
  1
TR2-100A
  7
STANDARD1
  0
ENDSEC
  0
EOF
