  0
SECTION
  2
HEADER
  9
$ACADVER
  1
AC1009
  9
$INSBASE
 10
0.0
 20
0.0
 30
0.0
  9
$EXTMIN
 10
0.0
 20
-2.9604365620736979
 30
0.0
  9
$EXTMAX
 10
271.0858204369913
 20
182.42913665030659
 30
0.0
  9
$LIMMIN
 10
0.0
 20
0.0
  9
$LIMMAX
 10
385.0
 20
270.0
  9
$ORTHOMODE
 70
     1
  9
$REGENMODE
 70
     1
  9
$FILLMODE
 70
     1
  9
$QTEXTMODE
 70
     0
  9
$MIRRTEXT
 70
     0
  9
$DRAGMODE
 70
     2
  9
$LTSCALE
 40
5.0
  9
$OSMODE
 70
    37
  9
$ATTMODE
 70
     1
  9
$TEXTSIZE
 40
4.0
  9
$TRACEWID
 40
0.05
  9
$TEXTSTYLE
  7
STANDARD
  9
$CLAYER
  8
0
  9
$CELTYPE
  6
BYLAYER
  9
$CECOLOR
 62
   256
  9
$DIMSCALE
 40
1.0
  9
$DIMASZ
 40
3.0
  9
$DIMEXO
 40
1.0
  9
$DIMDLI
 40
6.0
  9
$DIMRND
 40
0.0
  9
$DIMDLE
 40
0.0
  9
$DIMEXE
 40
1.0
  9
$DIMTP
 40
495.0
  9
$DIMTM
 40
0.0
  9
$DIMTXT
 40
3.0
  9
$DIMCEN
 40
0.0
  9
$DIMTSZ
 40
0.0
  9
$DIMTOL
 70
     0
  9
$DIMLIM
 70
     0
  9
$DIMTIH
 70
     0
  9
$DIMTOH
 70
     0
  9
$DIMSE1
 70
     0
  9
$DIMSE2
 70
     0
  9
$DIMTAD
 70
     1
  9
$DIMZIN
 70
     8
  9
$DIMBLK
  1

  9
$DIMASO
 70
     1
  9
$DIMSHO
 70
     0
  9
$DIMPOST
  1

  9
$DIMAPOST
  1

  9
$DIMALT
 70
     0
  9
$DIMALTD
 70
     2
  9
$DIMALTF
 40
25.399999999999999
  9
$DIMLFAC
 40
1.0
  9
$DIMTOFL
 70
     1
  9
$DIMTVP
 40
0.0
  9
$DIMTIX
 70
     0
  9
$DIMSOXD
 70
     0
  9
$DIMSAH
 70
     0
  9
$DIMBLK1
  1

  9
$DIMBLK2
  1

  9
$DIMSTYLE
  2
STANDARD
  9
$DIMCLRD
 70
     0
  9
$DIMCLRE
 70
     0
  9
$DIMCLRT
 70
     0
  9
$DIMTFAC
 40
1.0
  9
$DIMGAP
 40
1.0
  9
$LUNITS
 70
     2
  9
$LUPREC
 70
     1
  9
$SKETCHINC
 40
0.1
  9
$FILLETRAD
 40
2.0
  9
$AUNITS
 70
     0
  9
$AUPREC
 70
     1
  9
$MENU
  1
E:\r13\win\SUPPORT\ACAD
  9
$ELEVATION
 40
0.0
  9
$PELEVATION
 40
0.0
  9
$THICKNESS
 40
0.0
  9
$LIMCHECK
 70
     0
  9
$BLIPMODE
 70
     0
  9
$CHAMFERA
 40
0.0
  9
$CHAMFERB
 40
0.0
  9
$SKPOLY
 70
     0
  9
$TDCREATE
 40
2450541.3939600689
  9
$TDUPDATE
 40
2458232.6388772111
  9
$TDINDWG
 40
1.7995952199
  9
$TDUSRTIMER
 40
1.7995952199
  9
$USRTIMER
 70
     1
  9
$ANGBASE
 50
0.0
  9
$ANGDIR
 70
     0
  9
$PDMODE
 70
     0
  9
$PDSIZE
 40
0.0
  9
$PLINEWID
 40
0.0
  9
$COORDS
 70
     1
  9
$SPLFRAME
 70
     0
  9
$SPLINETYPE
 70
     6
  9
$SPLINESEGS
 70
     8
  9
$ATTDIA
 70
     0
  9
$ATTREQ
 70
     1
  9
$HANDLING
 70
     1
  9
$HANDSEED
  5
1CC58
  9
$SURFTAB1
 70
     6
  9
$SURFTAB2
 70
     6
  9
$SURFTYPE
 70
     6
  9
$SURFU
 70
     6
  9
$SURFV
 70
     6
  9
$UCSNAME
  2

  9
$UCSORG
 10
0.0
 20
0.0
 30
0.0
  9
$UCSXDIR
 10
1.0
 20
0.0
 30
0.0
  9
$UCSYDIR
 10
0.0
 20
1.0
 30
0.0
  9
$PUCSNAME
  2

  9
$PUCSORG
 10
0.0
 20
0.0
 30
0.0
  9
$PUCSXDIR
 10
1.0
 20
0.0
 30
0.0
  9
$PUCSYDIR
 10
0.0
 20
1.0
 30
0.0
  9
$USERI1
 70
     3
  9
$USERI2
 70
     1
  9
$USERI3
 70
     1
  9
$USERI4
 70
     0
  9
$USERI5
 70
     0
  9
$USERR1
 40
1.0
  9
$USERR2
 40
3.0
  9
$USERR3
 40
3.0
  9
$USERR4
 40
3.0
  9
$USERR5
 40
10.0
  9
$WORLDVIEW
 70
     1
  9
$SHADEDGE
 70
     3
  9
$SHADEDIF
 70
    70
  9
$TILEMODE
 70
     1
  9
$MAXACTVP
 70
    16
  9
$PLIMCHECK
 70
     0
  9
$PEXTMIN
 10
1.0000000000000000E+020
 20
1.0000000000000000E+020
 30
1.0000000000000000E+020
  9
$PEXTMAX
 10
-1.0000000000000000E+020
 20
-1.0000000000000000E+020
 30
-1.0000000000000000E+020
  9
$PLIMMIN
 10
0.0
 20
0.0
  9
$PLIMMAX
 10
12.0
 20
9.0
  9
$UNITMODE
 70
     0
  9
$VISRETAIN
 70
     0
  9
$PLINEGEN
 70
     0
  9
$PSLTSCALE
 70
     0
  0
ENDSEC
  0
SECTION
  2
TABLES
  0
TABLE
  2
VPORT
 70
     1
  0
VPORT
  2
*ACTIVE
 70
     0
 10
0.0
 20
0.0
 11
1.0
 21
1.0
 12
227.02991452991449
 22
125.0
 13
0.0
 23
0.0
 14
5.0
 24
5.0
 15
10.0
 25
10.0
 16
0.0
 26
0.0
 36
1.0
 17
0.0
 27
0.0
 37
0.0
 40
250.0
 41
1.816239316239316
 42
50.0
 43
0.0
 44
0.0
 50
0.0
 51
0.0
 71
     0
 72
   100
 73
     1
 74
     0
 75
     0
 76
     0
 77
     0
 78
     0
  0
ENDTAB
  0
TABLE
  2
LTYPE
 70
     4
  0
LTYPE
  2
CONTINUOUS
 70
     0
  3
Solid Line
 72
    65
 73
     0
 40
0.0
  0
LTYPE
  2
CENTER
 70
     0
  3
____ _ ____ _ ____ _ ____ _ ____ _ ____ _ ____
 72
    65
 73
     4
 40
2.0
 49
1.25
 49
-0.25
 49
0.25
 49
-0.25
  0
LTYPE
  2
HIDDEN
 70
     0
  3
_ _ _ _ _ _ _ _ _ _ _ _ _ _ _ _ _ _ _ _ _ _ _
 72
    65
 73
     2
 40
0.375
 49
0.25
 49
-0.125
  0
LTYPE
  2
PHANTOM2
 70
     0
  3
___ _ _ ___ _ _ ___ _ _ ___ _ _
 72
    65
 73
     6
 40
1.25
 49
0.625
 49
-0.125
 49
0.125
 49
-0.125
 49
0.125
 49
-0.125
  0
ENDTAB
  0
TABLE
  2
LAYER
 70
     6
  0
LAYER
  2
0
 70
     0
 62
     7
  6
CONTINUOUS
  0
LAYER
  2
1
 70
     0
 62
     1
  6
CENTER
  0
LAYER
  2
2
 70
     0
 62
     2
  6
HIDDEN
  0
LAYER
  2
DEFPOINTS
 70
     0
 62
     7
  6
CONTINUOUS
  0
LAYER
  2
4
 70
     0
 62
     4
  6
CONTINUOUS
  0
LAYER
  2
3
 70
     0
 62
     3
  6
CONTINUOUS
  0
ENDTAB
  0
TABLE
  2
STYLE
 70
     2
  0
STYLE
  2
STANDARD
 70
     0
 40
0.0
 41
1.0
 50
0.0
 71
     0
 42
4.0
  3
SIMPLEX
  4
BIGFONT
  0
STYLE
  2
STANDARD1
 70
     0
 40
0.0
 41
1.0
 50
0.0
 71
     0
 42
3.0
  3
txt
  4

  0
ENDTAB
  0
TABLE
  2
VIEW
 70
     0
  0
ENDTAB
  0
TABLE
  2
UCS
 70
     0
  0
ENDTAB
  0
TABLE
  2
APPID
 70
    43
  0
APPID
  2
ACAD
 70
     0
  0
APPID
  2
ASM_BASE
 70
     0
  0
APPID
  2
ASM_EXPLO_VER_2_00
 70
     0
  0
APPID
  2
ASM_CADM_VER_12_00
 70
     0
  0
APPID
  2
ASM_BASEFORO
 70
     0
  0
APPID
  2
ASM_BASETRAVI
 70
     0
  0
APPID
  2
ASM_BASETRAVI1
 70
     0
  0
APPID
  2
ASM_GRUPPI
 70
     0
  0
APPID
  2
ASM_CADM_ALBERO
 70
     0
  0
APPID
  2
ASM_GOLE
 70
     0
  0
APPID
  2
ACAD_EXEMPT_FROM_CAD_STANDARDS
 70
     0
  0
APPID
  2
ACAD_DSTYLE_DIMJAG
 70
     0
  0
APPID
  2
ACAD_DSTYLE_DIMTALN
 70
     0
  0
APPID
  2
ACAD_MLEADERVER
 70
     0
  0
APPID
  2
ACAD_NAV_VCDISPLAY
 70
     0
  0
APPID
  2
ACAD_DSTYLE_DIMRADIAL_EXTENSION
 70
     0
  0
APPID
  2
DCO15
 70
     0
  0
APPID
  2
ACADANNOTATIVE
 70
     0
  0
APPID
  2
GENIUS_GENODEF_13
 70
     0
  0
APPID
  2
GENIUS_GENFIL_13
 70
     0
  0
APPID
  2
GENIUS_GENOBJ-N-CHA_13
 70
     0
  0
APPID
  2
GENIUS_GENOREF_13
 70
     0
  0
APPID
  2
GENIUS_GENOENT_13
 70
     0
  0
APPID
  2
GENIUS_GENBH_13
 70
     0
  0
APPID
  2
GENIUS_GENOBJ_13
 70
     0
  0
APPID
  2
GENIUS_GENOLIS_13
 70
     0
  0
APPID
  2
GENIUS_GENOBJ-NBEHI-BHF_13
 70
     0
  0
APPID
  2
GENIUS_GENOBJ-NBEHI-BHB_13
 70
     0
  0
APPID
  2
GENIUS_GENOBJ-F-PART_13
 70
     0
  0
APPID
  2
GENIUS_GEFSTDP_13
 70
     0
  0
APPID
  2
GENIUS_GENOBJ-N-RSSYM_13
 70
     0
  0
APPID
  2
GENIUS_GENSYMENT_13
 70
     0
  0
APPID
  2
GENIUS_GENOBJ-N-TIT_13
 70
     0
  0
APPID
  2
GENIUS_GENTITLE_13
 70
     0
  0
APPID
  2
GENIUS_GENZVEED_13
 70
     0
  0
APPID
  2
GENIUS_GENOBJ-N-LEADER_13
 70
     0
  0
APPID
  2
GENIUS_GENOBJ-N-FIL_13
 70
     0
  0
APPID
  2
GENIUS_GENOBJ-N-SEC_13
 70
     0
  0
APPID
  2
GENIUS_GENOBJ-N-CRS_13
 70
     0
  0
APPID
  2
GENIUS_GENOBJ-N-ZOO_13
 70
     0
  0
APPID
  2
GENIUS_GENZOO_13
 70
     0
  0
APPID
  2
GENIUS_GENOBJ-F-TOL_13
 70
     0
  0
APPID
  2
_CALL_MAC$
 70
     0
  0
ENDTAB
  0
TABLE
  2
DIMSTYLE
 70
     1
  0
DIMSTYLE
  2
STANDARD
 70
     0
  3

  4

  5

  6

  7

 40
1.0
 41
0.18
 42
0.0625
 43
0.38
 44
0.18
 45
0.0
 46
0.0
 47
0.0
 48
0.0
140
0.18
141
0.09
142
0.0
143
25.399999999999999
144
1.0
145
0.0
146
1.0
147
0.09
 71
     0
 72
     0
 73
     1
 74
     1
 75
     0
 76
     0
 77
     0
 78
     0
170
     0
171
     2
172
     0
173
     0
174
     0
175
     0
176
     0
177
     0
178
     0
  0
ENDTAB
  0
ENDSEC
  0
SECTION
  2
BLOCKS
  0
BLOCK
  8
0
  2
$MODEL_SPACE
 70
     0
 10
0.0
 20
0.0
 30
0.0
  3
$MODEL_SPACE
  1

  0
ENDBLK
  5
1CD3
  8
0
  0
BLOCK
 67
     1
  8
0
  2
$PAPER_SPACE
 70
     0
 10
0.0
 20
0.0
 30
0.0
  3
$PAPER_SPACE
  1

  0
ENDBLK
  5
1CD1
 67
     1
  8
0
  0
ENDSEC
  0
SECTION
  2
ENTITIES
  0
TEXT
  5
13ED7
  8
0
 62
     3
 10
0.0
 20
-0.0000000000000284
 30
0.0
 40
10.0
  1
TRIK40-M8LP
  7
STANDARD1
  0
ARC
  5
13EED
  8
0
 10
184.08582043699121
 20
67.000000000042348
 30
0.0
 40
6.00000000000004
 50
353.78075155712179
 51
6.2192484428813888
  0
ARC
  5
13EEE
  8
0
 10
184.08582043699121
 20
67.000000000042348
 30
0.0
 40
6.0
 50
190.80692287527299
 51
318.18968510422371
  0
ARC
  5
13EEF
  8
0
 10
184.08582043699121
 20
67.000000000042348
 30
0.0
 40
6.0000000000000151
 50
41.810314895781801
 51
169.1930771255528
  0
ARC
  5
13EF0
  8
0
 10
184.08582043699121
 20
67.000000000042348
 30
0.0
 40
7.0
 50
34.849904579048591
 51
170.75164166245949
  0
ARC
  5
13EF1
  8
0
 10
184.08582043699121
 20
67.000000000042348
 30
0.0
 40
7.0000000000000107
 50
189.24835833824289
 51
325.15009542094998
  0
LINE
  5
13FE7
  8
0
 10
187.08582043699121
 20
70.400000000042326
 30
0.0
 11
187.08582043699121
 21
67.850000000042371
 31
0.0
  0
LINE
  5
13FE8
  8
0
 10
187.08582043699121
 20
66.150000000042326
 30
0.0
 11
187.08582043699121
 21
63.600000000042371
 31
0.0
  0
LINE
  5
13FE9
  8
0
 10
249.08582043699121
 20
66.500003952201098
 30
0.0
 11
249.08582043699121
 21
64.981550911002785
 31
0.0
  0
LINE
  5
13FEA
  8
0
 10
249.08582043699121
 20
69.018449088996988
 30
0.0
 11
249.08582043699121
 21
67.499956262894614
 31
0.0
  0
ARC
  5
13FEB
  8
0
 10
202.58582043699121
 20
67.000000000042348
 30
0.0
 40
2.2500000000000431
 50
65.375681647844985
 51
294.6485422359637
  0
ARC
  5
13FEC
  8
0
 10
220.58582043699121
 20
67.000000000042348
 30
0.0
 40
2.2499999999999969
 50
192.8395884069044
 51
347.16041159309719
  0
ARC
  5
13FED
  8
0
 10
244.58582043699121
 20
66.999999999999943
 30
0.0
 40
2.249999999999984
 50
192.83958840690761
 51
347.1604115930956
  0
ARC
  5
13FEE
  8
0
 10
238.58582043699121
 20
66.999999999999943
 30
0.0
 40
2.249999999999984
 50
192.83958840690761
 51
347.1604115930956
  0
ARC
  5
13FEF
  8
0
 10
214.58582043699121
 20
67.000000000042348
 30
0.0
 40
2.25000000000004
 50
192.83958840690281
 51
347.16041159309719
  0
ARC
  5
13FF0
  8
0
 10
226.58582043699121
 20
67.000000000042348
 30
0.0
 40
2.250000000000012
 50
192.83958840690599
 51
286.16814915248051
  0
ARC
  5
13FF1
  8
0
 10
232.58582043699121
 20
66.999999999999943
 30
0.0
 40
2.249999999999984
 50
192.8395884069044
 51
347.1604115930956
  0
ARC
  5
13FF2
  8
0
 10
208.58582043699121
 20
67.000000000042348
 30
0.0
 40
2.2500000000000342
 50
192.83958840690281
 51
347.16041159309719
  0
LINE
  5
13FF3
  8
0
 10
240.7795615338392
 20
66.499999999999943
 30
0.0
 11
242.39207934014311
 21
66.499999999999943
 31
0.0
  0
LINE
  5
13FF4
  8
0
 10
242.39207934014311
 20
67.499999999999943
 30
0.0
 11
240.7795615338392
 21
67.499999999999943
 31
0.0
  0
LINE
  5
13FF5
  8
0
 10
206.05444740358811
 20
66.500000000042348
 30
0.0
 11
206.3920793401432
 21
66.500000000042348
 31
0.0
  0
LINE
  5
13FF6
  8
0
 10
206.3920793401432
 20
67.500000000042334
 30
0.0
 11
206.05444740358789
 21
67.500000000042334
 31
0.0
  0
LINE
  5
13FF7
  8
0
 10
229.2072360581418
 20
66.499999999999943
 30
0.0
 11
230.39207934014311
 21
66.499999999999943
 31
0.0
  0
LINE
  5
13FF8
  8
0
 10
230.39207934014311
 20
67.499999999999943
 30
0.0
 11
229.98039421918261
 21
67.499999999999943
 31
0.0
  0
LINE
  5
13FF9
  8
0
 10
234.7795615338392
 20
66.499999999999943
 30
0.0
 11
236.39207934014311
 21
66.499999999999943
 31
0.0
  0
LINE
  5
13FFA
  8
0
 10
236.39207934014311
 20
67.499999999999943
 30
0.0
 11
234.7795615338392
 21
67.499999999999943
 31
0.0
  0
LINE
  5
13FFB
  8
0
 10
216.7795615338392
 20
66.500000000042348
 30
0.0
 11
218.39207934014311
 21
66.500000000042348
 31
0.0
  0
LINE
  5
13FFC
  8
0
 10
218.39207934014311
 20
67.500000000042334
 30
0.0
 11
216.7795615338392
 21
67.500000000042334
 31
0.0
  0
LINE
  5
13FFD
  8
0
 10
210.7795615338392
 20
66.500000000042348
 30
0.0
 11
212.39207934014311
 21
66.500000000042348
 31
0.0
  0
LINE
  5
13FFE
  8
0
 10
212.39207934014311
 20
67.500000000042334
 30
0.0
 11
210.7795615338392
 21
67.500000000042334
 31
0.0
  0
LINE
  5
13FFF
  8
0
 10
246.7795615338392
 20
66.499999999999943
 30
0.0
 11
249.08582043699121
 21
66.499999999999943
 31
0.0
  0
LINE
  5
14000
  8
0
 10
249.08582043699121
 20
67.499999999999943
 30
0.0
 11
246.7795615338392
 21
67.499999999999943
 31
0.0
  0
LINE
  5
14001
  8
0
 10
222.7795615338392
 20
66.500000000042348
 30
0.0
 11
224.39207934014311
 21
66.500000000042348
 31
0.0
  0
LINE
  5
14002
  8
0
 10
224.39207934014311
 20
67.500000000042334
 30
0.0
 11
222.7795615338392
 21
67.500000000042334
 31
0.0
  0
POLYLINE
  5
14003
  8
0
 66
     1
 10
0.0
 20
0.0
 30
0.0
 70
   128
  0
VERTEX
  5
1CAA3
  8
0
 10
187.08582043699121
 20
70.400000000042326
 30
0.0
  0
VERTEX
  5
1CAA4
  8
0
 10
187.08583829419041
 20
70.404629074258821
 30
0.0
  0
VERTEX
  5
1CAA5
  8
0
 10
187.3098920485387
 20
70.867630031964438
 30
0.0
  0
VERTEX
  5
1CAA6
  8
0
 10
187.68582043699109
 20
71.000000000042348
 30
0.0
  0
SEQEND
  5
1CAA7
  8
0
  0
LINE
  5
14004
  8
0
 10
192.58582043699121
 20
67.650000000042326
 30
0.0
 11
187.28582043401099
 21
67.650000000042326
 31
0.0
  0
POLYLINE
  5
14005
  8
0
 66
     1
 10
0.0
 20
0.0
 30
0.0
 70
   128
  0
VERTEX
  5
1CAA8
  8
0
 10
187.28582043401099
 20
67.650000000042326
 30
0.0
  0
VERTEX
  5
1CAA9
  8
0
 10
187.18920508981799
 20
67.67488439624077
 30
0.0
  0
VERTEX
  5
1CAAA
  8
0
 10
187.08583966783149
 20
67.847226560480919
 30
0.0
  0
VERTEX
  5
1CAAB
  8
0
 10
187.08582043699121
 20
67.850000000042371
 30
0.0
  0
SEQEND
  5
1CAAC
  8
0
  0
LINE
  5
14006
  8
0
 10
187.68582043699109
 20
71.000000000042348
 30
0.0
 11
202.08582043699121
 21
71.000000000042348
 31
0.0
  0
POLYLINE
  5
14007
  8
0
 66
     1
 10
0.0
 20
0.0
 30
0.0
 70
   128
  0
VERTEX
  5
1CAAD
  8
0
 10
187.08582043699121
 20
66.150000000042326
 30
0.0
  0
VERTEX
  5
1CAAE
  8
0
 10
187.08583966783149
 20
66.152773439603777
 30
0.0
  0
VERTEX
  5
1CAAF
  8
0
 10
187.18920509195041
 20
66.325115605020244
 30
0.0
  0
VERTEX
  5
1CAB0
  8
0
 10
187.2858204369912
 20
66.350000000042371
 30
0.0
  0
SEQEND
  5
1CAB1
  8
0
  0
POLYLINE
  5
14008
  8
0
 66
     1
 10
0.0
 20
0.0
 30
0.0
 70
   128
  0
VERTEX
  5
1CAB2
  8
0
 10
187.68582043699109
 20
63.000000000042228
 30
0.0
  0
VERTEX
  5
1CAB3
  8
0
 10
187.3098920485387
 20
63.132369968120152
 30
0.0
  0
VERTEX
  5
1CAB4
  8
0
 10
187.08583829419041
 20
63.595370925825883
 30
0.0
  0
VERTEX
  5
1CAB5
  8
0
 10
187.08582043699121
 20
63.600000000042371
 30
0.0
  0
SEQEND
  5
1CAB6
  8
0
  0
LINE
  5
14009
  8
0
 10
187.2858204369912
 20
66.350000000042371
 30
0.0
 11
192.88582043699111
 21
66.350000000042371
 31
0.0
  0
LINE
  5
1400A
  8
0
 10
202.08582043699121
 20
63.000000000042228
 30
0.0
 11
187.68582043699109
 21
63.000000000042228
 31
0.0
  0
LINE
  5
1400B
  8
0
 10
193.08582043699121
 20
65.850000000042371
 30
0.0
 11
193.08582043699121
 21
66.150000000042326
 31
0.0
  0
ARC
  5
1400C
  8
0
 10
192.88582043699111
 20
66.150000000042326
 30
0.0
 40
0.1999999999999886
 50
0.0
 51
90.0
  0
ARC
  5
1400D
  8
0
 10
192.58582043699121
 20
68.150000000042326
 30
0.0
 40
0.5
 50
270.0
 51
0.0
  0
ARC
  5
1400E
  8
0
 10
199.2997332428393
 20
63.466203437337697
 30
0.0
 40
1.999999999999994
 50
51.747334162145961
 51
86.49999999999703
  0
ARC
  5
1400F
  8
0
 10
202.08582043699121
 20
67.000000000042348
 30
0.0
 40
2.499999999999996
 50
231.7473341621529
 51
128.25266583785401
  0
ARC
  5
14010
  8
0
 10
199.2997332428393
 20
70.533796562746986
 30
0.0
 40
2.0000000000000169
 50
273.49999999999648
 51
308.25266583785401
  0
ARC
  5
14011
  8
0
 10
202.08582043699121
 20
67.000000000042348
 30
0.0
 40
4.0
 50
0.0
 51
90.0
  0
ARC
  5
14012
  8
0
 10
202.08582043699121
 20
67.000000000042348
 30
0.0
 40
4.0000000000000284
 50
270.0
 51
0.0
  0
LINE
  5
14013
  8
0
 10
193.08582043699121
 20
65.850000000042371
 30
0.0
 11
199.42183032190911
 21
65.462473034181414
 31
0.0
  0
LINE
  5
14014
  8
0
 10
199.42183032190911
 20
68.537526965903282
 30
0.0
 11
193.08582043699121
 21
68.150000000042326
 31
0.0
  0
POLYLINE
  5
14015
  8
0
 66
     1
 10
0.0
 20
0.0
 30
0.0
 70
   128
  0
VERTEX
  5
1CAB7
  8
0
 10
249.08582043699121
 20
64.981550911002785
 30
0.0
  0
VERTEX
  5
1CAB8
  8
0
 10
249.0858378283607
 20
64.976982613136386
 30
0.0
  0
VERTEX
  5
1CAB9
  8
0
 10
249.21460858072729
 20
64.610122066517022
 30
0.0
  0
VERTEX
  5
1CABA
  8
0
 10
249.5559566686282
 20
64.39577330673086
 30
0.0
  0
SEQEND
  5
1CABB
  8
0
  0
POLYLINE
  5
14016
  8
0
 66
     1
 10
0.0
 20
0.0
 30
0.0
 70
   128
  0
VERTEX
  5
1CABC
  8
0
 10
249.5559566686282
 20
69.604226693268913
 30
0.0
  0
VERTEX
  5
1CABD
  8
0
 10
249.21460858072729
 20
69.389877933482865
 30
0.0
  0
VERTEX
  5
1CABE
  8
0
 10
249.0858378283607
 20
69.023017386865206
 30
0.0
  0
VERTEX
  5
1CABF
  8
0
 10
249.08582043699121
 20
69.018449088996988
 30
0.0
  0
SEQEND
  5
1CAC0
  8
0
  0
ARC
  5
14017
  8
0
 10
245.08635240649181
 20
66.998020936235491
 30
0.0
 40
4.0308415497430179
 50
0.0281310997347559
 51
7.1532512242517123
  0
ARC
  5
14018
  8
0
 10
245.0867700484967
 20
67.001912917368202
 30
0.0
 40
4.0304238758512341
 50
352.8463812965627
 51
359.9728063103932
  0
ARC
  5
14019
  8
0
 10
261.23873418961227
 20
64.000000000000512
 30
0.0
 40
7.9999999999994031
 50
90.0
 51
102.4999999999977
  0
LINE
  5
1401A
  8
0
 10
249.555956668628
 20
69.604226693268913
 30
0.0
 11
259.5072172781077
 21
71.810368056959362
 31
0.0
  0
CIRCLE
  5
1401B
  8
0
 10
263.08582043699118
 20
66.999999999999943
 30
0.0
 40
4.0
  0
LINE
  5
1401C
  8
0
 10
259.5072172781077
 20
62.189631943040411
 30
0.0
 11
249.5559566686282
 21
64.39577330673086
 31
0.0
  0
LINE
  5
1401D
  8
0
 10
261.23873418961227
 20
61.999999999999829
 30
0.0
 11
263.08582043699118
 21
61.999999999999829
 31
0.0
  0
ARC
  5
1401E
  8
0
 10
261.23873418961227
 20
69.99999999999801
 30
0.0
 40
7.9999999999981242
 50
257.5000000000021
 51
270.0
  0
LINE
  5
1401F
  8
0
 10
261.23873418961227
 20
71.999999999999943
 30
0.0
 11
263.08582043699118
 21
71.999999999999943
 31
0.0
  0
ARC
  5
14020
  8
0
 10
263.08582043699118
 20
66.999999999999943
 30
0.0
 40
5.0000000000000284
 50
270.0
 51
0.0000000004852763
  0
ARC
  5
14021
  8
0
 10
263.08582043699118
 20
66.999999999999943
 30
0.0
 40
5.0
 50
0.0000000004852763
 51
90.0
  0
CIRCLE
  5
14022
  8
0
 10
263.08582043699118
 20
66.999999999999943
 30
0.0
 40
2.5
  0
LINE
  5
14023
  8
0
 10
222.7795615338392
 20
66.500000000042348
 30
0.0
 11
222.7795615338392
 21
67.500000000042334
 31
0.0
  0
LINE
  5
14024
  8
0
 10
218.39207934014311
 20
67.500000000042334
 30
0.0
 11
218.39207934014311
 21
66.500000000042348
 31
0.0
  0
LINE
  5
14025
  8
0
 10
246.7795615338392
 20
66.499999999999943
 30
0.0
 11
246.7795615338392
 21
67.499999999999943
 31
0.0
  0
LINE
  5
14026
  8
0
 10
242.39207934014311
 20
67.499999999999943
 30
0.0
 11
242.39207934014311
 21
66.499999999999943
 31
0.0
  0
LINE
  5
14027
  8
0
 10
240.7795615338392
 20
66.499999999999943
 30
0.0
 11
240.7795615338392
 21
67.499999999999943
 31
0.0
  0
LINE
  5
14028
  8
0
 10
236.39207934014311
 20
67.499999999999943
 30
0.0
 11
236.39207934014311
 21
66.499999999999943
 31
0.0
  0
LINE
  5
14029
  8
0
 10
216.7795615338392
 20
66.500000000042348
 30
0.0
 11
216.7795615338392
 21
67.500000000042334
 31
0.0
  0
LINE
  5
1402A
  8
0
 10
212.39207934014311
 20
67.500000000042334
 30
0.0
 11
212.39207934014311
 21
66.500000000042348
 31
0.0
  0
LINE
  5
1402B
  8
0
 10
224.39207934014311
 20
67.500000000042334
 30
0.0
 11
224.39207934014311
 21
66.500000000042348
 31
0.0
  0
LINE
  5
1402C
  8
0
 10
234.7795615338392
 20
66.499999999999943
 30
0.0
 11
234.7795615338392
 21
67.499999999999943
 31
0.0
  0
LINE
  5
1402D
  8
0
 10
230.39207934014311
 20
67.499999999999943
 30
0.0
 11
230.39207934014311
 21
66.499999999999943
 31
0.0
  0
LINE
  5
1402E
  8
0
 10
210.7795615338392
 20
66.500000000042348
 30
0.0
 11
210.7795615338392
 21
67.500000000042334
 31
0.0
  0
LINE
  5
1402F
  8
0
 10
206.3920793401432
 20
67.500000000042334
 30
0.0
 11
206.3920793401432
 21
66.500000000042348
 31
0.0
  0
POLYLINE
  5
14030
  8
4
 66
     1
 10
0.0
 20
0.0
 30
0.0
  0
VERTEX
  5
14031
  8
4
 10
229.840540794948
 20
63.928112021635847
 30
0.0
 42
-0.0744127175610667
  0
VERTEX
  5
14032
  8
4
 10
229.3160456377588
 20
64.622078015605496
 30
0.0
 42
-0.1536795722212451
  0
VERTEX
  5
14033
  8
4
 10
229.05231286199259
 20
65.966745035939596
 30
0.0
 42
-0.1847247553159499
  0
VERTEX
  5
14034
  8
4
 10
229.5858190976661
 20
66.999999999957524
 30
0.0
 42
0.1729818233278114
  0
VERTEX
  5
14035
  8
4
 10
230.17808808179251
 20
68.085719582138424
 30
0.0
 42
0.1305645647028073
  0
VERTEX
  5
14036
  8
4
 10
230.0226739260319
 20
69.591526013349551
 30
0.0
 42
0.0267269543158863
  0
VERTEX
  5
14037
  8
4
 10
229.87399704743041
 20
69.928112021635854
 30
0.0
  0
SEQEND
  5
14038
  8
4
  0
POLYLINE
  5
14039
  8
4
 66
     1
 10
0.0
 20
0.0
 30
0.0
  0
VERTEX
  5
1403A
  8
4
 10
227.84054079498139
 20
63.928112021635847
 30
0.0
 42
-0.0744127175610667
  0
VERTEX
  5
1403B
  8
4
 10
227.3160456377922
 20
64.622078015605496
 30
0.0
 42
-0.1536795722212451
  0
VERTEX
  5
1403C
  8
4
 10
227.05231286202601
 20
65.966745035939596
 30
0.0
 42
-0.1847247553159499
  0
VERTEX
  5
1403D
  8
4
 10
227.5858190976995
 20
66.999999999957524
 30
0.0
 42
0.1729818233278114
  0
VERTEX
  5
1403E
  8
4
 10
228.1780880818259
 20
68.085719582138424
 30
0.0
 42
0.1305645647028073
  0
VERTEX
  5
1403F
  8
4
 10
228.02267392606529
 20
69.591526013349551
 30
0.0
 42
0.0267269543158863
  0
VERTEX
  5
14040
  8
4
 10
227.8739970474638
 20
69.928112021635854
 30
0.0
  0
SEQEND
  5
14041
  8
4
  0
ARC
  5
14042
  8
0
 10
214.58582043699121
 20
67.000000000042348
 30
0.0
 40
2.25000000000004
 50
12.83958840690125
 51
167.1604115930987
  0
ARC
  5
14043
  8
0
 10
208.58582043699121
 20
67.000000000042348
 30
0.0
 40
2.2500000000000342
 50
12.83958840690125
 51
167.1604115930987
  0
ARC
  5
14044
  8
0
 10
220.58582043699121
 20
67.000000000042348
 30
0.0
 40
2.25000000000004
 50
12.83958840690125
 51
167.1604115930987
  0
ARC
  5
14045
  8
0
 10
226.58582043699121
 20
67.000000000042348
 30
0.0
 40
2.25000000000004
 50
43.635208626999692
 51
167.1604115930987
  0
ARC
  5
14046
  8
0
 10
244.58582043699121
 20
66.999999999999943
 30
0.0
 40
2.249999999999984
 50
12.8395884069076
 51
167.16041159309239
  0
ARC
  5
14047
  8
0
 10
238.58582043699121
 20
66.999999999999943
 30
0.0
 40
2.249999999999984
 50
12.8395884069076
 51
167.16041159309239
  0
ARC
  5
14048
  8
0
 10
232.58582043699121
 20
66.999999999999943
 30
0.0
 40
2.249999999999984
 50
12.8395884069076
 51
167.1604115930987
  0
LINE
  5
14049
  8
2
 10
189.58582043698979
 20
64.500000000041084
 30
0.0
 11
194.58582043699121
 21
64.500000000043485
 31
0.0
  0
LINE
  5
1404A
  8
2
 10
189.58582043699209
 20
69.500000000041084
 30
0.0
 11
194.58582043698999
 21
69.500000000043485
 31
0.0
  0
LINE
  5
1404B
  8
2
 10
196.08582043699121
 20
63.000000000042228
 30
0.0
 11
194.58582043699121
 21
64.500000000042348
 31
0.0
  0
LINE
  5
1404C
  8
2
 10
194.58582043699121
 20
69.500000000042348
 30
0.0
 11
196.08582043699121
 21
71.000000000042348
 31
0.0
  0
LINE
  5
1404D
  8
2
 10
189.58582043699121
 20
69.500000000042121
 30
0.0
 11
189.58582043699121
 21
67.650000000042326
 31
0.0
  0
LINE
  5
1404E
  8
2
 10
194.58582043699121
 20
68.241743930268001
 30
0.0
 11
194.58582043699121
 21
69.500000000042348
 31
0.0
  0
LINE
  5
1404F
  8
2
 10
189.58582043699121
 20
66.350000000042371
 30
0.0
 11
189.58582043699121
 21
64.500000000042462
 31
0.0
  0
LINE
  5
14050
  8
2
 10
194.58582043699121
 20
64.500000000042348
 30
0.0
 11
194.58582043699121
 21
65.758256069816582
 31
0.0
  0
LINE
  5
14051
  8
1
 10
192.08582043699121
 20
72.500000000042334
 30
0.0
 11
192.08582043699121
 21
61.500000000042228
 31
0.0
  0
LINE
  5
14052
  8
2
 10
188.0858204369909
 20
63.000000000042228
 30
0.0
 11
189.5858204369909
 21
64.500000000042348
 31
0.0
  0
LINE
  5
14053
  8
1
 10
263.08582043699118
 20
72.499999999999943
 30
0.0
 11
263.08582043699118
 21
61.499999999999829
 31
0.0
  0
LINE
  5
14054
  8
2
 10
189.5858204369909
 20
69.500000000042348
 30
0.0
 11
188.0858204369909
 21
71.000000000042348
 31
0.0
  0
LINE
  5
14055
  8
1
 10
252.58582043699121
 20
71.812350590721906
 30
0.0
 11
252.58582043699121
 21
62.187649409277753
 31
0.0
  0
LINE
  5
14056
  8
1
 10
202.58582043699121
 20
70.750000000042348
 30
0.0
 11
202.58582043699121
 21
63.250000000042228
 31
0.0
  0
ARC
  5
14057
  8
0
 10
184.08582043699121
 20
67.000000000042348
 30
0.0
 40
7.0
 50
354.67200209599793
 51
5.3279979040020748
  0
LINE
  5
14059
  8
1
 10
184.08582043699121
 20
75.500000000042348
 30
0.0
 11
184.08582043699121
 21
58.500000000042348
 31
0.0
  0
ARC
  5
14816
  8
0
 10
152.92943892896901
 20
75.219480407218782
 30
0.0
 40
13.500000000000041
 50
114.4654905141682
 51
165.0594735357262
  0
ARC
  5
14817
  8
0
 10
166.84220194501319
 20
75.219480407218782
 30
0.0
 40
13.500000000000069
 50
58.547433522787131
 51
65.534509485831819
  0
ARC
  5
14818
  8
0
 10
159.88582043699111
 20
49.000000000000739
 30
0.0
 40
40.499999999999261
 50
71.952166924765891
 51
90.0
  0
ARC
  5
14819
  8
0
 10
159.88582043699111
 20
49.000000000000739
 30
0.0
 40
40.499999999999247
 50
90.0
 51
108.0478330752341
  0
ARC
  5
1481B
  8
0
 10
142.58582043699121
 20
78.699999999999989
 30
0.0
 40
2.6999999999999882
 50
180.0
 51
270.0
  0
LINE
  5
1481C
  8
0
 10
151.88582043699111
 20
75.999999999999943
 30
0.0
 11
151.88582043699111
 21
68.224999999999966
 31
0.0
  0
LINE
  5
1481D
  8
0
 10
167.88582043699111
 20
68.224999999999966
 30
0.0
 11
167.88582043699111
 21
75.999999999999943
 31
0.0
  0
LINE
  5
1481E
  8
0
 10
151.88582043699111
 20
65.77499999999992
 30
0.0
 11
151.88582043699111
 21
63.599999999999959
 31
0.0
  0
LINE
  5
1481F
  8
0
 10
167.88582043699111
 20
63.599999999999959
 30
0.0
 11
167.88582043699111
 21
65.77499999999992
 31
0.0
  0
LINE
  5
14820
  8
0
 10
151.88582043699111
 20
63.599999999999959
 30
0.0
 11
152.68582043699109
 21
62.799999999999898
 31
0.0
  0
LINE
  5
14821
  8
0
 10
167.08582043699121
 20
62.799999999999898
 30
0.0
 11
167.88582043699111
 21
63.599999999999959
 31
0.0
  0
ARC
  5
14822
  8
0
 10
153.01082043699111
 20
66.999999999999943
 30
0.0
 40
1.125
 50
90.0
 51
270.0
  0
LINE
  5
14823
  8
0
 10
153.01082043699111
 20
65.874999999999943
 30
0.0
 11
180.26101149473999
 21
65.874999999999943
 31
0.0
  0
LINE
  5
14824
  8
0
 10
180.26101149473999
 20
68.124999999999943
 30
0.0
 11
153.01082043699111
 21
68.124999999999943
 31
0.0
  0
ARC
  5
14827
  8
0
 10
152.74623710365779
 20
66.999999999999943
 30
0.0
 40
1.239583333333407
 50
278.79741070998949
 51
294.82927743356453
  0
ARC
  5
14828
  8
0
 10
152.74623710365779
 20
66.999999999999943
 30
0.0
 40
1.2395833333332951
 50
65.170722566442734
 51
81.202589290010408
  0
LINE
  5
14829
  8
0
 10
166.83582043699121
 20
65.77499999999992
 30
0.0
 11
166.50488303079749
 21
65.874999999999943
 31
0.0
  0
LINE
  5
1482A
  8
0
 10
166.50488303079749
 20
68.124999999999943
 30
0.0
 11
166.83582043699121
 21
68.224999999999966
 31
0.0
  0
LINE
  5
1482B
  8
0
 10
154.17153472270559
 20
62.799999999999898
 30
0.0
 11
154.17153472270559
 21
62.499999999999943
 31
0.0
  0
LINE
  5
1482C
  8
0
 10
165.60010615127689
 20
62.499999999999943
 30
0.0
 11
165.60010615127689
 21
62.799999999999898
 31
0.0
  0
ARC
  5
1482D
  8
0
 10
180.26101149473999
 20
66.999999999999943
 30
0.0
 40
1.125
 50
270.0
 51
90.0
  0
POLYLINE
  5
148E1
  8
0
 66
     1
 10
0.0
 20
0.0
 30
0.0
 70
   128
  0
VERTEX
  5
1CAC1
  8
0
 10
161.56793588290711
 20
78.700000000001353
 30
0.0
  0
VERTEX
  5
1CAC2
  8
0
 10
160.76596691214229
 20
79.753667774833787
 30
0.0
  0
VERTEX
  5
1CAC3
  8
0
 10
159.7738188688314
 20
81.823264261802194
 30
0.0
  0
SEQEND
  5
1CAC4
  8
0
  0
ARC
  5
148E2
  8
0
 10
157.0715097345068
 20
80.375580594149426
 30
0.0
 40
4.7984808466330557
 50
304.27456749228799
 51
339.56223197961788
  0
ARC
  5
148E4
  8
0
 10
158.77331640655859
 20
76.748552783431194
 30
0.0
 40
18.11501004080694
 50
16.26847012906039
 51
33.458520515280263
  0
POLYLINE
  5
148E5
  8
0
 66
     1
 10
0.0
 20
0.0
 30
0.0
 70
   128
  0
VERTEX
  5
1CAC5
  8
0
 10
176.16299415486139
 20
81.823264261802649
 30
0.0
  0
VERTEX
  5
1CAC6
  8
0
 10
176.457863822489
 20
79.567474997701254
 30
0.0
  0
SEQEND
  5
1CAC7
  8
0
  0
POLYLINE
  5
148E7
  8
0
 66
     1
 10
0.0
 20
0.0
 30
0.0
 70
   128
  0
VERTEX
  5
1CAC8
  8
0
 10
143.72064837150091
 20
81.823264388228665
 30
0.0
  0
VERTEX
  5
1CAC9
  8
0
 10
144.77855827406131
 20
83.173353848081035
 30
0.0
  0
VERTEX
  5
1CACA
  8
0
 10
146.06597635605209
 20
84.367983165723828
 30
0.0
  0
VERTEX
  5
1CACB
  8
0
 10
147.47507534032121
 20
85.309997809745425
 30
0.0
  0
VERTEX
  5
1CACC
  8
0
 10
149.03295495756731
 20
86.031419910365514
 30
0.0
  0
VERTEX
  5
1CACD
  8
0
 10
150.54363754811371
 20
86.476520426628255
 30
0.0
  0
VERTEX
  5
1CACE
  8
0
 10
152.08320592252551
 20
86.705131626349313
 30
0.0
  0
VERTEX
  5
1CACF
  8
0
 10
153.6220501025858
 20
86.708707927816079
 30
0.0
  0
VERTEX
  5
1CAD0
  8
0
 10
155.1011326945935
 20
86.465183014245056
 30
0.0
  0
VERTEX
  5
1CAD1
  8
0
 10
156.44712681156389
 20
85.955878986480855
 30
0.0
  0
VERTEX
  5
1CAD2
  8
0
 10
157.6535689992707
 20
85.139748937297497
 30
0.0
  0
VERTEX
  5
1CAD3
  8
0
 10
158.55676158547601
 20
84.161742425731234
 30
0.0
  0
VERTEX
  5
1CAD4
  8
0
 10
159.3042440626219
 20
82.936303406238764
 30
0.0
  0
VERTEX
  5
1CAD5
  8
0
 10
159.7738188688314
 20
81.823264261802194
 30
0.0
  0
SEQEND
  5
1CAD6
  8
0
  0
POLYLINE
  5
148E8
  8
0
 66
     1
 10
0.0
 20
0.0
 30
0.0
 70
   128
  0
VERTEX
  5
1CAD7
  8
0
 10
143.72064837150091
 20
81.823264388228665
 30
0.0
  0
VERTEX
  5
1CAD8
  8
0
 10
142.3160134143908
 20
79.567437682871784
 30
0.0
  0
VERTEX
  5
1CAD9
  8
0
 10
141.78562409937521
 20
78.699999999999989
 30
0.0
  0
SEQEND
  5
1CADA
  8
0
  0
ARC
  5
148EA
  8
0
 10
173.42247819735431
 20
77.728172634695738
 30
0.0
 40
3.0408958695999742
 50
334.31888758052349
 51
356.550247870975
  0
ARC
  5
148EB
  8
0
 10
175.3447187941893
 20
77.016615345967637
 30
0.0
 40
1.018388646145802
 50
273.38169958233948
 51
323.46564752877282
  0
POLYLINE
  5
148ED
  8
0
 66
     1
 10
0.0
 20
0.0
 30
0.0
 70
   128
  0
VERTEX
  5
1CADB
  8
0
 10
159.7738188688314
 20
76.410363856308933
 30
0.0
  0
VERTEX
  5
1CADC
  8
0
 10
159.0288143806352
 20
76.023937815614261
 30
0.0
  0
VERTEX
  5
1CADD
  8
0
 10
158.7474123899018
 20
75.999999999999943
 30
0.0
  0
SEQEND
  5
1CADE
  8
0
  0
ARC
  5
148EF
  8
0
 10
145.4598595681137
 20
79.888248601882594
 30
0.0
 40
3.888513623250248
 50
243.43140627318289
 51
269.33105759097413
  0
ARC
  5
148F1
  8
0
 10
145.02442692893379
 20
79.474701978212977
 30
0.0
 40
3.3301662006278701
 50
193.45205624461761
 51
246.95178825705659
  0
LINE
  5
148F2
  8
0
 10
142.58582043699121
 20
75.999999999999943
 30
0.0
 11
175.40479102522539
 21
75.999999999999943
 31
0.0
  0
LINE
  5
148F3
  8
0
 10
151.88582043699111
 20
68.224999999999966
 30
0.0
 11
167.88582043699111
 21
68.224999999999966
 31
0.0
  0
LINE
  5
148F4
  8
0
 10
151.88582043699111
 20
63.599999999999959
 30
0.0
 11
167.88582043699111
 21
63.599999999999959
 31
0.0
  0
LINE
  5
148F5
  8
0
 10
151.88582043699111
 20
65.77499999999992
 30
0.0
 11
167.88582043699111
 21
65.77499999999992
 31
0.0
  0
LINE
  5
148F6
  8
0
 10
152.68582043699109
 20
62.799999999999898
 30
0.0
 11
167.08582043699121
 21
62.799999999999898
 31
0.0
  0
LINE
  5
148FA
  8
0
 10
154.17153472270559
 20
62.499999999999943
 30
0.0
 11
165.60010615127689
 21
62.499999999999943
 31
0.0
  0
LINE
  5
149A1
  8
2
 10
156.56232043699109
 20
63.176499999999862
 30
0.0
 11
163.20932043699131
 21
63.176499999999862
 31
0.0
  0
LINE
  5
149A2
  8
2
 10
156.56232043699109
 20
78.490577457106781
 30
0.0
 11
163.20932043699131
 21
78.490577457106781
 31
0.0
  0
LINE
  5
149CE
  8
2
 10
163.88582043699111
 20
62.499999999999943
 30
0.0
 11
163.20932043699131
 21
63.176499999999862
 31
0.0
  0
LINE
  5
149CF
  8
2
 10
156.56232043699109
 20
63.176499999999862
 30
0.0
 11
155.88582043699111
 21
62.499999999999943
 31
0.0
  0
LINE
  5
149D0
  8
2
 10
156.56232043699109
 20
78.490577457106781
 30
0.0
 11
156.56232043699109
 21
63.176499999999862
 31
0.0
  0
LINE
  5
149D1
  8
2
 10
163.20932043699131
 20
63.176499999999862
 30
0.0
 11
163.20932043699131
 21
78.490577457106781
 31
0.0
  0
LINE
  5
149D2
  8
2
 10
163.20932043699131
 20
78.490577457106781
 30
0.0
 11
159.88582043699131
 21
80.409401076758456
 31
0.0
  0
LINE
  5
149D3
  8
2
 10
159.88582043699111
 20
80.409401076758456
 30
0.0
 11
156.56232043699109
 21
78.490577457106781
 31
0.0
  0
LINE
  5
149ED
  8
0
 10
174.09520078293141
 20
162.3155485592934
 30
0.0
 11
177.34924079318381
 21
161.63094169683379
 31
0.0
  0
LINE
  5
149EE
  8
0
 10
177.81247009162789
 20
163.83274064702499
 30
0.0
 11
174.54465673519701
 21
164.52024523885589
 31
0.0
  0
LINE
  5
149EF
  8
0
 10
174.54465673519709
 20
154.3380280617572
 30
0.0
 11
177.81272009162791
 21
155.02558525027251
 31
0.0
  0
LINE
  5
149F0
  8
0
 10
177.3339602821151
 20
157.22411678690349
 30
0.0
 11
174.09520078293141
 21
156.54272474131949
 31
0.0
  0
ARC
  5
149F1
  8
0
 10
176.88601149473979
 20
159.42914274664261
 30
0.0
 40
2.2500000000000111
 50
12.839429183826271
 51
78.11899999999774
  0
ARC
  5
149F2
  8
0
 10
176.88601149473979
 20
159.42914274664261
 30
0.0
 40
2.2500000000000342
 50
281.3809999999977
 51
347.16025236991612
  0
ARC
  5
149F3
  8
0
 10
176.88601149473979
 20
159.42914274664261
 30
0.0
 40
4.500000000000032
 50
281.8810000000023
 51
353.62055168696622
  0
ARC
  5
149F4
  8
0
 10
176.88601149473979
 20
159.42914274664261
 30
0.0
 40
4.5000000000000124
 50
6.3792921038640662
 51
78.11899999999774
  0
ARC
  5
149F5
  8
0
 10
177.58582043699121
 20
159.42913665030659
 30
0.0
 40
0.5
 50
90.0
 51
270.0
  0
ARC
  5
149F6
  8
0
 10
190.58582043699121
 20
159.42913665030659
 30
0.0
 40
0.5
 50
270.0
 51
90.0
  0
LINE
  5
149F7
  8
0
 10
177.58582043699121
 20
158.92913665030659
 30
0.0
 11
190.58582043699121
 21
158.92913665030659
 31
0.0
  0
LINE
  5
149F8
  8
0
 10
190.58582043699121
 20
159.92913665030659
 30
0.0
 11
177.58582043699121
 21
159.92913665030659
 31
0.0
  0
ARC
  5
14AA2
  8
0
 10
142.88582043699091
 20
188.87400037897771
 30
0.0
 40
20.000000000000298
 50
272.3923006670617
 51
328.68714532052132
  0
ARC
  5
14AA3
  8
0
 10
161.6813499622684
 20
177.4403627310362
 30
0.0
 40
1.9999999999997911
 50
103.51409355737761
 51
148.687145320524
  0
ARC
  5
14AA4
  8
0
 10
159.88582043699111
 20
159.42913665030659
 30
0.0
 40
19.999999999999961
 50
34.824605260499673
 51
86.192298413035346
  0
POLYLINE
  5
14AA5
  8
0
 66
     1
 10
0.0
 20
0.0
 30
0.0
 70
   128
  0
VERTEX
  5
1CADF
  8
0
 10
176.3039013286903
 20
170.85045968372131
 30
0.0
  0
VERTEX
  5
1CAE0
  8
0
 10
176.46528179329459
 20
170.01759873609689
 30
0.0
  0
VERTEX
  5
1CAE1
  8
0
 10
176.16299415486139
 20
168.69743900691179
 30
0.0
  0
SEQEND
  5
1CAE2
  8
0
  0
ARC
  5
14AA6
  8
0
 10
193.88582043699179
 20
159.42913665030659
 30
0.0
 40
20.00000000000059
 50
152.39230066705821
 51
207.60769933294179
  0
POLYLINE
  5
14AA7
  8
0
 66
     1
 10
0.0
 20
0.0
 30
0.0
 70
   128
  0
VERTEX
  5
1CAE3
  8
0
 10
176.16299415486139
 20
150.16083429370141
 30
0.0
  0
VERTEX
  5
1CAE4
  8
0
 10
176.457863822489
 20
148.70917020706159
 30
0.0
  0
VERTEX
  5
1CAE5
  8
0
 10
176.3039013286899
 20
148.00781361689039
 30
0.0
  0
SEQEND
  5
1CAE6
  8
0
  0
ARC
  5
14AA8
  8
0
 10
159.88582043699111
 20
159.42913665030659
 30
0.0
 40
20.000000000000028
 50
274.8246052605009
 51
325.17539473950029
  0
POLYLINE
  5
14AA9
  8
0
 66
     1
 10
0.0
 20
0.0
 30
0.0
 70
   128
  0
VERTEX
  5
1CAE7
  8
0
 10
161.56793588290711
 20
139.5
 30
0.0
  0
VERTEX
  5
1CAE8
  8
0
 10
160.76596691214229
 20
139.77667089179019
 30
0.0
  0
VERTEX
  5
1CAE9
  8
0
 10
159.7738188688314
 20
140.69853953051569
 30
0.0
  0
SEQEND
  5
1CAEA
  8
0
  0
ARC
  5
14AAA
  8
0
 10
142.88582043699111
 20
129.98427292163589
 30
0.0
 40
19.99999999999978
 50
32.392300667064269
 51
87.607699091457548
  0
POLYLINE
  5
14AAB
  8
0
 66
     1
 10
0.0
 20
0.0
 30
0.0
 70
   128
  0
VERTEX
  5
1CAEB
  8
0
 10
143.72064837150091
 20
149.96684188360251
 30
0.0
  0
VERTEX
  5
1CAEC
  8
0
 10
142.3160134143908
 20
150.43732455222499
 30
0.0
  0
VERTEX
  5
1CAED
  8
0
 10
141.78562409937521
 20
150.9213230334158
 30
0.0
  0
SEQEND
  5
1CAEE
  8
0
  0
ARC
  5
14AAC
  8
0
 10
159.88582043699111
 20
159.42913665030659
 30
0.0
 40
20.000000000000071
 50
154.8246052604986
 51
205.1753947394983
  0
POLYLINE
  5
14AAD
  8
0
 66
     1
 10
0.0
 20
0.0
 30
0.0
 70
   128
  0
VERTEX
  5
1CAEF
  8
0
 10
141.78562409937609
 20
167.93695026719851
 30
0.0
  0
VERTEX
  5
1CAF0
  8
0
 10
142.42621260553651
 20
168.49314032303249
 30
0.0
  0
VERTEX
  5
1CAF1
  8
0
 10
143.7206482872806
 20
168.891431413492
 30
0.0
  0
SEQEND
  5
1CAF2
  8
0
  0
ARC
  5
14B7B
  8
0
 10
62.781235189084327
 20
75.619620623345781
 30
0.0
 40
13.04510594315491
 50
114.3175584587236
 51
140.40991215000719
  0
ARC
  5
14B7D
  8
0
 10
76.924956493900027
 20
75.230197090364641
 30
0.0
 40
13.48409471613691
 50
29.271684303976041
 51
48.51602778358415
  0
ARC
  5
14B7E
  8
0
 10
76.913065294706712
 20
75.219480407218782
 30
0.0
 40
13.49999999999998
 50
48.508348698024797
 51
65.534509485831819
  0
ARC
  5
14B80
  8
0
 10
69.956683786684607
 20
49.000000000000739
 30
0.0
 40
40.499999999999247
 50
71.952166924765891
 51
108.0478330752341
  0
LINE
  5
14B81
  8
0
 10
61.956683786684607
 20
75.999999999999943
 30
0.0
 11
61.956683786684607
 21
68.224999999999966
 31
0.0
  0
LINE
  5
14B82
  8
0
 10
77.956683786684607
 20
68.224999999999966
 30
0.0
 11
77.956683786684607
 21
75.999999999999943
 31
0.0
  0
LINE
  5
14B83
  8
0
 10
61.956683786684607
 20
65.77499999999992
 30
0.0
 11
61.956683786684607
 21
63.599999999999959
 31
0.0
  0
LINE
  5
14B84
  8
0
 10
77.956683786684607
 20
63.599999999999959
 30
0.0
 11
77.956683786684607
 21
65.77499999999992
 31
0.0
  0
LINE
  5
14B85
  8
0
 10
61.956683786684607
 20
63.599999999999959
 30
0.0
 11
62.756683786684562
 21
62.799999999999898
 31
0.0
  0
LINE
  5
14B86
  8
0
 10
77.156683786684653
 20
62.799999999999898
 30
0.0
 11
77.956683786684607
 21
63.599999999999959
 31
0.0
  0
ARC
  5
14B87
  8
0
 10
63.081683786684607
 20
66.999999999999943
 30
0.0
 40
1.125
 50
90.0
 51
270.0
  0
ARC
  5
14B88
  8
0
 10
76.831683786684607
 20
66.999999999999943
 30
0.0
 40
1.125
 50
270.0
 51
90.0
  0
LINE
  5
14B89
  8
0
 10
63.081683786684607
 20
65.874999999999943
 30
0.0
 11
76.831683786684607
 21
65.874999999999943
 31
0.0
  0
LINE
  5
14B8A
  8
0
 10
76.831683786684607
 20
68.124999999999943
 30
0.0
 11
63.081683786684607
 21
68.124999999999943
 31
0.0
  0
ARC
  5
14B8B
  8
0
 10
62.817100453351259
 20
66.999999999999943
 30
0.0
 40
1.2395833333334161
 50
278.79741070998949
 51
294.82927743356453
  0
ARC
  5
14B8C
  8
0
 10
62.817100453351259
 20
66.999999999999943
 30
0.0
 40
1.2395833333333031
 50
65.170722566442734
 51
81.202589290010408
  0
ARC
  5
14B8D
  8
0
 10
77.096267120017956
 20
66.999999999999943
 30
0.0
 40
1.2395833333333059
 50
98.797410709989606
 51
115.60363025118281
  0
ARC
  5
14B8E
  8
0
 10
77.096267120017956
 20
66.999999999999943
 30
0.0
 40
1.2395833333333981
 50
244.3963697488532
 51
261.20258929001039
  0
LINE
  5
14B8F
  8
0
 10
64.242398072398814
 20
62.799999999999898
 30
0.0
 11
64.242398072398814
 21
62.499999999999943
 31
0.0
  0
LINE
  5
14B90
  8
0
 10
75.670969500970159
 20
62.499999999999943
 30
0.0
 11
75.670969500970159
 21
62.799999999999898
 31
0.0
  0
ARC
  5
14B93
  8
0
 10
69.956683786684607
 20
60.499999999999943
 30
0.0
 40
0.5
 50
180.0
 51
0.0
  0
LINE
  5
14B94
  8
0
 10
70.456683786684607
 20
60.499999999999943
 30
0.0
 11
70.456683786684607
 21
62.499999999999943
 31
0.0
  0
LINE
  5
14B95
  8
0
 10
69.456683786684607
 20
62.499999999999943
 30
0.0
 11
69.456683786684607
 21
60.499999999999943
 31
0.0
  0
POLYLINE
  5
14B97
  8
0
 66
     1
 10
0.0
 20
0.0
 30
0.0
 70
   128
  0
VERTEX
  5
1CAF3
  8
0
 10
50.906036101596783
 20
81.217308144266383
 30
0.0
  0
VERTEX
  5
1CAF4
  8
0
 10
51.731981179790402
 20
82.645997285833062
 30
0.0
  0
VERTEX
  5
1CAF5
  8
0
 10
52.728369919190747
 20
83.933145082532803
 30
0.0
  0
VERTEX
  5
1CAF6
  8
0
 10
53.79711225705455
 20
84.973994767263704
 30
0.0
  0
VERTEX
  5
1CAF7
  8
0
 10
54.941206842900328
 20
85.79880919175622
 30
0.0
  0
VERTEX
  5
1CAF8
  8
0
 10
55.99127765708613
 20
86.331364378005489
 30
0.0
  0
VERTEX
  5
1CAF9
  8
0
 10
57.00278789573985
 20
86.645652155584628
 30
0.0
  0
VERTEX
  5
1CAFA
  8
0
 10
57.92669734882633
 20
86.734968215907145
 30
0.0
  0
VERTEX
  5
1CAFB
  8
0
 10
58.73511019408852
 20
86.589002604480072
 30
0.0
  0
VERTEX
  5
1CAFC
  8
0
 10
59.400858501117462
 20
86.180311265953677
 30
0.0
  0
VERTEX
  5
1CAFD
  8
0
 10
59.906591909554443
 20
85.469020688327362
 30
0.0
  0
VERTEX
  5
1CAFE
  8
0
 10
60.213378271419401
 20
84.568043206385425
 30
0.0
  0
VERTEX
  5
1CAFF
  8
0
 10
60.400283298817392
 20
83.402702600475735
 30
0.0
  0
VERTEX
  5
1CB00
  8
0
 10
60.494389023499018
 20
81.823264261824818
 30
0.0
  0
SEQEND
  5
1CB01
  8
0
  0
ARC
  5
14B98
  8
0
 10
60.465208840708328
 20
76.358502229572252
 30
0.0
 40
10.72314218747654
 50
153.05634842498469
 51
167.38731523200181
  0
POLYLINE
  5
14B99
  8
0
 66
     1
 10
0.0
 20
0.0
 30
0.0
 70
   128
  0
VERTEX
  5
1CB02
  8
0
 10
89.885820436991253
 20
78.700000000001353
 30
0.0
  0
VERTEX
  5
1CB03
  8
0
 10
89.609149545200808
 20
79.753667774833787
 30
0.0
  0
VERTEX
  5
1CB04
  8
0
 10
88.687280906475266
 20
81.823264261802194
 30
0.0
  0
SEQEND
  5
1CB05
  8
0
  0
POLYLINE
  5
14B9A
  8
0
 66
     1
 10
0.0
 20
0.0
 30
0.0
 70
   128
  0
VERTEX
  5
1CB06
  8
0
 10
79.41897855338857
 20
81.823264388228665
 30
0.0
  0
VERTEX
  5
1CB07
  8
0
 10
79.491310362570843
 20
83.173353848081035
 30
0.0
  0
VERTEX
  5
1CB08
  8
0
 10
79.656000971122694
 20
84.367983165723828
 30
0.0
  0
VERTEX
  5
1CB09
  8
0
 10
79.935198617006336
 20
85.309997809745425
 30
0.0
  0
VERTEX
  5
1CB0A
  8
0
 10
80.369660136906987
 20
86.031419910365514
 30
0.0
  0
VERTEX
  5
1CB0B
  8
0
 10
80.925675760750664
 20
86.476520426628255
 30
0.0
  0
VERTEX
  5
1CB0C
  8
0
 10
81.641814965835465
 20
86.705131626349313
 30
0.0
  0
VERTEX
  5
1CB0D
  8
0
 10
82.527503170042124
 20
86.708707927816079
 30
0.0
  0
VERTEX
  5
1CB0E
  8
0
 10
83.565318594009796
 20
86.465183014245056
 30
0.0
  0
VERTEX
  5
1CB0F
  8
0
 10
84.701514542093946
 20
85.955878986480855
 30
0.0
  0
VERTEX
  5
1CB10
  8
0
 10
85.914012440283841
 20
85.139748937297497
 30
0.0
  0
VERTEX
  5
1CB11
  8
0
 10
86.974898589730856
 20
84.161742425731234
 30
0.0
  0
VERTEX
  5
1CB12
  8
0
 10
87.980717175606287
 20
82.936303406238764
 30
0.0
  0
VERTEX
  5
1CB13
  8
0
 10
88.687280906475266
 20
81.823264261802194
 30
0.0
  0
SEQEND
  5
1CB14
  8
0
  0
POLYLINE
  5
14B9F
  8
0
 66
     1
 10
0.0
 20
0.0
 30
0.0
 70
   128
  0
VERTEX
  5
1CB15
  8
0
 10
79.573825825782706
 20
75.999999999999943
 30
0.0
  0
VERTEX
  5
1CB16
  8
0
 10
79.563083128326284
 20
76.000730689170084
 30
0.0
  0
VERTEX
  5
1CB17
  8
0
 10
79.443974536234919
 20
76.209238044942992
 30
0.0
  0
VERTEX
  5
1CB18
  8
0
 10
79.41897855338857
 20
76.410363811988134
 30
0.0
  0
SEQEND
  5
1CB19
  8
0
  0
POLYLINE
  5
14BA1
  8
0
 66
     1
 10
0.0
 20
0.0
 30
0.0
 70
   128
  0
VERTEX
  5
1CB1A
  8
0
 10
60.494389023499018
 20
76.410363856311093
 30
0.0
  0
VERTEX
  5
1CB1B
  8
0
 10
60.395526725875243
 20
76.023933588289026
 30
0.0
  0
VERTEX
  5
1CB1C
  8
0
 10
60.339541747586402
 20
75.999999999999943
 30
0.0
  0
SEQEND
  5
1CB1D
  8
0
  0
LINE
  5
14BA3
  8
0
 10
79.41897855338857
 20
81.823264388228665
 30
0.0
 11
79.41897855338857
 21
76.410363811988134
 31
0.0
  0
LINE
  5
14BA4
  8
0
 10
60.494389023499018
 20
81.823264261824818
 30
0.0
 11
60.494389023499018
 21
76.410363856311093
 31
0.0
  0
POLYLINE
  5
14BA5
  8
0
 66
     1
 10
0.0
 20
0.0
 30
0.0
 70
   128
  0
VERTEX
  5
1CB1E
  8
0
 10
88.687280906475266
 20
76.410363856308933
 30
0.0
  0
VERTEX
  5
1CB1F
  8
0
 10
87.59461114153396
 20
76.023937815614261
 30
0.0
  0
VERTEX
  5
1CB20
  8
0
 10
87.219187287576915
 20
75.999999999999943
 30
0.0
  0
SEQEND
  5
1CB21
  8
0
  0
ARC
  5
14BA8
  8
0
 10
52.678538779261771
 20
78.758995454900344
 30
0.0
 40
2.7590397925523451
 50
230.0263966073008
 51
270.32482210385768
  0
LINE
  5
14BAA
  8
0
 10
52.694180285792072
 20
75.999999999999943
 30
0.0
 11
87.219187287576915
 21
75.999999999999943
 31
0.0
  0
LINE
  5
14BAB
  8
0
 10
61.956683786684607
 20
68.224999999999966
 30
0.0
 11
77.956683786684607
 21
68.224999999999966
 31
0.0
  0
LINE
  5
14BAC
  8
0
 10
61.956683786684607
 20
63.599999999999959
 30
0.0
 11
77.956683786684607
 21
63.599999999999959
 31
0.0
  0
LINE
  5
14BAD
  8
0
 10
61.956683786684607
 20
65.77499999999992
 30
0.0
 11
77.956683786684607
 21
65.77499999999992
 31
0.0
  0
LINE
  5
14BAE
  8
0
 10
62.756683786684562
 20
62.799999999999898
 30
0.0
 11
77.156683786684653
 21
62.799999999999898
 31
0.0
  0
LINE
  5
14BAF
  8
0
 10
64.242398072398814
 20
62.499999999999943
 30
0.0
 11
75.670969500970159
 21
62.499999999999943
 31
0.0
  0
ARC
  5
14BB0
  8
0
 10
52.63645824054219
 20
78.633739684216437
 30
0.0
 40
2.6364582405422312
 50
178.55987242342189
 51
228.9784026888203
  0
ARC
  5
14BB2
  8
0
 10
87.255446537230227
 20
78.618389548502421
 30
0.0
 40
2.6316396254686949
 50
302.96212476911933
 51
1.7770990325359179
  0
LINE
  5
14BB4
  8
0
 10
73.956683786684493
 20
61.999999999999943
 30
0.0
 11
73.956683786684593
 21
62.500000000000739
 31
0.0
  0
LINE
  5
14BB5
  8
0
 10
73.956683786684593
 20
62.189631943040411
 30
0.0
 11
71.264397912210143
 21
62.189631943040411
 31
0.0
  0
LINE
  5
14BB6
  8
0
 10
71.350024347002773
 20
62.499999999999943
 30
0.0
 11
71.264397912210143
 21
62.189631943040411
 31
0.0
  0
LINE
  5
14BB7
  8
0
 10
68.648969661158844
 20
62.189631943040411
 30
0.0
 11
68.563343226366328
 21
62.499999999999943
 31
0.0
  0
LINE
  5
14BB8
  8
0
 10
68.648969661158844
 20
62.189631943040411
 30
0.0
 11
65.956683786684593
 21
62.189631943040411
 31
0.0
  0
LINE
  5
14BB9
  8
0
 10
65.956683786684593
 20
62.499999999999943
 30
0.0
 11
65.956683786684593
 21
61.999999999999943
 31
0.0
  0
LINE
  5
14BBA
  8
0
 10
68.806683786684516
 20
62.499999999999943
 30
0.0
 11
68.806683786684516
 21
61.999999999999943
 31
0.0
  0
POLYLINE
  5
14BBC
  8
0
 10
68.648969661158901
 20
62.189631943040411
 30
0.0
 66
     1
 70
     8
  0
VERTEX
  8
0
  5
1CB54
 10
68.6490
 20
62.1896
 30
0.000000
  70
    32
  0
VERTEX
  8
0
  5
1CB55
 10
68.6498
 20
62.1867
 30
0.000000
  70
    32
  0
VERTEX
  8
0
  5
1CB56
 10
68.6506
 20
62.1838
 30
0.000000
  70
    32
  0
VERTEX
  8
0
  5
1CB57
 10
68.6514
 20
62.1809
 30
0.000000
  70
    32
  0
VERTEX
  8
0
  5
1CB58
 10
68.6522
 20
62.1780
 30
0.000000
  70
    32
  0
VERTEX
  8
0
  5
1CB59
 10
68.6530
 20
62.1752
 30
0.000000
  70
    32
  0
VERTEX
  8
0
  5
1CB5A
 10
68.6539
 20
62.1723
 30
0.000000
  70
    32
  0
VERTEX
  8
0
  5
1CB5B
 10
68.6547
 20
62.1695
 30
0.000000
  70
    32
  0
VERTEX
  8
0
  5
1CB5C
 10
68.6555
 20
62.1667
 30
0.000000
  70
    32
  0
VERTEX
  8
0
  5
1CB5D
 10
68.6563
 20
62.1640
 30
0.000000
  70
    32
  0
VERTEX
  8
0
  5
1CB5E
 10
68.6571
 20
62.1613
 30
0.000000
  70
    32
  0
VERTEX
  8
0
  5
1CB5F
 10
68.6579
 20
62.1585
 30
0.000000
  70
    32
  0
VERTEX
  8
0
  5
1CB60
 10
68.6588
 20
62.1559
 30
0.000000
  70
    32
  0
VERTEX
  8
0
  5
1CB61
 10
68.6596
 20
62.1532
 30
0.000000
  70
    32
  0
VERTEX
  8
0
  5
1CB62
 10
68.6604
 20
62.1505
 30
0.000000
  70
    32
  0
VERTEX
  8
0
  5
1CB63
 10
68.6612
 20
62.1479
 30
0.000000
  70
    32
  0
VERTEX
  8
0
  5
1CB64
 10
68.6620
 20
62.1453
 30
0.000000
  70
    32
  0
VERTEX
  8
0
  5
1CB65
 10
68.6629
 20
62.1427
 30
0.000000
  70
    32
  0
VERTEX
  8
0
  5
1CB66
 10
68.6637
 20
62.1402
 30
0.000000
  70
    32
  0
VERTEX
  8
0
  5
1CB67
 10
68.6645
 20
62.1377
 30
0.000000
  70
    32
  0
VERTEX
  8
0
  5
1CB68
 10
68.6653
 20
62.1352
 30
0.000000
  70
    32
  0
VERTEX
  8
0
  5
1CB69
 10
68.6661
 20
62.1327
 30
0.000000
  70
    32
  0
VERTEX
  8
0
  5
1CB6A
 10
68.6670
 20
62.1302
 30
0.000000
  70
    32
  0
VERTEX
  8
0
  5
1CB6B
 10
68.6678
 20
62.1278
 30
0.000000
  70
    32
  0
VERTEX
  8
0
  5
1CB6C
 10
68.6686
 20
62.1254
 30
0.000000
  70
    32
  0
VERTEX
  8
0
  5
1CB6D
 10
68.6694
 20
62.1230
 30
0.000000
  70
    32
  0
VERTEX
  8
0
  5
1CB6E
 10
68.6702
 20
62.1206
 30
0.000000
  70
    32
  0
VERTEX
  8
0
  5
1CB6F
 10
68.6711
 20
62.1182
 30
0.000000
  70
    32
  0
VERTEX
  8
0
  5
1CB70
 10
68.6719
 20
62.1159
 30
0.000000
  70
    32
  0
VERTEX
  8
0
  5
1CB71
 10
68.6727
 20
62.1136
 30
0.000000
  70
    32
  0
VERTEX
  8
0
  5
1CB72
 10
68.6735
 20
62.1113
 30
0.000000
  70
    32
  0
VERTEX
  8
0
  5
1CB73
 10
68.6743
 20
62.1091
 30
0.000000
  70
    32
  0
VERTEX
  8
0
  5
1CB74
 10
68.6752
 20
62.1069
 30
0.000000
  70
    32
  0
VERTEX
  8
0
  5
1CB75
 10
68.6760
 20
62.1046
 30
0.000000
  70
    32
  0
VERTEX
  8
0
  5
1CB76
 10
68.6768
 20
62.1025
 30
0.000000
  70
    32
  0
VERTEX
  8
0
  5
1CB77
 10
68.6776
 20
62.1003
 30
0.000000
  70
    32
  0
VERTEX
  8
0
  5
1CB78
 10
68.6785
 20
62.0982
 30
0.000000
  70
    32
  0
VERTEX
  8
0
  5
1CB79
 10
68.6793
 20
62.0960
 30
0.000000
  70
    32
  0
VERTEX
  8
0
  5
1CB7A
 10
68.6801
 20
62.0939
 30
0.000000
  70
    32
  0
VERTEX
  8
0
  5
1CB7B
 10
68.6809
 20
62.0919
 30
0.000000
  70
    32
  0
VERTEX
  8
0
  5
1CB7C
 10
68.6818
 20
62.0898
 30
0.000000
  70
    32
  0
VERTEX
  8
0
  5
1CB7D
 10
68.6826
 20
62.0878
 30
0.000000
  70
    32
  0
VERTEX
  8
0
  5
1CB7E
 10
68.6834
 20
62.0858
 30
0.000000
  70
    32
  0
VERTEX
  8
0
  5
1CB7F
 10
68.6842
 20
62.0838
 30
0.000000
  70
    32
  0
VERTEX
  8
0
  5
1CB80
 10
68.6851
 20
62.0819
 30
0.000000
  70
    32
  0
VERTEX
  8
0
  5
1CB81
 10
68.6859
 20
62.0799
 30
0.000000
  70
    32
  0
VERTEX
  8
0
  5
1CB82
 10
68.6867
 20
62.0780
 30
0.000000
  70
    32
  0
VERTEX
  8
0
  5
1CB83
 10
68.6875
 20
62.0761
 30
0.000000
  70
    32
  0
VERTEX
  8
0
  5
1CB84
 10
68.6884
 20
62.0743
 30
0.000000
  70
    32
  0
VERTEX
  8
0
  5
1CB85
 10
68.6892
 20
62.0724
 30
0.000000
  70
    32
  0
VERTEX
  8
0
  5
1CB86
 10
68.6900
 20
62.0706
 30
0.000000
  70
    32
  0
VERTEX
  8
0
  5
1CB87
 10
68.6908
 20
62.0688
 30
0.000000
  70
    32
  0
VERTEX
  8
0
  5
1CB88
 10
68.6917
 20
62.0670
 30
0.000000
  70
    32
  0
VERTEX
  8
0
  5
1CB89
 10
68.6925
 20
62.0653
 30
0.000000
  70
    32
  0
VERTEX
  8
0
  5
1CB8A
 10
68.6933
 20
62.0635
 30
0.000000
  70
    32
  0
VERTEX
  8
0
  5
1CB8B
 10
68.6942
 20
62.0618
 30
0.000000
  70
    32
  0
VERTEX
  8
0
  5
1CB8C
 10
68.6950
 20
62.0602
 30
0.000000
  70
    32
  0
VERTEX
  8
0
  5
1CB8D
 10
68.6958
 20
62.0585
 30
0.000000
  70
    32
  0
VERTEX
  8
0
  5
1CB8E
 10
68.6966
 20
62.0569
 30
0.000000
  70
    32
  0
VERTEX
  8
0
  5
1CB8F
 10
68.6975
 20
62.0553
 30
0.000000
  70
    32
  0
VERTEX
  8
0
  5
1CB90
 10
68.6983
 20
62.0537
 30
0.000000
  70
    32
  0
VERTEX
  8
0
  5
1CB91
 10
68.6991
 20
62.0521
 30
0.000000
  70
    32
  0
VERTEX
  8
0
  5
1CB92
 10
68.6999
 20
62.0506
 30
0.000000
  70
    32
  0
VERTEX
  8
0
  5
1CB93
 10
68.7008
 20
62.0490
 30
0.000000
  70
    32
  0
VERTEX
  8
0
  5
1CB94
 10
68.7016
 20
62.0475
 30
0.000000
  70
    32
  0
VERTEX
  8
0
  5
1CB95
 10
68.7024
 20
62.0461
 30
0.000000
  70
    32
  0
VERTEX
  8
0
  5
1CB96
 10
68.7033
 20
62.0446
 30
0.000000
  70
    32
  0
VERTEX
  8
0
  5
1CB97
 10
68.7041
 20
62.0432
 30
0.000000
  70
    32
  0
VERTEX
  8
0
  5
1CB98
 10
68.7049
 20
62.0418
 30
0.000000
  70
    32
  0
VERTEX
  8
0
  5
1CB99
 10
68.7058
 20
62.0404
 30
0.000000
  70
    32
  0
VERTEX
  8
0
  5
1CB9A
 10
68.7066
 20
62.0391
 30
0.000000
  70
    32
  0
VERTEX
  8
0
  5
1CB9B
 10
68.7074
 20
62.0377
 30
0.000000
  70
    32
  0
VERTEX
  8
0
  5
1CB9C
 10
68.7082
 20
62.0364
 30
0.000000
  70
    32
  0
VERTEX
  8
0
  5
1CB9D
 10
68.7091
 20
62.0351
 30
0.000000
  70
    32
  0
VERTEX
  8
0
  5
1CB9E
 10
68.7099
 20
62.0339
 30
0.000000
  70
    32
  0
VERTEX
  8
0
  5
1CB9F
 10
68.7107
 20
62.0326
 30
0.000000
  70
    32
  0
VERTEX
  8
0
  5
1CBA0
 10
68.7116
 20
62.0314
 30
0.000000
  70
    32
  0
VERTEX
  8
0
  5
1CBA1
 10
68.7124
 20
62.0302
 30
0.000000
  70
    32
  0
VERTEX
  8
0
  5
1CBA2
 10
68.7132
 20
62.0290
 30
0.000000
  70
    32
  0
VERTEX
  8
0
  5
1CBA3
 10
68.7141
 20
62.0279
 30
0.000000
  70
    32
  0
VERTEX
  8
0
  5
1CBA4
 10
68.7149
 20
62.0268
 30
0.000000
  70
    32
  0
VERTEX
  8
0
  5
1CBA5
 10
68.7157
 20
62.0257
 30
0.000000
  70
    32
  0
VERTEX
  8
0
  5
1CBA6
 10
68.7166
 20
62.0246
 30
0.000000
  70
    32
  0
VERTEX
  8
0
  5
1CBA7
 10
68.7174
 20
62.0235
 30
0.000000
  70
    32
  0
VERTEX
  8
0
  5
1CBA8
 10
68.7182
 20
62.0225
 30
0.000000
  70
    32
  0
VERTEX
  8
0
  5
1CBA9
 10
68.7190
 20
62.0215
 30
0.000000
  70
    32
  0
VERTEX
  8
0
  5
1CBAA
 10
68.7199
 20
62.0205
 30
0.000000
  70
    32
  0
VERTEX
  8
0
  5
1CBAB
 10
68.7207
 20
62.0195
 30
0.000000
  70
    32
  0
VERTEX
  8
0
  5
1CBAC
 10
68.7215
 20
62.0186
 30
0.000000
  70
    32
  0
VERTEX
  8
0
  5
1CBAD
 10
68.7224
 20
62.0177
 30
0.000000
  70
    32
  0
VERTEX
  8
0
  5
1CBAE
 10
68.7232
 20
62.0168
 30
0.000000
  70
    32
  0
VERTEX
  8
0
  5
1CBAF
 10
68.7240
 20
62.0159
 30
0.000000
  70
    32
  0
VERTEX
  8
0
  5
1CBB0
 10
68.7249
 20
62.0151
 30
0.000000
  70
    32
  0
VERTEX
  8
0
  5
1CBB1
 10
68.7257
 20
62.0142
 30
0.000000
  70
    32
  0
VERTEX
  8
0
  5
1CBB2
 10
68.7265
 20
62.0134
 30
0.000000
  70
    32
  0
VERTEX
  8
0
  5
1CBB3
 10
68.7274
 20
62.0127
 30
0.000000
  70
    32
  0
VERTEX
  8
0
  5
1CBB4
 10
68.7282
 20
62.0119
 30
0.000000
  70
    32
  0
VERTEX
  8
0
  5
1CBB5
 10
68.7290
 20
62.0112
 30
0.000000
  70
    32
  0
VERTEX
  8
0
  5
1CBB6
 10
68.7299
 20
62.0105
 30
0.000000
  70
    32
  0
VERTEX
  8
0
  5
1CBB7
 10
68.7307
 20
62.0098
 30
0.000000
  70
    32
  0
VERTEX
  8
0
  5
1CBB8
 10
68.7315
 20
62.0091
 30
0.000000
  70
    32
  0
VERTEX
  8
0
  5
1CBB9
 10
68.7324
 20
62.0085
 30
0.000000
  70
    32
  0
VERTEX
  8
0
  5
1CBBA
 10
68.7332
 20
62.0079
 30
0.000000
  70
    32
  0
VERTEX
  8
0
  5
1CBBB
 10
68.7340
 20
62.0073
 30
0.000000
  70
    32
  0
VERTEX
  8
0
  5
1CBBC
 10
68.7349
 20
62.0067
 30
0.000000
  70
    32
  0
VERTEX
  8
0
  5
1CBBD
 10
68.7357
 20
62.0061
 30
0.000000
  70
    32
  0
VERTEX
  8
0
  5
1CBBE
 10
68.7365
 20
62.0056
 30
0.000000
  70
    32
  0
VERTEX
  8
0
  5
1CBBF
 10
68.7374
 20
62.0051
 30
0.000000
  70
    32
  0
VERTEX
  8
0
  5
1CBC0
 10
68.7382
 20
62.0046
 30
0.000000
  70
    32
  0
VERTEX
  8
0
  5
1CBC1
 10
68.7390
 20
62.0042
 30
0.000000
  70
    32
  0
VERTEX
  8
0
  5
1CBC2
 10
68.7399
 20
62.0038
 30
0.000000
  70
    32
  0
VERTEX
  8
0
  5
1CBC3
 10
68.7407
 20
62.0034
 30
0.000000
  70
    32
  0
VERTEX
  8
0
  5
1CBC4
 10
68.7415
 20
62.0030
 30
0.000000
  70
    32
  0
VERTEX
  8
0
  5
1CBC5
 10
68.7424
 20
62.0026
 30
0.000000
  70
    32
  0
VERTEX
  8
0
  5
1CBC6
 10
68.7432
 20
62.0023
 30
0.000000
  70
    32
  0
VERTEX
  8
0
  5
1CBC7
 10
68.7440
 20
62.0020
 30
0.000000
  70
    32
  0
VERTEX
  8
0
  5
1CBC8
 10
68.7449
 20
62.0017
 30
0.000000
  70
    32
  0
VERTEX
  8
0
  5
1CBC9
 10
68.7457
 20
62.0014
 30
0.000000
  70
    32
  0
VERTEX
  8
0
  5
1CBCA
 10
68.7465
 20
62.0012
 30
0.000000
  70
    32
  0
VERTEX
  8
0
  5
1CBCB
 10
68.7474
 20
62.0009
 30
0.000000
  70
    32
  0
VERTEX
  8
0
  5
1CBCC
 10
68.7482
 20
62.0007
 30
0.000000
  70
    32
  0
VERTEX
  8
0
  5
1CBCD
 10
68.7490
 20
62.0006
 30
0.000000
  70
    32
  0
VERTEX
  8
0
  5
1CBCE
 10
68.7499
 20
62.0004
 30
0.000000
  70
    32
  0
VERTEX
  8
0
  5
1CBCF
 10
68.7507
 20
62.0003
 30
0.000000
  70
    32
  0
VERTEX
  8
0
  5
1CBD0
 10
68.7515
 20
62.0002
 30
0.000000
  70
    32
  0
VERTEX
  8
0
  5
1CBD1
 10
68.7524
 20
62.0001
 30
0.000000
  70
    32
  0
VERTEX
  8
0
  5
1CBD2
 10
68.7532
 20
62.0000
 30
0.000000
  70
    32
  0
VERTEX
  8
0
  5
1CBD3
 10
68.7540
 20
62.0000
 30
0.000000
  70
    32
  0
VERTEX
  8
0
  5
1CBD4
 10
68.7549
 20
62.0000
 30
0.000000
  70
    32
  0
SEQEND
  8
0
  5
1CBD5
  0
POLYLINE
  5
14BBD
  8
0
 10
71.158493801067607
 20
61.999999999999943
 30
0.0
 66
     1
 70
     8
  0
VERTEX
  8
0
  5
1CBD6
 10
71.1585
 20
62.0000
 30
0.000000
  70
    32
  0
VERTEX
  8
0
  5
1CBD7
 10
71.1593
 20
62.0000
 30
0.000000
  70
    32
  0
VERTEX
  8
0
  5
1CBD8
 10
71.1602
 20
62.0000
 30
0.000000
  70
    32
  0
VERTEX
  8
0
  5
1CBD9
 10
71.1610
 20
62.0001
 30
0.000000
  70
    32
  0
VERTEX
  8
0
  5
1CBDA
 10
71.1618
 20
62.0002
 30
0.000000
  70
    32
  0
VERTEX
  8
0
  5
1CBDB
 10
71.1627
 20
62.0003
 30
0.000000
  70
    32
  0
VERTEX
  8
0
  5
1CBDC
 10
71.1635
 20
62.0004
 30
0.000000
  70
    32
  0
VERTEX
  8
0
  5
1CBDD
 10
71.1643
 20
62.0006
 30
0.000000
  70
    32
  0
VERTEX
  8
0
  5
1CBDE
 10
71.1652
 20
62.0007
 30
0.000000
  70
    32
  0
VERTEX
  8
0
  5
1CBDF
 10
71.1660
 20
62.0009
 30
0.000000
  70
    32
  0
VERTEX
  8
0
  5
1CBE0
 10
71.1668
 20
62.0012
 30
0.000000
  70
    32
  0
VERTEX
  8
0
  5
1CBE1
 10
71.1677
 20
62.0014
 30
0.000000
  70
    32
  0
VERTEX
  8
0
  5
1CBE2
 10
71.1685
 20
62.0017
 30
0.000000
  70
    32
  0
VERTEX
  8
0
  5
1CBE3
 10
71.1693
 20
62.0020
 30
0.000000
  70
    32
  0
VERTEX
  8
0
  5
1CBE4
 10
71.1702
 20
62.0023
 30
0.000000
  70
    32
  0
VERTEX
  8
0
  5
1CBE5
 10
71.1710
 20
62.0026
 30
0.000000
  70
    32
  0
VERTEX
  8
0
  5
1CBE6
 10
71.1718
 20
62.0030
 30
0.000000
  70
    32
  0
VERTEX
  8
0
  5
1CBE7
 10
71.1727
 20
62.0034
 30
0.000000
  70
    32
  0
VERTEX
  8
0
  5
1CBE8
 10
71.1735
 20
62.0038
 30
0.000000
  70
    32
  0
VERTEX
  8
0
  5
1CBE9
 10
71.1743
 20
62.0042
 30
0.000000
  70
    32
  0
VERTEX
  8
0
  5
1CBEA
 10
71.1752
 20
62.0046
 30
0.000000
  70
    32
  0
VERTEX
  8
0
  5
1CBEB
 10
71.1760
 20
62.0051
 30
0.000000
  70
    32
  0
VERTEX
  8
0
  5
1CBEC
 10
71.1768
 20
62.0056
 30
0.000000
  70
    32
  0
VERTEX
  8
0
  5
1CBED
 10
71.1777
 20
62.0061
 30
0.000000
  70
    32
  0
VERTEX
  8
0
  5
1CBEE
 10
71.1785
 20
62.0067
 30
0.000000
  70
    32
  0
VERTEX
  8
0
  5
1CBEF
 10
71.1793
 20
62.0073
 30
0.000000
  70
    32
  0
VERTEX
  8
0
  5
1CBF0
 10
71.1802
 20
62.0079
 30
0.000000
  70
    32
  0
VERTEX
  8
0
  5
1CBF1
 10
71.1810
 20
62.0085
 30
0.000000
  70
    32
  0
VERTEX
  8
0
  5
1CBF2
 10
71.1818
 20
62.0091
 30
0.000000
  70
    32
  0
VERTEX
  8
0
  5
1CBF3
 10
71.1827
 20
62.0098
 30
0.000000
  70
    32
  0
VERTEX
  8
0
  5
1CBF4
 10
71.1835
 20
62.0105
 30
0.000000
  70
    32
  0
VERTEX
  8
0
  5
1CBF5
 10
71.1843
 20
62.0112
 30
0.000000
  70
    32
  0
VERTEX
  8
0
  5
1CBF6
 10
71.1852
 20
62.0119
 30
0.000000
  70
    32
  0
VERTEX
  8
0
  5
1CBF7
 10
71.1860
 20
62.0127
 30
0.000000
  70
    32
  0
VERTEX
  8
0
  5
1CBF8
 10
71.1868
 20
62.0134
 30
0.000000
  70
    32
  0
VERTEX
  8
0
  5
1CBF9
 10
71.1877
 20
62.0142
 30
0.000000
  70
    32
  0
VERTEX
  8
0
  5
1CBFA
 10
71.1885
 20
62.0151
 30
0.000000
  70
    32
  0
VERTEX
  8
0
  5
1CBFB
 10
71.1893
 20
62.0159
 30
0.000000
  70
    32
  0
VERTEX
  8
0
  5
1CBFC
 10
71.1902
 20
62.0168
 30
0.000000
  70
    32
  0
VERTEX
  8
0
  5
1CBFD
 10
71.1910
 20
62.0177
 30
0.000000
  70
    32
  0
VERTEX
  8
0
  5
1CBFE
 10
71.1918
 20
62.0186
 30
0.000000
  70
    32
  0
VERTEX
  8
0
  5
1CBFF
 10
71.1927
 20
62.0195
 30
0.000000
  70
    32
  0
VERTEX
  8
0
  5
1CC00
 10
71.1935
 20
62.0205
 30
0.000000
  70
    32
  0
VERTEX
  8
0
  5
1CC01
 10
71.1943
 20
62.0215
 30
0.000000
  70
    32
  0
VERTEX
  8
0
  5
1CC02
 10
71.1952
 20
62.0225
 30
0.000000
  70
    32
  0
VERTEX
  8
0
  5
1CC03
 10
71.1960
 20
62.0235
 30
0.000000
  70
    32
  0
VERTEX
  8
0
  5
1CC04
 10
71.1968
 20
62.0246
 30
0.000000
  70
    32
  0
VERTEX
  8
0
  5
1CC05
 10
71.1976
 20
62.0257
 30
0.000000
  70
    32
  0
VERTEX
  8
0
  5
1CC06
 10
71.1985
 20
62.0268
 30
0.000000
  70
    32
  0
VERTEX
  8
0
  5
1CC07
 10
71.1993
 20
62.0279
 30
0.000000
  70
    32
  0
VERTEX
  8
0
  5
1CC08
 10
71.2001
 20
62.0290
 30
0.000000
  70
    32
  0
VERTEX
  8
0
  5
1CC09
 10
71.2010
 20
62.0302
 30
0.000000
  70
    32
  0
VERTEX
  8
0
  5
1CC0A
 10
71.2018
 20
62.0314
 30
0.000000
  70
    32
  0
VERTEX
  8
0
  5
1CC0B
 10
71.2026
 20
62.0326
 30
0.000000
  70
    32
  0
VERTEX
  8
0
  5
1CC0C
 10
71.2035
 20
62.0339
 30
0.000000
  70
    32
  0
VERTEX
  8
0
  5
1CC0D
 10
71.2043
 20
62.0351
 30
0.000000
  70
    32
  0
VERTEX
  8
0
  5
1CC0E
 10
71.2051
 20
62.0364
 30
0.000000
  70
    32
  0
VERTEX
  8
0
  5
1CC0F
 10
71.2060
 20
62.0377
 30
0.000000
  70
    32
  0
VERTEX
  8
0
  5
1CC10
 10
71.2068
 20
62.0391
 30
0.000000
  70
    32
  0
VERTEX
  8
0
  5
1CC11
 10
71.2076
 20
62.0404
 30
0.000000
  70
    32
  0
VERTEX
  8
0
  5
1CC12
 10
71.2084
 20
62.0418
 30
0.000000
  70
    32
  0
VERTEX
  8
0
  5
1CC13
 10
71.2093
 20
62.0432
 30
0.000000
  70
    32
  0
VERTEX
  8
0
  5
1CC14
 10
71.2101
 20
62.0446
 30
0.000000
  70
    32
  0
VERTEX
  8
0
  5
1CC15
 10
71.2109
 20
62.0461
 30
0.000000
  70
    32
  0
VERTEX
  8
0
  5
1CC16
 10
71.2118
 20
62.0475
 30
0.000000
  70
    32
  0
VERTEX
  8
0
  5
1CC17
 10
71.2126
 20
62.0490
 30
0.000000
  70
    32
  0
VERTEX
  8
0
  5
1CC18
 10
71.2134
 20
62.0506
 30
0.000000
  70
    32
  0
VERTEX
  8
0
  5
1CC19
 10
71.2142
 20
62.0521
 30
0.000000
  70
    32
  0
VERTEX
  8
0
  5
1CC1A
 10
71.2151
 20
62.0537
 30
0.000000
  70
    32
  0
VERTEX
  8
0
  5
1CC1B
 10
71.2159
 20
62.0553
 30
0.000000
  70
    32
  0
VERTEX
  8
0
  5
1CC1C
 10
71.2167
 20
62.0569
 30
0.000000
  70
    32
  0
VERTEX
  8
0
  5
1CC1D
 10
71.2176
 20
62.0585
 30
0.000000
  70
    32
  0
VERTEX
  8
0
  5
1CC1E
 10
71.2184
 20
62.0602
 30
0.000000
  70
    32
  0
VERTEX
  8
0
  5
1CC1F
 10
71.2192
 20
62.0618
 30
0.000000
  70
    32
  0
VERTEX
  8
0
  5
1CC20
 10
71.2200
 20
62.0635
 30
0.000000
  70
    32
  0
VERTEX
  8
0
  5
1CC21
 10
71.2209
 20
62.0653
 30
0.000000
  70
    32
  0
VERTEX
  8
0
  5
1CC22
 10
71.2217
 20
62.0670
 30
0.000000
  70
    32
  0
VERTEX
  8
0
  5
1CC23
 10
71.2225
 20
62.0688
 30
0.000000
  70
    32
  0
VERTEX
  8
0
  5
1CC24
 10
71.2234
 20
62.0706
 30
0.000000
  70
    32
  0
VERTEX
  8
0
  5
1CC25
 10
71.2242
 20
62.0724
 30
0.000000
  70
    32
  0
VERTEX
  8
0
  5
1CC26
 10
71.2250
 20
62.0743
 30
0.000000
  70
    32
  0
VERTEX
  8
0
  5
1CC27
 10
71.2258
 20
62.0761
 30
0.000000
  70
    32
  0
VERTEX
  8
0
  5
1CC28
 10
71.2267
 20
62.0780
 30
0.000000
  70
    32
  0
VERTEX
  8
0
  5
1CC29
 10
71.2275
 20
62.0799
 30
0.000000
  70
    32
  0
VERTEX
  8
0
  5
1CC2A
 10
71.2283
 20
62.0819
 30
0.000000
  70
    32
  0
VERTEX
  8
0
  5
1CC2B
 10
71.2291
 20
62.0838
 30
0.000000
  70
    32
  0
VERTEX
  8
0
  5
1CC2C
 10
71.2300
 20
62.0858
 30
0.000000
  70
    32
  0
VERTEX
  8
0
  5
1CC2D
 10
71.2308
 20
62.0878
 30
0.000000
  70
    32
  0
VERTEX
  8
0
  5
1CC2E
 10
71.2316
 20
62.0898
 30
0.000000
  70
    32
  0
VERTEX
  8
0
  5
1CC2F
 10
71.2324
 20
62.0919
 30
0.000000
  70
    32
  0
VERTEX
  8
0
  5
1CC30
 10
71.2333
 20
62.0939
 30
0.000000
  70
    32
  0
VERTEX
  8
0
  5
1CC31
 10
71.2341
 20
62.0960
 30
0.000000
  70
    32
  0
VERTEX
  8
0
  5
1CC32
 10
71.2349
 20
62.0982
 30
0.000000
  70
    32
  0
VERTEX
  8
0
  5
1CC33
 10
71.2357
 20
62.1003
 30
0.000000
  70
    32
  0
VERTEX
  8
0
  5
1CC34
 10
71.2366
 20
62.1025
 30
0.000000
  70
    32
  0
VERTEX
  8
0
  5
1CC35
 10
71.2374
 20
62.1046
 30
0.000000
  70
    32
  0
VERTEX
  8
0
  5
1CC36
 10
71.2382
 20
62.1069
 30
0.000000
  70
    32
  0
VERTEX
  8
0
  5
1CC37
 10
71.2390
 20
62.1091
 30
0.000000
  70
    32
  0
VERTEX
  8
0
  5
1CC38
 10
71.2398
 20
62.1113
 30
0.000000
  70
    32
  0
VERTEX
  8
0
  5
1CC39
 10
71.2407
 20
62.1136
 30
0.000000
  70
    32
  0
VERTEX
  8
0
  5
1CC3A
 10
71.2415
 20
62.1159
 30
0.000000
  70
    32
  0
VERTEX
  8
0
  5
1CC3B
 10
71.2423
 20
62.1182
 30
0.000000
  70
    32
  0
VERTEX
  8
0
  5
1CC3C
 10
71.2431
 20
62.1206
 30
0.000000
  70
    32
  0
VERTEX
  8
0
  5
1CC3D
 10
71.2440
 20
62.1230
 30
0.000000
  70
    32
  0
VERTEX
  8
0
  5
1CC3E
 10
71.2448
 20
62.1254
 30
0.000000
  70
    32
  0
VERTEX
  8
0
  5
1CC3F
 10
71.2456
 20
62.1278
 30
0.000000
  70
    32
  0
VERTEX
  8
0
  5
1CC40
 10
71.2464
 20
62.1302
 30
0.000000
  70
    32
  0
VERTEX
  8
0
  5
1CC41
 10
71.2472
 20
62.1327
 30
0.000000
  70
    32
  0
VERTEX
  8
0
  5
1CC42
 10
71.2481
 20
62.1352
 30
0.000000
  70
    32
  0
VERTEX
  8
0
  5
1CC43
 10
71.2489
 20
62.1377
 30
0.000000
  70
    32
  0
VERTEX
  8
0
  5
1CC44
 10
71.2497
 20
62.1402
 30
0.000000
  70
    32
  0
VERTEX
  8
0
  5
1CC45
 10
71.2505
 20
62.1427
 30
0.000000
  70
    32
  0
VERTEX
  8
0
  5
1CC46
 10
71.2513
 20
62.1453
 30
0.000000
  70
    32
  0
VERTEX
  8
0
  5
1CC47
 10
71.2522
 20
62.1479
 30
0.000000
  70
    32
  0
VERTEX
  8
0
  5
1CC48
 10
71.2530
 20
62.1505
 30
0.000000
  70
    32
  0
VERTEX
  8
0
  5
1CC49
 10
71.2538
 20
62.1532
 30
0.000000
  70
    32
  0
VERTEX
  8
0
  5
1CC4A
 10
71.2546
 20
62.1559
 30
0.000000
  70
    32
  0
VERTEX
  8
0
  5
1CC4B
 10
71.2554
 20
62.1585
 30
0.000000
  70
    32
  0
VERTEX
  8
0
  5
1CC4C
 10
71.2562
 20
62.1613
 30
0.000000
  70
    32
  0
VERTEX
  8
0
  5
1CC4D
 10
71.2571
 20
62.1640
 30
0.000000
  70
    32
  0
VERTEX
  8
0
  5
1CC4E
 10
71.2579
 20
62.1667
 30
0.000000
  70
    32
  0
VERTEX
  8
0
  5
1CC4F
 10
71.2587
 20
62.1695
 30
0.000000
  70
    32
  0
VERTEX
  8
0
  5
1CC50
 10
71.2595
 20
62.1723
 30
0.000000
  70
    32
  0
VERTEX
  8
0
  5
1CC51
 10
71.2603
 20
62.1752
 30
0.000000
  70
    32
  0
VERTEX
  8
0
  5
1CC52
 10
71.2611
 20
62.1780
 30
0.000000
  70
    32
  0
VERTEX
  8
0
  5
1CC53
 10
71.2620
 20
62.1809
 30
0.000000
  70
    32
  0
VERTEX
  8
0
  5
1CC54
 10
71.2628
 20
62.1838
 30
0.000000
  70
    32
  0
VERTEX
  8
0
  5
1CC55
 10
71.2636
 20
62.1867
 30
0.000000
  70
    32
  0
VERTEX
  8
0
  5
1CC56
 10
71.2644
 20
62.1896
 30
0.000000
  70
    32
  0
SEQEND
  8
0
  5
1CC57
  0
LINE
  5
14BBF
  8
0
 10
71.106683786684471
 20
62.499999999999943
 30
0.0
 11
71.106683786684471
 21
61.999999999999943
 31
0.0
  0
LINE
  5
14BC0
  8
0
 10
65.956683786684593
 20
61.999999999999943
 30
0.0
 11
69.306683786684516
 21
61.999999999999943
 31
0.0
  0
LINE
  5
14BC2
  8
0
 10
70.606683786684471
 20
61.999999999999943
 30
0.0
 11
73.956683786684593
 21
61.999999999999943
 31
0.0
  0
LINE
  5
14BC5
  8
0
 10
70.606683786684471
 20
62.499999999999943
 30
0.0
 11
70.606683786684471
 21
61.999999999999943
 31
0.0
  0
LINE
  5
14BC7
  8
0
 10
69.306683786684516
 20
62.499999999999943
 30
0.0
 11
69.306683786684516
 21
61.999999999999943
 31
0.0
  0
LINE
  5
14BD5
  8
2
 10
66.633183786684526
 20
63.176499999999862
 30
0.0
 11
73.280183786684574
 21
63.176499999999862
 31
0.0
  0
LINE
  5
14BD6
  8
2
 10
66.633183786684526
 20
78.490577457106781
 30
0.0
 11
73.280183786684574
 21
78.490577457106781
 31
0.0
  0
LINE
  5
14C80
  8
2
 10
73.956683786684593
 20
62.499999999999943
 30
0.0
 11
73.280183786684574
 21
63.176499999999862
 31
0.0
  0
LINE
  5
14C81
  8
2
 10
66.633183786684526
 20
63.176499999999862
 30
0.0
 11
65.956683786684593
 21
62.499999999999943
 31
0.0
  0
LINE
  5
14C82
  8
2
 10
73.280183786684574
 20
78.490577457106781
 30
0.0
 11
69.956683786684607
 21
80.409401076758456
 31
0.0
  0
LINE
  5
14C83
  8
2
 10
69.956683786684607
 20
80.409401076758456
 30
0.0
 11
66.633183786684526
 21
78.490577457106781
 31
0.0
  0
LINE
  5
14C84
  8
2
 10
66.633183786684526
 20
78.490577457106781
 30
0.0
 11
66.633183786684526
 21
63.176499999999862
 31
0.0
  0
LINE
  5
14C85
  8
2
 10
73.280183786684574
 20
63.176499999999862
 30
0.0
 11
73.280183786684574
 21
78.490577457106781
 31
0.0
  0
LINE
  5
15099
  8
2
 10
65.956683786684493
 20
62.5
 30
0.0
 11
65.956683786684721
 21
75.5
 31
0.0
  0
LINE
  5
1509B
  8
2
 10
65.956683786684721
 20
75.5
 30
0.0
 11
73.956683786684721
 21
75.499999999999943
 31
0.0
  0
LINE
  5
1509C
  8
2
 10
73.956683786684493
 20
62.499999999999943
 30
0.0
 11
73.956683786684721
 21
75.499999999999943
 31
0.0
  0
LINE
  5
150FE
  8
1
 10
69.956683786684607
 20
92.5
 30
0.0
 11
69.956683786684607
 21
56.999999999999943
 31
0.0
  0
LINE
  5
15144
  8
1
 10
79.456683786684607
 20
66.999999999999943
 30
0.0
 11
60.456683786684607
 21
66.999999999999943
 31
0.0
  0
LINE
  5
15230
  8
0
 10
268.0858204369913
 20
160.2791366503065
 30
0.0
 11
268.0858204369913
 21
162.82913665030651
 31
0.0
  0
LINE
  5
15231
  8
0
 10
268.0858204369913
 20
156.0291366503065
 30
0.0
 11
268.0858204369913
 21
158.57913665030659
 31
0.0
  0
LINE
  5
15232
  8
0
 10
206.08582043699121
 20
159.92913665030659
 30
0.0
 11
206.08582043699121
 21
161.44758573930369
 31
0.0
  0
LINE
  5
15233
  8
0
 10
206.08582043699121
 20
157.4106875613096
 30
0.0
 11
206.08582043699121
 21
158.92913665030659
 31
0.0
  0
ARC
  5
15234
  8
0
 10
238.5858204369913
 20
159.42913665030659
 30
0.0
 40
2.249999999999984
 50
192.83958840690599
 51
347.1604115930956
  0
ARC
  5
15235
  8
0
 10
232.5858204369913
 20
159.42913665030659
 30
0.0
 40
2.25
 50
12.83958840690601
 51
167.16041159309711
  0
ARC
  5
15236
  8
0
 10
232.5858204369913
 20
159.42913665030659
 30
0.0
 40
2.249999999999984
 50
192.8395884069044
 51
347.1604115930956
  0
ARC
  5
15237
  8
0
 10
244.5858204369913
 20
159.42913665030659
 30
0.0
 40
2.249999999999984
 50
192.83958840690599
 51
347.1604115930956
  0
ARC
  5
15238
  8
0
 10
208.58582043699121
 20
159.42913665030659
 30
0.0
 40
2.2500000000000062
 50
12.839588406904429
 51
167.16041159309549
  0
ARC
  5
15239
  8
0
 10
208.58582043699121
 20
159.42913665030659
 30
0.0
 40
2.2500000000000062
 50
192.83958840690281
 51
347.16041159309719
  0
ARC
  5
1523A
  8
0
 10
220.58582043699121
 20
159.42913665030659
 30
0.0
 40
2.2500000000000062
 50
192.8395884069044
 51
347.16041159309719
  0
ARC
  5
1523B
  8
0
 10
252.5858204369913
 20
159.42913665030659
 30
0.0
 40
2.2500000000000129
 50
245.23573932699901
 51
114.624318352176
  0
ARC
  5
1523C
  8
0
 10
214.58582043699121
 20
159.42913665030659
 30
0.0
 40
2.2500000000000062
 50
192.83958840690281
 51
347.16041159309719
  0
ARC
  5
1523D
  8
0
 10
226.58582043699121
 20
159.42913665030659
 30
0.0
 40
2.2500000000000342
 50
192.83958840690599
 51
286.16814915248051
  0
ARC
  5
1523E
  8
0
 10
226.58582043699121
 20
159.42913665030659
 30
0.0
 40
2.25
 50
43.635208626984799
 51
167.16041159309401
  0
LINE
  5
1523F
  8
0
 10
234.7795615338392
 20
158.92913665030659
 30
0.0
 11
236.3920793401434
 21
158.92913665030659
 31
0.0
  0
LINE
  5
15240
  8
0
 10
236.3920793401434
 20
159.92913665030659
 30
0.0
 11
234.7795615338392
 21
159.92913665030659
 31
0.0
  0
LINE
  5
15241
  8
0
 10
246.7795615338392
 20
158.92913665030659
 30
0.0
 11
249.1171934703909
 21
158.92913665030659
 31
0.0
  0
LINE
  5
15242
  8
0
 10
249.1171934703909
 20
159.92913665030659
 30
0.0
 11
246.7795615338392
 21
159.92913665030659
 31
0.0
  0
LINE
  5
15243
  8
0
 10
222.7795615338392
 20
158.92913665030659
 30
0.0
 11
224.39207934014311
 21
158.92913665030659
 31
0.0
  0
LINE
  5
15244
  8
0
 10
224.39207934014311
 20
159.92913665030659
 30
0.0
 11
222.7795615338392
 21
159.92913665030659
 31
0.0
  0
LINE
  5
15245
  8
0
 10
240.7795615338392
 20
158.92913665030659
 30
0.0
 11
242.3920793401434
 21
158.92913665030659
 31
0.0
  0
LINE
  5
15246
  8
0
 10
242.3920793401434
 20
159.92913665030659
 30
0.0
 11
240.7795615338392
 21
159.92913665030659
 31
0.0
  0
LINE
  5
15247
  8
0
 10
216.7795615338392
 20
158.92913665030659
 30
0.0
 11
218.39207934014311
 21
158.92913665030659
 31
0.0
  0
LINE
  5
15248
  8
0
 10
218.39207934014311
 20
159.92913665030659
 30
0.0
 11
216.7795615338392
 21
159.92913665030659
 31
0.0
  0
LINE
  5
15249
  8
0
 10
210.7795615338392
 20
158.92913665030659
 30
0.0
 11
212.39207934014311
 21
158.92913665030659
 31
0.0
  0
LINE
  5
1524A
  8
0
 10
212.39207934014311
 20
159.92913665030659
 30
0.0
 11
210.7795615338392
 21
159.92913665030659
 31
0.0
  0
LINE
  5
1524B
  8
0
 10
206.08582043699121
 20
158.92913665030659
 30
0.0
 11
206.3920793401432
 21
158.92913665030659
 31
0.0
  0
LINE
  5
1524C
  8
0
 10
206.3920793401432
 20
159.92913665030659
 30
0.0
 11
206.08582043699121
 21
159.92913665030659
 31
0.0
  0
LINE
  5
1524D
  8
0
 10
229.20723605814189
 20
158.92913665030659
 30
0.0
 11
230.3920793401434
 21
158.92913665030659
 31
0.0
  0
LINE
  5
1524E
  8
0
 10
230.3920793401434
 20
159.92913665030659
 30
0.0
 11
229.98039421918281
 21
159.92913665030659
 31
0.0
  0
POLYLINE
  5
1524F
  8
0
 66
     1
 10
0.0
 20
0.0
 30
0.0
 70
   128
  0
VERTEX
  5
1CB22
  8
0
 10
268.0858204369913
 20
160.2791366503065
 30
0.0
  0
VERTEX
  5
1CB23
  8
0
 10
268.08580120615079
 20
160.27636321074581
 30
0.0
  0
VERTEX
  5
1CB24
  8
0
 10
267.98243578203233
 20
160.10402104532861
 30
0.0
  0
VERTEX
  5
1CB25
  8
0
 10
267.88582043699142
 20
160.07913665030659
 30
0.0
  0
SEQEND
  5
1CB26
  8
0
  0
LINE
  5
15250
  8
0
 10
253.0858204369913
 20
163.42913665030659
 30
0.0
 11
267.48582043699128
 21
163.42913665030659
 31
0.0
  0
POLYLINE
  5
15251
  8
0
 66
     1
 10
0.0
 20
0.0
 30
0.0
 70
   128
  0
VERTEX
  5
1CB27
  8
0
 10
267.48582043699128
 20
163.42913665030659
 30
0.0
  0
VERTEX
  5
1CB28
  8
0
 10
267.86174882544378
 20
163.29676668222871
 30
0.0
  0
VERTEX
  5
1CB29
  8
0
 10
268.0858025797923
 20
162.83376572452349
 30
0.0
  0
VERTEX
  5
1CB2A
  8
0
 10
268.0858204369913
 20
162.82913665030651
 30
0.0
  0
SEQEND
  5
1CB2B
  8
0
  0
LINE
  5
15252
  8
0
 10
262.5858204369913
 20
160.07913665030659
 30
0.0
 11
267.88582043699142
 21
160.07913665030659
 31
0.0
  0
ARC
  5
15253
  8
0
 10
262.5858204369913
 20
160.57913665030651
 30
0.0
 40
0.5
 50
179.99999999999349
 51
270.0
  0
POLYLINE
  5
15254
  8
0
 66
     1
 10
0.0
 20
0.0
 30
0.0
 70
   128
  0
VERTEX
  5
1CB2C
  8
0
 10
268.0858204369913
 20
156.0291366503065
 30
0.0
  0
VERTEX
  5
1CB2D
  8
0
 10
268.0858025797923
 20
156.0245075760898
 30
0.0
  0
VERTEX
  5
1CB2E
  8
0
 10
267.86174882544378
 20
155.56150661838441
 30
0.0
  0
VERTEX
  5
1CB2F
  8
0
 10
267.48582043699128
 20
155.42913665030659
 30
0.0
  0
SEQEND
  5
1CB30
  8
0
  0
LINE
  5
15255
  8
0
 10
267.48582043699128
 20
155.42913665030659
 30
0.0
 11
253.0858204369913
 21
155.42913665030659
 31
0.0
  0
POLYLINE
  5
15256
  8
0
 66
     1
 10
0.0
 20
0.0
 30
0.0
 70
   128
  0
VERTEX
  5
1CB31
  8
0
 10
267.88582043699142
 20
158.7791366503065
 30
0.0
  0
VERTEX
  5
1CB32
  8
0
 10
267.98243578203233
 20
158.75425225528451
 30
0.0
  0
VERTEX
  5
1CB33
  8
0
 10
268.08580120615079
 20
158.5819100898683
 30
0.0
  0
VERTEX
  5
1CB34
  8
0
 10
268.0858204369913
 20
158.57913665030659
 30
0.0
  0
SEQEND
  5
1CB35
  8
0
  0
LINE
  5
15257
  8
0
 10
262.0858204369913
 20
158.57913665030659
 30
0.0
 11
262.0858204369913
 21
158.2791366503065
 31
0.0
  0
ARC
  5
15258
  8
0
 10
262.28582043699117
 20
158.57913665030659
 30
0.0
 40
0.1999999999999815
 50
90.0
 51
180.0
  0
LINE
  5
15259
  8
0
 10
267.88582043699142
 20
158.7791366503065
 30
0.0
 11
262.28582043699117
 21
158.7791366503065
 31
0.0
  0
ARC
  5
1525A
  8
0
 10
253.0858204369913
 20
159.42913665030659
 30
0.0
 40
4.0000000000001226
 50
90.0
 51
180.0
  0
ARC
  5
1525B
  8
0
 10
255.87190763114279
 20
162.96293321301101
 30
0.0
 40
1.9999999999997899
 50
231.7473341621459
 51
266.50000000001012
  0
ARC
  5
1525C
  8
0
 10
253.0858204369913
 20
159.42913665030659
 30
0.0
 40
2.500000000000099
 50
51.74733416215296
 51
308.25266938692442
  0
ARC
  5
1525D
  8
0
 10
255.8719076311433
 20
155.89534008760171
 30
0.0
 40
2.000000000000151
 50
93.500000000002984
 51
128.2526614015112
  0
ARC
  5
1525E
  8
0
 10
253.0858204369913
 20
159.42913665030659
 30
0.0
 40
4.0000000000001226
 50
180.0
 51
270.0
  0
LINE
  5
1525F
  8
0
 10
262.0858204369913
 20
158.2791366503065
 30
0.0
 11
255.74981055207331
 21
157.8916096844456
 31
0.0
  0
LINE
  5
15260
  8
0
 10
255.74981055207331
 20
160.96666361616761
 30
0.0
 11
262.0858204369913
 21
160.57913665030659
 31
0.0
  0
ARC
  5
15261
  8
0
 10
193.9329066843701
 20
156.4291366503065
 30
0.0
 40
8.0000000000001137
 50
77.500000000002274
 51
90.0
  0
LINE
  5
15262
  8
0
 10
205.615684205354
 20
162.0333633435757
 30
0.0
 11
195.66442359587489
 21
164.23950470726601
 31
0.0
  0
LINE
  5
15263
  8
0
 10
195.66442359587489
 20
154.61876859334711
 30
0.0
 11
205.6156842053542
 21
156.8249099570377
 31
0.0
  0
ARC
  5
15264
  8
0
 10
193.9329066843701
 20
162.42913665030679
 30
0.0
 40
8.0000000000002931
 50
270.0
 51
282.4999999999979
  0
LINE
  5
15265
  8
0
 10
193.9329066843701
 20
154.42913665030659
 30
0.0
 11
192.08582043699121
 21
154.42913665030659
 31
0.0
  0
ARC
  5
15266
  8
0
 10
192.08582043699121
 20
159.42913665030659
 30
0.0
 40
5.0000000000000302
 50
208.3576365763283
 51
270.0
  0
ARC
  5
15267
  8
0
 10
192.08582043699121
 20
159.42913665030659
 30
0.0
 40
5.0000000000000302
 50
90.0
 51
151.64236342367161
  0
LINE
  5
15268
  8
0
 10
193.9329066843701
 20
164.42913665030659
 30
0.0
 11
192.08582043699121
 21
164.42913665030659
 31
0.0
  0
ARC
  5
15269
  8
0
 10
192.08582043699121
 20
159.42913665030659
 30
0.0
 40
4.0000000000000142
 50
187.1807557814586
 51
172.8192442185414
  0
ARC
  5
1526A
  8
0
 10
192.08582043699121
 20
159.42913665030659
 30
0.0
 40
2.5000000000000351
 50
191.5369590328165
 51
168.46304096718339
  0
POLYLINE
  5
1526B
  8
0
 66
     1
 10
0.0
 20
0.0
 30
0.0
 70
   128
  0
VERTEX
  5
1CB36
  8
0
 10
205.61568420535411
 20
156.82490995703751
 30
0.0
  0
VERTEX
  5
1CB37
  8
0
 10
205.95703229325531
 20
157.0392587168237
 30
0.0
  0
VERTEX
  5
1CB38
  8
0
 10
206.08580304562159
 20
157.4061192634415
 30
0.0
  0
VERTEX
  5
1CB39
  8
0
 10
206.08582043699121
 20
157.4106875613096
 30
0.0
  0
SEQEND
  5
1CB3A
  8
0
  0
POLYLINE
  5
1526C
  8
0
 66
     1
 10
0.0
 20
0.0
 30
0.0
 70
   128
  0
VERTEX
  5
1CB3B
  8
0
 10
206.08582043699121
 20
161.44758573930369
 30
0.0
  0
VERTEX
  5
1CB3C
  8
0
 10
206.08580304562159
 20
161.45215403717151
 30
0.0
  0
VERTEX
  5
1CB3D
  8
0
 10
205.95703229325531
 20
161.81901458378951
 30
0.0
  0
VERTEX
  5
1CB3E
  8
0
 10
205.61568420535411
 20
162.03336334357559
 30
0.0
  0
SEQEND
  5
1CB3F
  8
0
  0
POLYLINE
  5
1526D
  8
0
 66
     1
 10
0.0
 20
0.0
 30
0.0
 70
   128
  0
VERTEX
  5
1CB40
  8
0
 10
206.08582043699121
 20
158.92913665030659
 30
0.0
  0
VERTEX
  5
1CB41
  8
0
 10
206.08242515525561
 20
158.95706750912819
 30
0.0
  0
VERTEX
  5
1CB42
  8
0
 10
206.07371489579731
 20
159.0375983832424
 30
0.0
  0
VERTEX
  5
1CB43
  8
0
 10
206.0634029688635
 20
159.16237308859701
 30
0.0
  0
VERTEX
  5
1CB44
  8
0
 10
206.0560079607973
 20
159.3178308814287
 30
0.0
  0
VERTEX
  5
1CB45
  8
0
 10
206.054842932811
 20
159.48516853697171
 30
0.0
  0
VERTEX
  5
1CB46
  8
0
 10
206.06032814785959
 20
159.64526518556599
 30
0.0
  0
VERTEX
  5
1CB47
  8
0
 10
206.0700660854545
 20
159.7815758469049
 30
0.0
  0
VERTEX
  5
1CB48
  8
0
 10
206.0798802473297
 20
159.8791519484484
 30
0.0
  0
VERTEX
  5
1CB49
  8
0
 10
206.0854238971589
 20
159.92595436193261
 30
0.0
  0
VERTEX
  5
1CB4A
  8
0
 10
206.08582043699121
 20
159.92913665030659
 30
0.0
  0
SEQEND
  5
1CB4B
  8
0
  0
POLYLINE
  5
1526E
  8
0
 66
     1
 10
0.0
 20
0.0
 30
0.0
 70
   128
  0
VERTEX
  5
1CB4C
  8
0
 10
187.68582043699121
 20
161.8040050677142
 30
0.0
  0
VERTEX
  5
1CB4D
  8
0
 10
187.3098920485387
 20
160.90917314592869
 30
0.0
  0
VERTEX
  5
1CB4E
  8
0
 10
187.1601785181798
 20
159.92913665030659
 30
0.0
  0
SEQEND
  5
1CB4F
  8
0
  0
POLYLINE
  5
1526F
  8
0
 66
     1
 10
0.0
 20
0.0
 30
0.0
 70
   128
  0
VERTEX
  5
1CB50
  8
0
 10
187.1601785181798
 20
158.92913665030659
 30
0.0
  0
VERTEX
  5
1CB51
  8
0
 10
187.3098920485387
 20
157.94910015468449
 30
0.0
  0
VERTEX
  5
1CB52
  8
0
 10
187.68582043699121
 20
157.05426823289909
 30
0.0
  0
SEQEND
  5
1CB53
  8
0
  0
LINE
  5
15270
  8
0
 10
240.7795615338392
 20
158.92913665030659
 30
0.0
 11
240.7795615338392
 21
159.92913665030659
 31
0.0
  0
LINE
  5
15271
  8
0
 10
236.3920793401434
 20
159.92913665030659
 30
0.0
 11
236.3920793401434
 21
158.92913665030659
 31
0.0
  0
LINE
  5
15272
  8
0
 10
234.7795615338392
 20
158.92913665030659
 30
0.0
 11
234.7795615338392
 21
159.92913665030659
 31
0.0
  0
LINE
  5
15273
  8
0
 10
230.3920793401434
 20
159.92913665030659
 30
0.0
 11
230.3920793401434
 21
158.92913665030659
 31
0.0
  0
LINE
  5
15274
  8
0
 10
246.7795615338392
 20
158.92913665030659
 30
0.0
 11
246.7795615338392
 21
159.92913665030659
 31
0.0
  0
LINE
  5
15275
  8
0
 10
242.3920793401434
 20
159.92913665030659
 30
0.0
 11
242.3920793401434
 21
158.92913665030659
 31
0.0
  0
LINE
  5
15276
  8
0
 10
210.7795615338392
 20
158.92913665030659
 30
0.0
 11
210.7795615338392
 21
159.92913665030659
 31
0.0
  0
LINE
  5
15277
  8
0
 10
206.3920793401432
 20
159.92913665030659
 30
0.0
 11
206.3920793401432
 21
158.92913665030659
 31
0.0
  0
LINE
  5
15278
  8
0
 10
222.7795615338392
 20
158.92913665030659
 30
0.0
 11
222.7795615338392
 21
159.92913665030659
 31
0.0
  0
LINE
  5
15279
  8
0
 10
218.39207934014311
 20
159.92913665030659
 30
0.0
 11
218.39207934014311
 21
158.92913665030659
 31
0.0
  0
LINE
  5
1527A
  8
0
 10
216.7795615338392
 20
158.92913665030659
 30
0.0
 11
216.7795615338392
 21
159.92913665030659
 31
0.0
  0
LINE
  5
1527B
  8
0
 10
212.39207934014311
 20
159.92913665030659
 30
0.0
 11
212.39207934014311
 21
158.92913665030659
 31
0.0
  0
LINE
  5
1527C
  8
0
 10
224.39207934014311
 20
159.92913665030659
 30
0.0
 11
224.39207934014311
 21
158.92913665030659
 31
0.0
  0
POLYLINE
  5
1527D
  8
4
 66
     1
 10
0.0
 20
0.0
 30
0.0
  0
VERTEX
  5
1527E
  8
4
 10
229.84054079494811
 20
156.35724867198491
 30
0.0
 42
-0.0744127175610667
  0
VERTEX
  5
1527F
  8
4
 10
229.3160456377588
 20
157.0512146659546
 30
0.0
 42
-0.1536795722212451
  0
VERTEX
  5
15280
  8
4
 10
229.0523128619927
 20
158.3958816862887
 30
0.0
 42
-0.1847247553159499
  0
VERTEX
  5
15281
  8
4
 10
229.5858190976661
 20
159.42913665030659
 30
0.0
 42
0.1729818233278114
  0
VERTEX
  5
15282
  8
4
 10
230.17808808179251
 20
160.51485623248749
 30
0.0
 42
0.1305645647028073
  0
VERTEX
  5
15283
  8
4
 10
230.02267392603201
 20
162.0206626636986
 30
0.0
 42
0.0267269543158863
  0
VERTEX
  5
15284
  8
4
 10
229.87399704743041
 20
162.35724867198491
 30
0.0
  0
SEQEND
  5
15285
  8
4
  0
POLYLINE
  5
15286
  8
4
 66
     1
 10
0.0
 20
0.0
 30
0.0
  0
VERTEX
  5
15287
  8
4
 10
227.84054079498151
 20
156.35724867198491
 30
0.0
 42
-0.0744127175610667
  0
VERTEX
  5
15288
  8
4
 10
227.31604563779231
 20
157.0512146659546
 30
0.0
 42
-0.1536795722212451
  0
VERTEX
  5
15289
  8
4
 10
227.0523128620261
 20
158.3958816862887
 30
0.0
 42
-0.1847247553159499
  0
VERTEX
  5
1528A
  8
4
 10
227.5858190976995
 20
159.42913665030659
 30
0.0
 42
0.1729818233278114
  0
VERTEX
  5
1528B
  8
4
 10
228.1780880818259
 20
160.51485623248749
 30
0.0
 42
0.1305645647028073
  0
VERTEX
  5
1528C
  8
4
 10
228.02267392606541
 20
162.0206626636986
 30
0.0
 42
0.0267269543158863
  0
VERTEX
  5
1528D
  8
4
 10
227.8739970474638
 20
162.35724867198491
 30
0.0
  0
SEQEND
  5
1528E
  8
4
  0
ARC
  5
1528F
  8
0
 10
220.58582043699121
 20
159.42913665030659
 30
0.0
 40
2.2500000000000062
 50
12.83958840690125
 51
167.1604115930987
  0
ARC
  5
15290
  8
0
 10
214.58582043699121
 20
159.42913665030659
 30
0.0
 40
2.2500000000000062
 50
12.83958840690125
 51
167.1604115930987
  0
ARC
  5
15291
  8
0
 10
238.5858204369913
 20
159.42913665030659
 30
0.0
 40
2.249999999999984
 50
12.8395884069076
 51
167.16041159309239
  0
ARC
  5
15292
  8
0
 10
244.5858204369913
 20
159.42913665030659
 30
0.0
 40
2.249999999999984
 50
12.8395884069076
 51
167.16041159309239
  0
LINE
  5
15293
  8
2
 10
265.5858204369913
 20
161.92913665030659
 30
0.0
 11
260.5858204369913
 21
161.92913665030659
 31
0.0
  0
LINE
  5
15294
  8
2
 10
265.5858204369913
 20
156.92913665030659
 30
0.0
 11
260.5858204369913
 21
156.92913665030659
 31
0.0
  0
LINE
  5
15295
  8
2
 10
259.0858204369913
 20
163.42913665030659
 30
0.0
 11
260.5858204369913
 21
161.92913665030659
 31
0.0
  0
LINE
  5
15296
  8
2
 10
265.5858204369913
 20
161.92913665030659
 30
0.0
 11
267.0858204369913
 21
163.42913665030659
 31
0.0
  0
LINE
  5
15297
  8
2
 10
267.0858204369913
 20
155.42913665030659
 30
0.0
 11
265.5858204369913
 21
156.92913665030659
 31
0.0
  0
LINE
  5
15298
  8
2
 10
260.5858204369913
 20
156.92913665030659
 30
0.0
 11
259.0858204369913
 21
155.42913665030659
 31
0.0
  0
LINE
  5
15299
  8
2
 10
265.5858204369913
 20
160.07913665030659
 30
0.0
 11
265.5858204369913
 21
161.92913665030659
 31
0.0
  0
LINE
  5
1529A
  8
2
 10
260.5858204369913
 20
161.92913665030659
 30
0.0
 11
260.5858204369913
 21
160.67088058053241
 31
0.0
  0
LINE
  5
1529B
  8
2
 10
265.5858204369913
 20
156.92913665030659
 30
0.0
 11
265.5858204369913
 21
158.7791366503067
 31
0.0
  0
LINE
  5
1529C
  8
2
 10
260.5858204369913
 20
158.18739272008091
 30
0.0
 11
260.5858204369913
 21
156.92913665030659
 31
0.0
  0
LINE
  5
1529D
  8
1
 10
192.08582043699121
 20
164.92913665030659
 30
0.0
 11
192.08582043699121
 21
153.92913665030659
 31
0.0
  0
LINE
  5
1529E
  8
1
 10
202.5858204369913
 20
164.24148724102869
 30
0.0
 11
202.5858204369913
 21
154.61678605958451
 31
0.0
  0
LINE
  5
1529F
  8
1
 10
252.5858204369913
 20
163.17913665030659
 30
0.0
 11
252.5858204369913
 21
155.67913665030659
 31
0.0
  0
LINE
  5
152A0
  8
1
 10
263.0858204369913
 20
164.92913665030659
 30
0.0
 11
263.0858204369913
 21
153.92913665030659
 31
0.0
  0
LINE
  5
152A3
  8
1
 10
271.0858204369913
 20
159.42913665030659
 30
0.0
 11
136.885820436991
 21
159.42913665030659
 31
0.0
  0
LINE
  5
152A6
  8
1
 10
159.88582043699111
 20
136.42913665030659
 30
0.0
 11
159.88582043699111
 21
182.42913665030659
 31
0.0
  0
LINE
  5
15399
  8
2
 10
155.88582043699111
 20
62.5
 30
0.0
 11
155.88582043699131
 21
75.5
 31
0.0
  0
LINE
  5
1539A
  8
2
 10
155.88582043699131
 20
75.5
 30
0.0
 11
163.88582043699131
 21
75.499999999999943
 31
0.0
  0
LINE
  5
1539B
  8
2
 10
163.88582043699111
 20
62.499999999999943
 30
0.0
 11
163.88582043699131
 21
75.499999999999943
 31
0.0
  0
LINE
  5
1539C
  8
1
 10
159.8858204369912
 20
92.5
 30
0.0
 11
159.8858204369912
 21
59.499999999999943
 31
0.0
  0
LINE
  5
153A0
  8
1
 10
150.38582043699111
 20
66.999999999999943
 30
0.0
 11
271.08582043699118
 21
66.999999999999943
 31
0.0
  0
LINE
  5
1651D
  8
0
 10
176.457863822489
 20
79.567474997701254
 30
0.0
 11
176.45786382248889
 21
77.545192317513681
 31
0.0
  0
ENDSEC
  0
EOF
