  0
SECTION
  2
HEADER
  9
$ACADVER
  1
AC1009
  9
$INSBASE
 10
0.0
 20
0.0
 30
0.0
  9
$EXTMIN
 10
0.0
 20
-2.960436562073669
 30
0.0
  9
$EXTMAX
 10
445.0
 20
284.99999999999989
 30
0.0
  9
$LIMMIN
 10
0.0
 20
0.0
  9
$LIMMAX
 10
375.0
 20
270.0
  9
$ORTHOMODE
 70
     1
  9
$REGENMODE
 70
     1
  9
$FILLMODE
 70
     1
  9
$QTEXTMODE
 70
     0
  9
$MIRRTEXT
 70
     0
  9
$DRAGMODE
 70
     2
  9
$LTSCALE
 40
10.0
  9
$OSMODE
 70
    37
  9
$ATTMODE
 70
     1
  9
$TEXTSIZE
 40
4.000000000000048
  9
$TRACEWID
 40
0.05
  9
$TEXTSTYLE
  7
STANDARD
  9
$CLAYER
  8
0
  9
$CELTYPE
  6
BYLAYER
  9
$CECOLOR
 62
   256
  9
$DIMSCALE
 40
1.0
  9
$DIMASZ
 40
3.0
  9
$DIMEXO
 40
2.0
  9
$DIMDLI
 40
0.38
  9
$DIMRND
 40
0.0
  9
$DIMDLE
 40
0.0
  9
$DIMEXE
 40
2.0
  9
$DIMTP
 40
0.0
  9
$DIMTM
 40
0.0
  9
$DIMTXT
 40
3.2000000000000002
  9
$DIMCEN
 40
0.0
  9
$DIMTSZ
 40
0.0
  9
$DIMTOL
 70
     0
  9
$DIMLIM
 70
     0
  9
$DIMTIH
 70
     0
  9
$DIMTOH
 70
     0
  9
$DIMSE1
 70
     0
  9
$DIMSE2
 70
     0
  9
$DIMTAD
 70
     1
  9
$DIMZIN
 70
     0
  9
$DIMBLK
  1

  9
$DIMASO
 70
     0
  9
$DIMSHO
 70
     0
  9
$DIMPOST
  1

  9
$DIMAPOST
  1

  9
$DIMALT
 70
     0
  9
$DIMALTD
 70
     2
  9
$DIMALTF
 40
25.399999999999999
  9
$DIMLFAC
 40
1.0
  9
$DIMTOFL
 70
     0
  9
$DIMTVP
 40
1.6000000000000001
  9
$DIMTIX
 70
     1
  9
$DIMSOXD
 70
     0
  9
$DIMSAH
 70
     0
  9
$DIMBLK1
  1

  9
$DIMBLK2
  1

  9
$DIMSTYLE
  2
STANDARD
  9
$DIMCLRD
 70
     4
  9
$DIMCLRE
 70
     4
  9
$DIMCLRT
 70
     4
  9
$DIMTFAC
 40
1.0
  9
$DIMGAP
 40
0.09
  9
$LUNITS
 70
     2
  9
$LUPREC
 70
     1
  9
$SKETCHINC
 40
0.1
  9
$FILLETRAD
 40
0.0
  9
$AUNITS
 70
     0
  9
$AUPREC
 70
     0
  9
$MENU
  1
E:\r13\win\SUPPORT\ACAD
  9
$ELEVATION
 40
0.0
  9
$PELEVATION
 40
0.0
  9
$THICKNESS
 40
0.0
  9
$LIMCHECK
 70
     0
  9
$BLIPMODE
 70
     0
  9
$CHAMFERA
 40
1.1999999999999991
  9
$CHAMFERB
 40
1.1999999999999991
  9
$SKPOLY
 70
     0
  9
$TDCREATE
 40
2450095.671215394
  9
$TDUPDATE
 40
2457968.4255731599
  9
$TDINDWG
 40
0.0334416898
  9
$TDUSRTIMER
 40
0.0334416898
  9
$USRTIMER
 70
     1
  9
$ANGBASE
 50
0.0
  9
$ANGDIR
 70
     0
  9
$PDMODE
 70
     0
  9
$PDSIZE
 40
0.0
  9
$PLINEWID
 40
0.0
  9
$COORDS
 70
     1
  9
$SPLFRAME
 70
     0
  9
$SPLINETYPE
 70
     6
  9
$SPLINESEGS
 70
     8
  9
$ATTDIA
 70
     0
  9
$ATTREQ
 70
     1
  9
$HANDLING
 70
     1
  9
$HANDSEED
  5
E10
  9
$SURFTAB1
 70
     6
  9
$SURFTAB2
 70
     6
  9
$SURFTYPE
 70
     6
  9
$SURFU
 70
     6
  9
$SURFV
 70
     6
  9
$UCSNAME
  2

  9
$UCSORG
 10
0.0
 20
0.0
 30
0.0
  9
$UCSXDIR
 10
1.0
 20
0.0
 30
0.0
  9
$UCSYDIR
 10
0.0
 20
1.0
 30
0.0
  9
$PUCSNAME
  2

  9
$PUCSORG
 10
0.0
 20
0.0
 30
0.0
  9
$PUCSXDIR
 10
1.0
 20
0.0
 30
0.0
  9
$PUCSYDIR
 10
0.0
 20
1.0
 30
0.0
  9
$USERI1
 70
     0
  9
$USERI2
 70
     1
  9
$USERI3
 70
     0
  9
$USERI4
 70
     0
  9
$USERI5
 70
     0
  9
$USERR1
 40
0.0
  9
$USERR2
 40
0.0
  9
$USERR3
 40
0.0
  9
$USERR4
 40
0.0
  9
$USERR5
 40
0.0
  9
$WORLDVIEW
 70
     1
  9
$SHADEDGE
 70
     3
  9
$SHADEDIF
 70
    70
  9
$TILEMODE
 70
     1
  9
$MAXACTVP
 70
    16
  9
$PLIMCHECK
 70
     0
  9
$PEXTMIN
 10
1.0000000000000000E+020
 20
1.0000000000000000E+020
 30
1.0000000000000000E+020
  9
$PEXTMAX
 10
-1.0000000000000000E+020
 20
-1.0000000000000000E+020
 30
-1.0000000000000000E+020
  9
$PLIMMIN
 10
0.0
 20
0.0
  9
$PLIMMAX
 10
12.0
 20
9.0
  9
$UNITMODE
 70
     0
  9
$VISRETAIN
 70
     0
  9
$PLINEGEN
 70
     0
  9
$PSLTSCALE
 70
     0
  0
ENDSEC
  0
SECTION
  2
TABLES
  0
TABLE
  2
VPORT
 70
     1
  0
VPORT
  2
*ACTIVE
 70
     0
 10
0.0
 20
0.0
 11
1.0
 21
1.0
 12
363.24786324786322
 22
200.0
 13
0.0
 23
0.0
 14
10.0
 24
10.0
 15
10.0
 25
10.0
 16
0.0
 26
0.0
 36
1.0
 17
0.0
 27
0.0
 37
0.0
 40
400.0
 41
1.816239316239316
 42
50.0
 43
0.0
 44
0.0
 50
0.0
 51
0.0
 71
     0
 72
   500
 73
     1
 74
     0
 75
     0
 76
     0
 77
     0
 78
     2
  0
ENDTAB
  0
TABLE
  2
LTYPE
 70
     3
  0
LTYPE
  2
CONTINUOUS
 70
     0
  3
Solid Line
 72
    65
 73
     0
 40
0.0
  0
LTYPE
  2
CENTER
 70
     0
  3
____ _ ____ _ ____ _ ____ _ ____ _ ____ _ ____
 72
    65
 73
     4
 40
2.0
 49
1.25
 49
-0.25
 49
0.25
 49
-0.25
  0
LTYPE
  2
PHANTOM2
 70
     0
  3
___ _ _ ___ _ _ ___ _ _ ___ _ _
 72
    65
 73
     6
 40
1.25
 49
0.625
 49
-0.125
 49
0.125
 49
-0.125
 49
0.125
 49
-0.125
  0
ENDTAB
  0
TABLE
  2
LAYER
 70
     3
  0
LAYER
  2
0
 70
     0
 62
     7
  6
CONTINUOUS
  0
LAYER
  2
1
 70
     0
 62
     1
  6
CENTER
  0
LAYER
  2
DEFPOINTS
 70
     0
 62
     7
  6
CONTINUOUS
  0
ENDTAB
  0
TABLE
  2
STYLE
 70
     2
  0
STYLE
  2
STANDARD
 70
     0
 40
0.0
 41
1.0
 50
0.0
 71
     0
 42
4.000000000000048
  3
SIMPLEX
  4
BIGFONT
  0
STYLE
  2
STANDARD1
 70
     0
 40
0.0
 41
1.0
 50
0.0
 71
     0
 42
3.0
  3
txt
  4

  0
ENDTAB
  0
TABLE
  2
VIEW
 70
     1
  0
VIEW
  2
ALL
 70
     0
 40
270.0
 10
220.59941989218049
 20
135.0
 41
441.19883978436093
 11
0.0
 21
0.0
 31
1.0
 12
0.0
 22
0.0
 32
0.0
 42
50.0
 43
0.0
 44
0.0
 50
0.0
 71
     0
  0
ENDTAB
  0
TABLE
  2
UCS
 70
     0
  0
ENDTAB
  0
TABLE
  2
APPID
 70
    29
  0
APPID
  2
ACAD
 70
     0
  0
APPID
  2
DCO15
 70
     0
  0
APPID
  2
GENIUS_GENOREF_13
 70
     0
  0
APPID
  2
GENIUS_GENOENT_13
 70
     0
  0
APPID
  2
GENIUS_GENBH_13
 70
     0
  0
APPID
  2
GENIUS_GENOBJ_13
 70
     0
  0
APPID
  2
GENIUS_GENODEF_13
 70
     0
  0
APPID
  2
GENIUS_GENOLIS_13
 70
     0
  0
APPID
  2
GENIUS_GENOBJ-NBEHI-BHF_13
 70
     0
  0
APPID
  2
GENIUS_GENOBJ-NBEHI-BHB_13
 70
     0
  0
APPID
  2
GENIUS_GENOBJ-F-PART_13
 70
     0
  0
APPID
  2
GENIUS_GEFSTDP_13
 70
     0
  0
APPID
  2
GENIUS_GENOBJ-N-RSSYM_13
 70
     0
  0
APPID
  2
GENIUS_GENSYMENT_13
 70
     0
  0
APPID
  2
GENIUS_GENOBJ-N-TIT_13
 70
     0
  0
APPID
  2
GENIUS_GENTITLE_13
 70
     0
  0
APPID
  2
GENIUS_GENZVEED_13
 70
     0
  0
APPID
  2
GENIUS_GENOBJ-N-LEADER_13
 70
     0
  0
APPID
  2
GENIUS_GENOBJ-N-FIL_13
 70
     0
  0
APPID
  2
GENIUS_GENOBJ-N-SEC_13
 70
     0
  0
APPID
  2
GENIUS_GENOBJ-N-CRS_13
 70
     0
  0
APPID
  2
GENIUS_GENOBJ-N-ZOO_13
 70
     0
  0
APPID
  2
GENIUS_GENZOO_13
 70
     0
  0
APPID
  2
GENIUS_GENOBJ-F-TOL_13
 70
     0
  0
APPID
  2
GENIUS_GENFIL_13
 70
     0
  0
APPID
  2
GENIUS_GENOBJ-N-CHA_13
 70
     0
  0
APPID
  2
ACAD_MLEADERVER
 70
     0
  0
APPID
  2
ACAD_NAV_VCDISPLAY
 70
     0
  0
APPID
  2
ACAD_EXEMPT_FROM_CAD_STANDARDS
 70
     0
  0
ENDTAB
  0
TABLE
  2
DIMSTYLE
 70
     1
  0
DIMSTYLE
  2
STANDARD
 70
     0
  3

  4

  5

  6

  7

 40
1.0
 41
0.18
 42
0.0625
 43
0.38
 44
0.18
 45
0.0
 46
0.0
 47
0.0
 48
0.0
140
0.18
141
0.09
142
0.0
143
25.399999999999999
144
1.0
145
0.0
146
1.0
147
0.09
 71
     0
 72
     0
 73
     1
 74
     1
 75
     0
 76
     0
 77
     0
 78
     0
170
     0
171
     2
172
     0
173
     0
174
     0
175
     0
176
     0
177
     0
178
     0
  0
ENDTAB
  0
ENDSEC
  0
SECTION
  2
BLOCKS
  0
BLOCK
  8
0
  2
$MODEL_SPACE
 70
     0
 10
0.0
 20
0.0
 30
0.0
  3
$MODEL_SPACE
  1

  0
ENDBLK
  5
10E
  8
0
  0
BLOCK
 67
     1
  8
0
  2
$PAPER_SPACE
 70
     0
 10
0.0
 20
0.0
 30
0.0
  3
$PAPER_SPACE
  1

  0
ENDBLK
  5
10C
 67
     1
  8
0
  0
ENDSEC
  0
SECTION
  2
ENTITIES
  0
TEXT
  5
A57
  8
0
 62
     3
 10
0.0
 20
0.0
 30
0.0
 40
10.0
  1
TRP8040N-3M
  7
STANDARD1
  0
LINE
  5
B80
  8
0
 10
275.5
 20
200.0
 30
0.0
 11
286.0
 21
200.0
 31
0.0
  0
ARC
  5
B81
  8
0
 10
275.5
 20
201.5
 30
0.0
 40
1.5
 50
180.0
 51
270.0
  0
LINE
  5
B82
  8
0
 10
274.0
 20
203.5
 30
0.0
 11
274.0
 21
201.5
 31
0.0
  0
ARC
  5
B83
  8
0
 10
275.0
 20
203.5
 30
0.0
 40
1.0
 50
90.0
 51
180.0
  0
LINE
  5
B84
  8
0
 10
278.91611504999997
 20
204.49999999999989
 30
0.0
 11
275.0
 21
204.49999999999989
 31
0.0
  0
ARC
  5
B85
  8
0
 10
278.91611504999997
 20
205.58388495
 30
0.0
 40
1.0838849499999981
 50
270.0
 51
36.375033654321442
  0
ARC
  5
B86
  8
0
 10
259.66000000000008
 20
191.39999999999989
 30
0.0
 40
25.000000000422659
 50
36.375033633772397
 51
53.358071859255219
  0
ARC
  5
B87
  8
0
 10
272.19305629000007
 20
208.25
 30
0.0
 40
4.000000001177205
 50
53.35807184717509
 51
90.0
  0
LINE
  5
B88
  8
0
 10
267.80694370999998
 20
212.25
 30
0.0
 11
272.19305629000007
 21
212.25000000095
 31
0.0
  0
ARC
  5
B89
  8
0
 10
267.80694370999998
 20
208.24999999999989
 30
0.0
 40
4.0000000009773151
 50
90.0
 51
126.6419281526782
  0
ARC
  5
B8A
  8
0
 10
280.33999999999958
 20
191.4000000000004
 30
0.0
 40
25.000000000441752
 50
126.64192814072091
 51
143.62496636621449
  0
ARC
  5
B8B
  8
0
 10
261.08388495000008
 20
205.58388495
 30
0.0
 40
1.0838849502576511
 50
143.62496634523691
 51
270.0
  0
LINE
  5
B8C
  8
0
 10
265.0
 20
204.49999999999989
 30
0.0
 11
261.08388495000008
 21
204.50000000025
 31
0.0
  0
ARC
  5
B8D
  8
0
 10
265.0
 20
203.5
 30
0.0
 40
1.0
 50
0.0
 51
90.0
  0
LINE
  5
B8E
  8
0
 10
266.0
 20
201.5
 30
0.0
 11
266.0
 21
203.5
 31
0.0
  0
ARC
  5
B8F
  8
0
 10
264.5
 20
201.5
 30
0.0
 40
1.5
 50
270.0
 51
0.0
  0
LINE
  5
B90
  8
0
 10
254.0
 20
200.0
 30
0.0
 11
264.5
 21
200.0
 31
0.0
  0
ARC
  5
B91
  8
0
 10
254.0
 20
204.0
 30
0.0
 40
4.0
 50
180.0
 51
270.0
  0
LINE
  5
B92
  8
0
 10
250.0
 20
214.5
 30
0.0
 11
250.0
 21
204.0
 31
0.0
  0
ARC
  5
B93
  8
0
 10
251.5
 20
214.5
 30
0.0
 40
1.5
 50
90.0
 51
180.0
  0
LINE
  5
B94
  8
0
 10
253.5
 20
216.0
 30
0.0
 11
251.5
 21
216.0
 31
0.0
  0
ARC
  5
B95
  8
0
 10
253.5
 20
215.0
 30
0.0
 40
1.0
 50
0.0
 51
90.0
  0
LINE
  5
B96
  8
0
 10
254.5
 20
211.08388495
 30
0.0
 11
254.5
 21
215.0
 31
0.0
  0
ARC
  5
B97
  8
0
 10
255.58388495000011
 20
211.08388495
 30
0.0
 40
1.0838849500000121
 50
180.0
 51
306.37503365431991
  0
ARC
  5
B98
  8
0
 10
241.40000000000009
 20
230.33999999999989
 30
0.0
 40
25.000000000422641
 50
306.37503363377027
 51
323.35807185925671
  0
ARC
  5
B99
  8
0
 10
258.25
 20
217.8069437099999
 30
0.0
 40
4.0000000011772254
 50
323.35807184717629
 51
0.0
  0
LINE
  5
B9A
  8
0
 10
262.25
 20
222.1930562899999
 30
0.0
 11
262.25000000095002
 21
217.8069437099999
 31
0.0
  0
ARC
  5
B9B
  8
0
 10
258.25
 20
222.1930562899999
 30
0.0
 40
4.0000000009772938
 50
0.0
 51
36.641928152680457
  0
ARC
  5
B9C
  8
0
 10
241.40000000000049
 20
209.66000000000039
 30
0.0
 40
25.000000000441741
 50
36.641928140719763
 51
53.624966366213492
  0
ARC
  5
B9D
  8
0
 10
255.58388495000011
 20
228.91611505
 30
0.0
 40
1.0838849502576
 50
53.6249663452353
 51
180.0
  0
LINE
  5
B9E
  8
0
 10
254.5
 20
225.0
 30
0.0
 11
254.50000000025
 21
228.91611505
 31
0.0
  0
ARC
  5
B9F
  8
0
 10
253.5
 20
225.0
 30
0.0
 40
1.0
 50
270.0
 51
0.0
  0
LINE
  5
BA0
  8
0
 10
251.5
 20
224.0
 30
0.0
 11
253.5
 21
224.0
 31
0.0
  0
ARC
  5
BA1
  8
0
 10
251.5
 20
225.5
 30
0.0
 40
1.5
 50
180.0
 51
270.0
  0
LINE
  5
BA2
  8
0
 10
250.0
 20
254.5
 30
0.0
 11
250.0
 21
225.5
 31
0.0
  0
ARC
  5
BA3
  8
0
 10
251.5
 20
254.5
 30
0.0
 40
1.5
 50
90.0
 51
180.0
  0
LINE
  5
BA4
  8
0
 10
253.5
 20
256.0
 30
0.0
 11
251.5
 21
256.0
 31
0.0
  0
ARC
  5
BA5
  8
0
 10
253.5
 20
255.0
 30
0.0
 40
1.0
 50
0.0
 51
90.0
  0
LINE
  5
BA6
  8
0
 10
254.5
 20
251.08388495
 30
0.0
 11
254.5
 21
255.0
 31
0.0
  0
ARC
  5
BA7
  8
0
 10
255.58388495000011
 20
251.08388495
 30
0.0
 40
1.0838849500000121
 50
180.0
 51
306.37503365431991
  0
ARC
  5
BA8
  8
0
 10
241.40000000000009
 20
270.3399999999998
 30
0.0
 40
25.000000000422599
 50
306.37503363377027
 51
323.35807185925671
  0
ARC
  5
BA9
  8
0
 10
258.25
 20
257.80694370999993
 30
0.0
 40
4.0000000011772467
 50
323.35807184717629
 51
0.0
  0
LINE
  5
BAA
  8
0
 10
262.25
 20
262.19305629000002
 30
0.0
 11
262.25000000095002
 21
257.80694370999993
 31
0.0
  0
ARC
  5
BAB
  8
0
 10
258.25
 20
262.19305629000002
 30
0.0
 40
4.0000000009772938
 50
0.0
 51
36.641928152680457
  0
ARC
  5
BAC
  8
0
 10
241.40000000000049
 20
249.66000000000039
 30
0.0
 40
25.00000000044178
 50
36.641928140719763
 51
53.624966366213492
  0
ARC
  5
BAD
  8
0
 10
255.58388495000011
 20
268.91611504999997
 30
0.0
 40
1.083884950257654
 50
53.624966345235649
 51
180.0
  0
LINE
  5
BAE
  8
0
 10
254.5
 20
265.0
 30
0.0
 11
254.50000000025
 21
268.91611504999997
 31
0.0
  0
ARC
  5
BAF
  8
0
 10
253.5
 20
265.0
 30
0.0
 40
1.0
 50
270.0
 51
0.0
  0
LINE
  5
BB0
  8
0
 10
251.5
 20
264.0
 30
0.0
 11
253.5
 21
264.0
 31
0.0
  0
ARC
  5
BB1
  8
0
 10
251.5
 20
265.5
 30
0.0
 40
1.5
 50
180.0
 51
270.0
  0
LINE
  5
BB2
  8
0
 10
250.0
 20
275.99999999999989
 30
0.0
 11
250.0
 21
265.5
 31
0.0
  0
ARC
  5
BB3
  8
0
 10
254.0
 20
275.99999999999989
 30
0.0
 40
3.9999999999999849
 50
90.0
 51
180.0
  0
LINE
  5
BB4
  8
0
 10
286.0
 20
279.99999999999989
 30
0.0
 11
254.0
 21
279.99999999999989
 31
0.0
  0
ARC
  5
BB5
  8
0
 10
286.0
 20
275.99999999999989
 30
0.0
 40
4.0
 50
8.6269265586771215
 51
90.0
  0
LINE
  5
BB6
  8
0
 10
268.0
 20
276.59999999999991
 30
0.0
 11
289.95474398665698
 21
276.60000000000002
 31
0.0
  0
ARC
  5
BB7
  8
0
 10
268.0
 20
274.60000000000002
 30
0.0
 40
2.0
 50
90.0
 51
180.0
  0
LINE
  5
BB8
  8
0
 10
266.0
 20
218.0
 30
0.0
 11
266.0
 21
274.60000000000002
 31
0.0
  0
ARC
  5
BB9
  8
0
 10
268.0
 20
218.0
 30
0.0
 40
2.0
 50
180.0
 51
270.0
  0
LINE
  5
BBA
  8
0
 10
289.5
 20
216.0
 30
0.0
 11
268.0
 21
216.0
 31
0.0
  0
ARC
  5
BBB
  8
0
 10
289.5
 20
215.5
 30
0.0
 40
0.5000000000000142
 50
0.0
 51
90.0
  0
LINE
  5
BBC
  8
0
 10
290.0
 20
203.99999999999989
 30
0.0
 11
290.0
 21
215.5
 31
0.0
  0
ARC
  5
BBD
  8
0
 10
286.0
 20
204.0
 30
0.0
 40
4.0
 50
270.0
 51
0.0
  0
ARC
  5
BBE
  8
0
 10
282.44680375000007
 20
208.69999996999999
 30
0.0
 40
0.2000000053212716
 50
225.0000000055087
 51
270.0
  0
LINE
  5
BBF
  8
0
 10
282.71862485000008
 20
208.49999997
 30
0.0
 11
282.44680375000007
 21
208.49999996734991
 31
0.0
  0
ARC
  5
BC0
  8
0
 10
282.71862485000008
 20
208.2999999700001
 30
0.0
 40
0.1999999999999176
 50
29.9999999951416
 51
90.000000000006509
  0
LINE
  5
BC1
  8
0
 10
283.40182532017838
 20
207.51666203964649
 30
0.0
 11
282.89182993048149
 21
208.39999996982149
 31
0.0
  0
ARC
  5
BC2
  8
0
 10
283.22862024
 20
207.41666204000001
 30
0.0
 40
0.2000000002885349
 50
303.55751634169673
 51
29.99999999515607
  0
ARC
  5
BC3
  8
0
 10
284.5
 20
205.49999997
 30
0.0
 40
2.099999996388513
 50
123.5575168329983
 51
238.55101866992661
  0
ARC
  5
BC4
  8
0
 10
283.30000000000001
 20
203.53785827999991
 30
0.0
 40
0.2000000061648396
 50
0.0000000000065138
 51
58.551018431061337
  0
LINE
  5
BC5
  8
0
 10
283.5
 20
203.09999997
 30
0.0
 11
283.50000000260002
 21
203.53785827999991
 31
0.0
  0
ARC
  5
BC6
  8
0
 10
283.7000000000001
 20
203.09999997
 30
0.0
 40
0.2000000000000313
 50
180.0
 51
269.99999999999352
  0
LINE
  5
BC7
  8
0
 10
285.30000000000001
 20
202.8999999699999
 30
0.0
 11
283.7000000000001
 21
202.8999999699999
 31
0.0
  0
ARC
  5
BC8
  8
0
 10
285.30000000000001
 20
203.09999997
 30
0.0
 40
0.2000000000000455
 50
270.00000000000648
 51
359.99999999999352
  0
LINE
  5
BC9
  8
0
 10
285.5
 20
203.53785827999991
 30
0.0
 11
285.5
 21
203.09999997
 31
0.0
  0
ARC
  5
BCA
  8
0
 10
285.7000000000001
 20
203.53785827999991
 30
0.0
 40
0.2000000026148662
 50
121.4489815690761
 51
179.99999999999349
  0
ARC
  5
BCB
  8
0
 10
284.5
 20
205.49999997
 30
0.0
 40
2.099999999914794
 50
301.44898133005859
 51
56.442483167009698
  0
ARC
  5
BCC
  8
0
 10
285.77137975999989
 20
207.41666203999989
 30
0.0
 40
0.2000000003384756
 50
149.9999999058692
 51
236.4424836582246
  0
LINE
  5
BCD
  8
0
 10
286.47320508002502
 20
209.03225915004319
 30
0.0
 11
285.59817467912831
 21
207.5166620404456
 31
0.0
  0
ARC
  5
BCE
  8
0
 10
286.30000000000013
 20
209.1322591499999
 30
0.0
 40
0.199999999999946
 50
329.99999990586917
 51
0.0000000000065138
  0
LINE
  5
BCF
  8
0
 10
286.5
 20
211.99999997
 30
0.0
 11
286.5
 21
209.13225915000001
 31
0.0
  0
ARC
  5
BD0
  8
0
 10
286.0
 20
211.99999997
 30
0.0
 40
0.5000000000000142
 50
0.0
 51
90.0
  0
LINE
  5
BD1
  8
0
 10
279.57106780999999
 20
212.49999997
 30
0.0
 11
286.0
 21
212.49999997
 31
0.0
  0
ARC
  5
BD2
  8
0
 10
279.57106780999999
 20
211.99999997
 30
0.0
 40
0.5
 50
90.0
 51
225.0000000054996
  0
LINE
  5
BD3
  8
0
 10
282.30538239001362
 20
208.5585786099864
 30
0.0
 11
279.21751441973731
 21
211.6464465796694
 31
0.0
  0
LINE
  5
BD4
  8
0
 10
257.34661853000421
 20
275.49999997000242
 30
0.0
 11
259.07866934000009
 21
276.49999996999998
 31
0.0
  0
ARC
  5
BD5
  8
0
 10
255.5
 20
274.49999996999998
 30
0.0
 40
2.0999999989000089
 50
28.43689016525656
 51
151.56310983479429
  0
LINE
  5
BD6
  8
0
 10
252.90000000000009
 20
275.49999996999998
 30
0.0
 11
253.65338146999071
 21
275.49999997000299
 31
0.0
  0
LINE
  5
BD7
  8
0
 10
252.90000000000009
 20
273.49999996999998
 30
0.0
 11
252.90000000000009
 21
275.49999996999998
 31
0.0
  0
LINE
  5
BD8
  8
0
 10
253.65338146999019
 20
273.4999999699977
 30
0.0
 11
252.90000000000009
 21
273.49999996999998
 31
0.0
  0
ARC
  5
BD9
  8
0
 10
255.5
 20
274.49999996999998
 30
0.0
 40
2.0999999989000249
 50
208.4368901651807
 51
331.5631098346982
  0
LINE
  5
BDA
  8
0
 10
258.5
 20
272.83409487
 30
0.0
 11
257.34661853000762
 21
273.49999996999372
 31
0.0
  0
LINE
  5
BDB
  8
0
 10
258.5
 20
272.3639609999999
 30
0.0
 11
258.5
 21
272.83409487
 31
0.0
  0
LINE
  5
BDC
  8
0
 10
262.5
 20
268.3639609999999
 30
0.0
 11
258.5
 21
272.3639609999999
 31
0.0
  0
LINE
  5
BDD
  8
0
 10
262.5
 20
276.49999996999998
 30
0.0
 11
262.5
 21
268.3639609999999
 31
0.0
  0
LINE
  5
BDE
  8
0
 10
259.07866934000009
 20
276.49999996999998
 30
0.0
 11
262.5
 21
276.49999996999998
 31
0.0
  0
LINE
  5
BDF
  8
0
 10
261.5
 20
249.09679262
 30
0.0
 11
261.50000000115011
 21
230.90320732000001
 31
0.0
  0
ARC
  5
BE0
  8
0
 10
260.5
 20
249.09679262
 30
0.0
 40
1.000000000000018
 50
0.0
 51
134.81457738402199
  0
LINE
  5
BE1
  8
0
 10
254.9307411218403
 20
244.9731234118284
 30
0.0
 11
259.79518528148219
 21
249.8061840581783
 31
0.0
  0
ARC
  5
BE2
  8
0
 10
257.75
 20
242.13555765999999
 30
0.0
 40
4.000000002253965
 50
134.8145774344959
 51
180.0
  0
LINE
  5
BE3
  8
0
 10
253.75
 20
237.86444227999991
 30
0.0
 11
253.75
 21
242.13555765999999
 31
0.0
  0
ARC
  5
BE4
  8
0
 10
257.75
 20
237.86444227999991
 30
0.0
 40
3.9999999999999849
 50
180.0
 51
225.18542254630299
  0
ARC
  5
BE5
  8
0
 10
260.5
 20
230.90320732000001
 30
0.0
 40
1.0000000023369631
 50
225.185422596797
 51
0.0
  0
LINE
  5
BE6
  8
0
 10
259.79518527959772
 20
230.19381588039971
 30
0.0
 11
254.93074112247811
 21
235.0268765307153
 31
0.0
  0
LINE
  5
BE9
  8
0
 10
200.0
 20
200.0
 30
0.0
 11
100.0
 21
200.0
 31
0.0
  0
LINE
  5
BF2
  8
0
 10
200.0
 20
216.0
 30
0.0
 11
100.0
 21
216.0
 31
0.0
  0
LINE
  5
BF5
  8
0
 10
200.0
 20
279.99999999999989
 30
0.0
 11
100.0
 21
279.99999999999989
 31
0.0
  0
LINE
  5
BF6
  8
0
 10
200.0
 20
279.99999999999989
 30
0.0
 11
200.0
 21
200.0
 31
0.0
  0
LINE
  5
BF7
  8
0
 10
100.0
 20
279.99999999999989
 30
0.0
 11
100.0
 21
200.0
 31
0.0
  0
LINE
  5
BFA
  8
0
 10
100.0
 20
224.0
 30
0.0
 11
200.0
 21
224.0
 31
0.0
  0
LINE
  5
BFC
  8
0
 10
200.0
 20
256.0
 30
0.0
 11
100.0
 21
256.0
 31
0.0
  0
LINE
  5
C03
  8
0
 10
100.0
 20
264.0
 30
0.0
 11
200.0
 21
264.0
 31
0.0
  0
LINE
  5
C27
  8
0
 10
440.0
 20
216.0
 30
0.0
 11
340.0
 21
216.0
 31
0.0
  0
LINE
  5
C29
  8
0
 10
340.0
 20
200.0
 30
0.0
 11
440.0
 21
200.0
 31
0.0
  0
LINE
  5
C2C
  8
0
 10
340.0
 20
279.99999999999989
 30
0.0
 11
440.0
 21
279.99999999999989
 31
0.0
  0
LINE
  5
C2D
  8
0
 10
340.0
 20
276.60000000000002
 30
0.0
 11
440.0
 21
276.60000000000002
 31
0.0
  0
LINE
  5
C2E
  8
0
 10
340.0
 20
200.0
 30
0.0
 11
340.0
 21
279.99999999999989
 31
0.0
  0
LINE
  5
C2F
  8
0
 10
440.0
 20
200.0
 30
0.0
 11
440.0
 21
279.99999999999989
 31
0.0
  0
LINE
  5
C38
  8
0
 10
250.0
 20
150.0
 30
0.0
 11
250.0
 21
50.0
 31
0.0
  0
LINE
  5
C39
  8
0
 10
250.0
 20
150.0
 30
0.0
 11
290.0
 21
150.0
 31
0.0
  0
LINE
  5
C3B
  8
0
 10
250.0
 20
50.0
 30
0.0
 11
290.0
 21
50.0
 31
0.0
  0
LINE
  5
C3E
  8
0
 10
266.0
 20
50.0
 30
0.0
 11
266.0
 21
150.0
 31
0.0
  0
LINE
  5
C42
  8
0
 10
290.0
 20
150.0
 30
0.0
 11
290.0
 21
50.0
 31
0.0
  0
LINE
  5
C49
  8
0
 10
274.0
 20
150.0
 30
0.0
 11
274.0
 21
50.0
 31
0.0
  0
LINE
  5
C72
  8
1
 10
270.0
 20
284.99999999999989
 30
0.0
 11
270.0
 21
195.0
 31
0.0
  0
LINE
  5
C73
  8
1
 10
445.0
 20
240.0
 30
0.0
 11
334.99999999999989
 21
240.0
 31
0.0
  0
LINE
  5
C84
  8
1
 10
203.0
 20
220.0
 30
0.0
 11
97.000000000000057
 21
219.99999999999989
 31
0.0
  0
LINE
  5
C85
  8
1
 10
205.0
 20
240.0
 30
0.0
 11
95.0
 21
240.0
 31
0.0
  0
LINE
  5
C86
  8
1
 10
203.0
 20
260.0
 30
0.0
 11
97.000000000000057
 21
260.0
 31
0.0
  0
LINE
  5
C87
  8
1
 10
269.0
 20
219.99999999999989
 30
0.0
 11
246.99999999999989
 21
219.99999999999989
 31
0.0
  0
LINE
  5
C88
  8
1
 10
295.0
 20
240.0
 30
0.0
 11
245.0
 21
240.0
 31
0.0
  0
LINE
  5
C89
  8
1
 10
269.0
 20
260.0
 30
0.0
 11
246.99999999999989
 21
260.0
 31
0.0
  0
LINE
  5
C8B
  8
1
 10
270.0
 20
155.0
 30
0.0
 11
270.0
 21
45.0
 31
0.0
  0
ENDSEC
  0
EOF
