  0
SECTION
  2
HEADER
  9
$ACADVER
  1
AC1009
  9
$INSBASE
 10
0.0
 20
0.0
 30
0.0
  9
$EXTMIN
 10
0.0
 20
-2.960436562073669
 30
0.0
  9
$EXTMAX
 10
149.0500000000000114
 20
114.5249999999998067
 30
0.0
  9
$LIMMIN
 10
0.0
 20
0.0
  9
$LIMMAX
 10
192.5
 20
135.0
  9
$ORTHOMODE
 70
     1
  9
$REGENMODE
 70
     1
  9
$FILLMODE
 70
     1
  9
$QTEXTMODE
 70
     0
  9
$MIRRTEXT
 70
     0
  9
$DRAGMODE
 70
     2
  9
$LTSCALE
 40
5.0
  9
$OSMODE
 70
    37
  9
$ATTMODE
 70
     1
  9
$TEXTSIZE
 40
0.2
  9
$TRACEWID
 40
0.05
  9
$TEXTSTYLE
  7
STANDARD
  9
$CLAYER
  8
0
  9
$CELTYPE
  6
BYLAYER
  9
$CECOLOR
 62
   256
  9
$DIMSCALE
 40
0.5
  9
$DIMASZ
 40
3.0
  9
$DIMEXO
 40
1.0
  9
$DIMDLI
 40
6.0
  9
$DIMRND
 40
0.0
  9
$DIMDLE
 40
0.0
  9
$DIMEXE
 40
1.0
  9
$DIMTP
 40
495.0
  9
$DIMTM
 40
0.0
  9
$DIMTXT
 40
3.0
  9
$DIMCEN
 40
0.0
  9
$DIMTSZ
 40
0.0
  9
$DIMTOL
 70
     0
  9
$DIMLIM
 70
     0
  9
$DIMTIH
 70
     0
  9
$DIMTOH
 70
     0
  9
$DIMSE1
 70
     0
  9
$DIMSE2
 70
     0
  9
$DIMTAD
 70
     1
  9
$DIMZIN
 70
     0
  9
$DIMBLK
  1

  9
$DIMASO
 70
     0
  9
$DIMSHO
 70
     0
  9
$DIMPOST
  1

  9
$DIMAPOST
  1

  9
$DIMALT
 70
     0
  9
$DIMALTD
 70
     2
  9
$DIMALTF
 40
25.3999999999999986
  9
$DIMLFAC
 40
1.0
  9
$DIMTOFL
 70
     1
  9
$DIMTVP
 40
0.0
  9
$DIMTIX
 70
     1
  9
$DIMSOXD
 70
     0
  9
$DIMSAH
 70
     0
  9
$DIMBLK1
  1

  9
$DIMBLK2
  1

  9
$DIMSTYLE
  2
STANDARD
  9
$DIMCLRD
 70
     0
  9
$DIMCLRE
 70
     0
  9
$DIMCLRT
 70
     4
  9
$DIMTFAC
 40
1.0
  9
$DIMGAP
 40
1.0
  9
$LUNITS
 70
     2
  9
$LUPREC
 70
     1
  9
$SKETCHINC
 40
0.1
  9
$FILLETRAD
 40
0.0
  9
$AUNITS
 70
     0
  9
$AUPREC
 70
     0
  9
$MENU
  1
E:\r13\win\SUPPORT\ACAD
  9
$ELEVATION
 40
0.0
  9
$PELEVATION
 40
0.0
  9
$THICKNESS
 40
0.0
  9
$LIMCHECK
 70
     0
  9
$BLIPMODE
 70
     0
  9
$CHAMFERA
 40
0.0
  9
$CHAMFERB
 40
0.0
  9
$SKPOLY
 70
     0
  9
$TDCREATE
 40
2450647.4584953710436821
  9
$TDUPDATE
 40
2460571.6585879628546536
  9
$TDINDWG
 40
0.1042877315
  9
$TDUSRTIMER
 40
0.1042877315
  9
$USRTIMER
 70
     1
  9
$ANGBASE
 50
0.0
  9
$ANGDIR
 70
     0
  9
$PDMODE
 70
     0
  9
$PDSIZE
 40
0.0
  9
$PLINEWID
 40
0.0
  9
$COORDS
 70
     1
  9
$SPLFRAME
 70
     0
  9
$SPLINETYPE
 70
     6
  9
$SPLINESEGS
 70
     8
  9
$ATTDIA
 70
     1
  9
$ATTREQ
 70
     1
  9
$HANDLING
 70
     1
  9
$HANDSEED
  5
1232
  9
$SURFTAB1
 70
     6
  9
$SURFTAB2
 70
     6
  9
$SURFTYPE
 70
     6
  9
$SURFU
 70
     6
  9
$SURFV
 70
     6
  9
$UCSNAME
  2

  9
$UCSORG
 10
0.0
 20
0.0
 30
0.0
  9
$UCSXDIR
 10
1.0
 20
0.0
 30
0.0
  9
$UCSYDIR
 10
0.0
 20
1.0
 30
0.0
  9
$PUCSNAME
  2

  9
$PUCSORG
 10
0.0
 20
0.0
 30
0.0
  9
$PUCSXDIR
 10
1.0
 20
0.0
 30
0.0
  9
$PUCSYDIR
 10
0.0
 20
1.0
 30
0.0
  9
$USERI1
 70
     3
  9
$USERI2
 70
     1
  9
$USERI3
 70
     0
  9
$USERI4
 70
     0
  9
$USERI5
 70
     0
  9
$USERR1
 40
0.5
  9
$USERR2
 40
3.0
  9
$USERR3
 40
3.0
  9
$USERR4
 40
3.0
  9
$USERR5
 40
10.0
  9
$WORLDVIEW
 70
     1
  9
$SHADEDGE
 70
     3
  9
$SHADEDIF
 70
    70
  9
$TILEMODE
 70
     1
  9
$MAXACTVP
 70
    16
  9
$PLIMCHECK
 70
     0
  9
$PEXTMIN
 10
1.0000000000000000E+20
 20
1.0000000000000000E+20
 30
1.0000000000000000E+20
  9
$PEXTMAX
 10
-1.0000000000000000E+20
 20
-1.0000000000000000E+20
 30
-1.0000000000000000E+20
  9
$PLIMMIN
 10
0.0
 20
0.0
  9
$PLIMMAX
 10
12.0
 20
9.0
  9
$UNITMODE
 70
     0
  9
$VISRETAIN
 70
     0
  9
$PLINEGEN
 70
     0
  9
$PSLTSCALE
 70
     0
  0
ENDSEC
  0
SECTION
  2
TABLES
  0
TABLE
  2
VPORT
 70
     1
  0
VPORT
  2
*ACTIVE
 70
     0
 10
0.0
 20
0.0
 11
1.0
 21
1.0
 12
234.8522167487685124
 22
100.0
 13
0.0
 23
0.0
 14
2.5
 24
2.5
 15
10.0
 25
10.0
 16
0.0
 26
0.0
 36
1.0
 17
0.0
 27
0.0
 37
0.0
 40
200.0
 41
2.3485221674876842
 42
50.0
 43
0.0
 44
0.0
 50
0.0
 51
0.0
 71
     0
 72
   100
 73
     1
 74
     0
 75
     0
 76
     0
 77
     0
 78
     0
  0
ENDTAB
  0
TABLE
  2
LTYPE
 70
     3
  0
LTYPE
  2
CONTINUOUS
 70
     0
  3
Solid Line
 72
    65
 73
     0
 40
0.0
  0
LTYPE
  2
CENTER
 70
     0
  3
____ _ ____ _ ____ _ ____ _ ____ _ ____ _ ____
 72
    65
 73
     4
 40
2.0
 49
1.25
 49
-0.25
 49
0.25
 49
-0.25
  0
LTYPE
  2
HIDDEN
 70
     0
  3
_ _ _ _ _ _ _ _ _ _ _ _ _ _ _ _ _ _ _ _ _ _ _
 72
    65
 73
     2
 40
0.375
 49
0.25
 49
-0.125
  0
ENDTAB
  0
TABLE
  2
LAYER
 70
     5
  0
LAYER
  2
0
 70
     0
 62
     7
  6
CONTINUOUS
  0
LAYER
  2
1
 70
     0
 62
     1
  6
CENTER
  0
LAYER
  2
3
 70
     0
 62
     3
  6
CONTINUOUS
  0
LAYER
  2
DEFPOINTS
 70
     0
 62
     7
  6
CONTINUOUS
  0
LAYER
  2
2
 70
     0
 62
     2
  6
HIDDEN
  0
ENDTAB
  0
TABLE
  2
STYLE
 70
     2
  0
STYLE
  2
STANDARD
 70
     0
 40
0.0
 41
1.0
 50
0.0
 71
     0
 42
0.2
  3
SIMPLEX
  4
BIGFONT
  0
STYLE
  2
STANDARD1
 70
     0
 40
0.0
 41
1.0
 50
0.0
 71
     0
 42
3.0
  3
txt
  4

  0
ENDTAB
  0
TABLE
  2
VIEW
 70
     0
  0
ENDTAB
  0
TABLE
  2
UCS
 70
     0
  0
ENDTAB
  0
TABLE
  2
APPID
 70
    10
  0
APPID
  2
ACAD
 70
     0
  0
APPID
  2
ACAD_MLEADERVER
 70
     0
  0
APPID
  2
ACAD_NAV_VCDISPLAY
 70
     0
  0
APPID
  2
ACAD_TC
 70
     0
  0
APPID
  2
ACAD_EXEMPT_FROM_CAD_STANDARDS
 70
     0
  0
APPID
  2
ACAD_DSTYLE_DIMRADIAL_EXTENSION
 70
     0
  0
APPID
  2
GRADIENTCOLOR1ACI
 70
     0
  0
APPID
  2
GRADIENTCOLOR2ACI
 70
     0
  0
APPID
  2
ACAD_DSTYLE_DIMJAG
 70
     0
  0
APPID
  2
ACAD_DSTYLE_DIMTALN
 70
     0
  0
ENDTAB
  0
TABLE
  2
DIMSTYLE
 70
     1
  0
DIMSTYLE
  2
STANDARD
 70
     0
  3

  4

  5

  6

  7

 40
1.0
 41
0.18
 42
0.0625
 43
0.38
 44
0.18
 45
0.0
 46
0.0
 47
0.0
 48
0.0
140
0.18
141
0.09
142
0.0
143
25.3999999999999986
144
1.0
145
0.0
146
1.0
147
0.09
 71
     0
 72
     0
 73
     1
 74
     1
 75
     0
 76
     0
 77
     0
 78
     0
170
     0
171
     2
172
     0
173
     0
174
     0
175
     0
176
     0
177
     0
178
     0
  0
ENDTAB
  0
ENDSEC
  0
SECTION
  2
BLOCKS
  0
BLOCK
  8
0
  2
$MODEL_SPACE
 70
     0
 10
0.0
 20
0.0
 30
0.0
  3
$MODEL_SPACE
  1

  0
ENDBLK
  5
87C
  8
0
  0
BLOCK
 67
     1
  8
0
  2
$PAPER_SPACE
 70
     0
 10
0.0
 20
0.0
 30
0.0
  3
$PAPER_SPACE
  1

  0
ENDBLK
  5
87A
 67
     1
  8
0
  0
BLOCK
  8
0
  2
STDGX5
 70
     0
 10
0.0
 20
0.0
 30
0.0
  3
STDGX5
  1

  0
ENDBLK
  5
4F
  8
0
  0
ENDSEC
  0
SECTION
  2
ENTITIES
  0
INSERT
  5
DE
  8
0
  2
STDGX5
 10
0.0
 20
0.0
 30
0.0
  0
INSERT
  5
DF
  8
0
  2
STDGX5
 10
0.0
 20
0.0
 30
0.0
  0
INSERT
  5
15C
  8
0
  2
STDGX5
 10
275.0
 20
0.0
 30
0.0
  0
INSERT
  5
15D
  8
0
  2
STDGX5
 10
275.0
 20
0.0
 30
0.0
  0
TEXT
  5
933
  8
0
 62
     3
 10
0.0
 20
0.0
 30
0.0
 40
10.0
  1
TSG-50
  7
STANDARD1
  0
LINE
  5
FEE
  8
0
 10
136.9452994616206922
 20
97.9999999999999005
 30
0.0
 11
139.2547005383792964
 21
97.9999999999999005
 31
0.0
  0
LINE
  5
FEF
  8
0
 10
140.4094010767585132
 20
99.9999999999999147
 30
0.0
 11
139.2547005383792964
 21
97.9999999999999005
 31
0.0
  0
LINE
  5
FF0
  8
0
 10
140.4094010767585132
 20
99.9999999999999147
 30
0.0
 11
139.2547005383792111
 21
101.9999999999999005
 31
0.0
  0
LINE
  5
FF1
  8
0
 10
139.2547005383792111
 20
101.9999999999999005
 30
0.0
 11
136.9452994616206922
 21
101.9999999999999005
 31
0.0
  0
LINE
  5
FF2
  8
0
 10
135.7905989232415038
 20
99.9999999999999147
 30
0.0
 11
136.9452994616206922
 21
101.9999999999999005
 31
0.0
  0
LINE
  5
FF3
  8
0
 10
135.7905989232415038
 20
99.9999999999999147
 30
0.0
 11
136.9452994616206922
 21
97.9999999999999005
 31
0.0
  0
CIRCLE
  5
FF4
  8
0
 10
138.0999999999999943
 20
99.9999999999999147
 30
0.0
 40
4.25
  0
LINE
  5
FF5
  8
0
 10
98.8452994616207548
 20
97.9999999999998437
 30
0.0
 11
101.1547005383792026
 21
97.9999999999998437
 31
0.0
  0
LINE
  5
FF6
  8
0
 10
102.3094010767585047
 20
99.9999999999998437
 30
0.0
 11
101.1547005383792026
 21
97.9999999999998437
 31
0.0
  0
LINE
  5
FF7
  8
0
 10
102.3094010767585047
 20
99.9999999999998437
 30
0.0
 11
101.1547005383792026
 21
101.999999999999801
 31
0.0
  0
LINE
  5
FF8
  8
0
 10
101.1547005383792026
 20
101.999999999999801
 30
0.0
 11
98.8452994616207548
 21
101.999999999999801
 31
0.0
  0
LINE
  5
FF9
  8
0
 10
97.6905989232414953
 20
99.9999999999998437
 30
0.0
 11
98.8452994616207548
 21
101.999999999999801
 31
0.0
  0
LINE
  5
FFA
  8
0
 10
97.6905989232414953
 20
99.9999999999998437
 30
0.0
 11
98.8452994616207548
 21
97.9999999999998437
 31
0.0
  0
CIRCLE
  5
FFB
  8
0
 10
100.0
 20
99.9999999999998437
 30
0.0
 40
4.25
  0
CIRCLE
  5
FFC
  8
0
 10
138.0999999999999943
 20
99.9999999999999147
 30
0.0
 40
4.9999999999954516
  0
CIRCLE
  5
FFD
  8
0
 10
100.0
 20
99.9999999999998437
 30
0.0
 40
4.9999999999315241
  0
ARC
  5
FFE
  8
0
 10
121.0499999999999972
 20
111.0489999999998929
 30
0.0
 40
2.3622000000000112
 50
220.1777695401486028
 51
319.8222304598534151
  0
ARC
  5
FFF
  8
0
 10
125.0499999999999972
 20
111.0489999999998929
 30
0.0
 40
2.3622000000000112
 50
220.1777695401486028
 51
319.8222304598534151
  0
ARC
  5
1000
  8
0
 10
129.0500000000000114
 20
111.0489999999998929
 30
0.0
 40
2.3622000000000112
 50
220.1777695401486028
 51
319.8222304598534151
  0
ARC
  5
1001
  8
0
 10
133.0500000000000114
 20
111.0489999999998929
 30
0.0
 40
2.3622000000000001
 50
220.1777695401486028
 51
319.8222304598534151
  0
ARC
  5
1002
  8
0
 10
137.0500000000000114
 20
111.0489999999998929
 30
0.0
 40
2.3622000000000178
 50
220.1777695401486028
 51
319.8222304598534151
  0
ARC
  5
1003
  8
0
 10
141.0500000000000114
 20
111.0489999999998929
 30
0.0
 40
2.3622000000000032
 50
220.1777695401480912
 51
319.8222304598536994
  0
ARC
  5
1004
  8
0
 10
145.0500000000000114
 20
111.0489999999998929
 30
0.0
 40
2.3622000000000378
 50
220.1777695401486028
 51
244.9547320930537921
  0
LINE
  5
1005
  8
0
 10
144.0500000000000114
 20
90.4749999999999659
 30
0.0
 11
144.0500000000000114
 21
109.5250000000000057
 31
0.0
  0
ARC
  5
1006
  8
0
 10
145.0500000000000114
 20
88.9509999999998939
 30
0.0
 40
2.3622000000000218
 50
115.0452679069472026
 51
139.8222304598529888
  0
ARC
  5
1007
  8
0
 10
141.0500000000000114
 20
88.9509999999998939
 30
0.0
 40
2.3622000000000218
 50
40.1777695401480415
 51
139.8222304598529888
  0
ARC
  5
1008
  8
0
 10
137.0500000000000114
 20
88.9509999999998939
 30
0.0
 40
2.3622000000000112
 50
40.1777695401486383
 51
139.8222304598517951
  0
ARC
  5
1009
  8
0
 10
133.0500000000000114
 20
88.9509999999998939
 30
0.0
 40
2.3622000000000112
 50
40.1777695401480415
 51
139.8222304598517951
  0
ARC
  5
100A
  8
0
 10
129.0500000000000114
 20
88.9509999999998939
 30
0.0
 40
2.3622000000000112
 50
40.1777695401470112
 51
139.8222304598517951
  0
ARC
  5
100B
  8
0
 10
125.0499999999999972
 20
88.9509999999998655
 30
0.0
 40
2.3622000000000112
 50
40.1777695401480415
 51
139.8222304598517951
  0
ARC
  5
100C
  8
0
 10
121.0499999999999972
 20
88.9509999999998655
 30
0.0
 40
2.3622000000000112
 50
40.1777695401480415
 51
139.8222304598517951
  0
ARC
  5
100D
  8
0
 10
117.0499999999999972
 20
88.9509999999998655
 30
0.0
 40
2.3622000000000218
 50
40.1777695401470112
 51
139.8222304598517951
  0
ARC
  5
100E
  8
0
 10
113.0499999999999972
 20
88.9509999999998655
 30
0.0
 40
2.3622000000000112
 50
40.1777695401480415
 51
139.8222304598517951
  0
ARC
  5
100F
  8
0
 10
109.0499999999999972
 20
88.9509999999998655
 30
0.0
 40
2.3622000000000001
 50
40.1777695401465706
 51
139.8222304598517951
  0
ARC
  5
1010
  8
0
 10
105.0499999999999972
 20
88.9509999999998371
 30
0.0
 40
2.3622000000000329
 50
40.1777695401486383
 51
139.8222304598529888
  0
ARC
  5
1011
  8
0
 10
101.0499999999999972
 20
88.9509999999998371
 30
0.0
 40
2.3622000000000161
 50
40.1777695401486383
 51
139.8222304598517951
  0
ARC
  5
1012
  8
0
 10
97.0500000000000256
 20
88.9509999999998371
 30
0.0
 40
2.3622000000000161
 50
40.1777695401480415
 51
139.8222304598517951
  0
ARC
  5
1013
  8
0
 10
93.050000000000054
 20
88.9509999999998371
 30
0.0
 40
2.3622000000000121
 50
40.1777695401486383
 51
64.954732093053039
  0
LINE
  5
1014
  8
0
 10
94.0500000000000114
 20
90.4749999999999659
 30
0.0
 11
94.0500000000000114
 21
109.5250000000000057
 31
0.0
  0
ARC
  5
1015
  8
0
 10
93.0499999999999829
 20
111.048999999999694
 30
0.0
 40
2.3622000000000161
 50
295.0452679069492774
 51
319.8222304598534151
  0
ARC
  5
1016
  8
0
 10
97.0499999999999972
 20
111.0489999999997934
 30
0.0
 40
2.3622000000000671
 50
220.1777695401486028
 51
319.8222304598534151
  0
ARC
  5
1017
  8
0
 10
101.0499999999999972
 20
111.0489999999997934
 30
0.0
 40
2.3622000000000112
 50
220.1777695401486028
 51
319.8222304598534151
  0
ARC
  5
1018
  8
0
 10
105.0499999999998977
 20
111.0489999999997934
 30
0.0
 40
2.3622000000000001
 50
220.1777695401486028
 51
319.8222304598534151
  0
ARC
  5
1019
  8
0
 10
109.0499999999999972
 20
111.0489999999997934
 30
0.0
 40
2.3622000000000218
 50
220.1777695401486028
 51
319.8222304598534151
  0
ARC
  5
101A
  8
0
 10
113.0499999999999972
 20
111.0489999999998929
 30
0.0
 40
2.3622000000000289
 50
220.1777695401486028
 51
319.8222304598534151
  0
ARC
  5
101B
  8
0
 10
117.0499999999999972
 20
111.0489999999998929
 30
0.0
 40
2.3622000000000112
 50
220.177769540149086
 51
319.8222304598534151
  0
CIRCLE
  5
101C
  8
0
 10
100.0
 20
99.9999999999998437
 30
0.0
 40
4.5592999999755222
  0
CIRCLE
  5
101D
  8
0
 10
138.0999999999999943
 20
99.9999999999999147
 30
0.0
 40
4.5592999999897037
  0
LINE
  5
101E
  8
0
 10
144.0500000000000114
 20
109.5250000000000057
 30
0.0
 11
94.0500000000000114
 21
109.5250000000000057
 31
0.0
  0
LINE
  5
1020
  8
0
 10
144.0500000000000114
 20
90.4749999999999659
 30
0.0
 11
94.0500000000000114
 21
90.4749999999999659
 31
0.0
  0
LINE
  5
1021
  8
1
 10
149.0500000000000114
 20
100.0
 30
0.0
 11
89.0500000000000114
 21
100.0
 31
0.0
  0
LINE
  5
1022
  8
1
 10
119.0499999999999972
 20
85.4749999999998948
 30
0.0
 11
119.0499999999999972
 21
114.5249999999998067
 31
0.0
  0
LINE
  5
1029
  8
0
 10
144.0500000000000114
 20
55.2577999999997331
 30
0.0
 11
94.0500000000000114
 21
55.2577999999996834
 31
0.0
  0
LINE
  5
102A
  8
0
 10
94.0500000000000114
 20
50.5000000159996674
 30
0.0
 11
144.0500000000000114
 21
50.5000000159997313
 31
0.0
  0
LINE
  5
102B
  8
0
 10
94.0500000000000114
 20
49.9999999999997016
 30
0.0
 11
144.0500000000000114
 21
49.99999999999973
 31
0.0
  0
ARC
  5
102C
  8
0
 10
97.0500000000000114
 20
60.4647999999995633
 30
0.0
 40
2.362199999999961
 50
220.1777695401466133
 51
319.8222304598539836
  0
LINE
  5
102D
  8
0
 10
95.2451695813733465
 20
59.3217999999996621
 30
0.0
 11
95.2451695813733465
 21
58.9407999999996406
 31
0.0
  0
LINE
  5
102E
  8
0
 10
98.854830418626662
 20
59.3217999999996621
 30
0.0
 11
98.8548304186266478
 21
58.9407999999996406
 31
0.0
  0
LINE
  5
102F
  8
0
 10
94.8548304186266336
 20
58.9407999999996406
 30
0.0
 11
95.2451695813733465
 21
58.9407999999996406
 31
0.0
  0
LINE
  5
1030
  8
0
 10
94.8548304186266336
 20
59.3217999999996621
 30
0.0
 11
94.8548304186266336
 21
58.9407999999996406
 31
0.0
  0
ARC
  5
1031
  8
0
 10
93.0500000000000114
 20
60.4647999999995633
 30
0.0
 40
2.362199999999945
 50
295.0452679069492774
 51
319.8222304598539836
  0
LINE
  5
1032
  8
0
 10
144.0500000000000114
 20
59.3217999999979284
 30
0.0
 11
94.0500000000000114
 21
59.3217999999996977
 31
0.0
  0
ARC
  5
1033
  8
0
 10
105.0499999999999972
 20
60.4647999999995633
 30
0.0
 40
2.362199999999977
 50
220.1777695401463859
 51
319.8222304598551204
  0
LINE
  5
1034
  8
0
 10
103.2451695813733039
 20
59.3217999999996621
 30
0.0
 11
103.2451695813733039
 21
58.9407999999996406
 31
0.0
  0
LINE
  5
1035
  8
0
 10
106.8548304186266051
 20
59.3217999999996621
 30
0.0
 11
106.8548304186266051
 21
58.9407999999996406
 31
0.0
  0
LINE
  5
1036
  8
0
 10
99.2451695813733465
 20
59.3217999999996621
 30
0.0
 11
99.2451695813733465
 21
58.9407999999996406
 31
0.0
  0
LINE
  5
1037
  8
0
 10
98.8548304186266478
 20
58.9407999999996406
 30
0.0
 11
99.2451695813733465
 21
58.9407999999996406
 31
0.0
  0
LINE
  5
1038
  8
0
 10
107.2451695813734034
 20
59.3217999999996621
 30
0.0
 11
107.2451695813734034
 21
58.9407999999996406
 31
0.0
  0
LINE
  5
1039
  8
0
 10
106.8548304186266051
 20
58.9407999999996406
 30
0.0
 11
107.2451695813734034
 21
58.9407999999996406
 31
0.0
  0
ARC
  5
103A
  8
0
 10
101.0499999999999972
 20
60.4647999999995633
 30
0.0
 40
2.3621999999999721
 50
220.1777695401463859
 51
319.8222304598539836
  0
LINE
  5
103B
  8
0
 10
102.8548304186266051
 20
59.3217999999996621
 30
0.0
 11
102.8548304186266051
 21
58.9407999999996406
 31
0.0
  0
ARC
  5
103C
  8
0
 10
109.0499999999999972
 20
60.4647999999995776
 30
0.0
 40
2.3621999999999739
 50
220.1777695401480912
 51
319.8222304598539836
  0
LINE
  5
103D
  8
0
 10
110.8548304186266051
 20
59.3217999999996621
 30
0.0
 11
110.8548304186266051
 21
58.9407999999996406
 31
0.0
  0
LINE
  5
103E
  8
0
 10
102.8548304186266051
 20
58.9407999999996406
 30
0.0
 11
103.2451695813733039
 21
58.9407999999996406
 31
0.0
  0
LINE
  5
103F
  8
0
 10
111.2451695813733039
 20
59.3217999999996621
 30
0.0
 11
111.2451695813733039
 21
58.9407999999996406
 31
0.0
  0
LINE
  5
1040
  8
0
 10
110.8548304186266051
 20
58.9407999999996406
 30
0.0
 11
111.2451695813733039
 21
58.9407999999996406
 31
0.0
  0
LINE
  5
1041
  8
0
 10
126.8548304186266051
 20
58.9407999999996619
 30
0.0
 11
127.2451695813734034
 21
58.9407999999996619
 31
0.0
  0
ARC
  5
1042
  8
0
 10
129.0500000000000114
 20
60.4647999999995776
 30
0.0
 40
2.362199999999945
 50
220.1777695401466133
 51
319.8222304598539836
  0
LINE
  5
1043
  8
0
 10
130.8548304186265909
 20
58.9407999999996619
 30
0.0
 11
131.2451695813732897
 21
58.9407999999996619
 31
0.0
  0
ARC
  5
1044
  8
0
 10
133.0500000000000114
 20
60.4647999999995776
 30
0.0
 40
2.3621999999999339
 50
220.1777695401468122
 51
319.8222304598555752
  0
LINE
  5
1045
  8
0
 10
134.8548304186265909
 20
58.940799999999733
 30
0.0
 11
135.2451695813734034
 21
58.940799999999733
 31
0.0
  0
ARC
  5
1046
  8
0
 10
137.0500000000000114
 20
60.4647999999995776
 30
0.0
 40
2.362199999999945
 50
220.177769540145988
 51
319.8222304598539836
  0
LINE
  5
1047
  8
0
 10
138.8548304186265909
 20
58.9407999999996619
 30
0.0
 11
139.2451695813732897
 21
58.940799999999733
 31
0.0
  0
ARC
  5
1048
  8
0
 10
141.0500000000000114
 20
60.4647999999995776
 30
0.0
 40
2.3621999999999299
 50
220.177769540145988
 51
319.8222304598555752
  0
LINE
  5
1049
  8
0
 10
142.8548304186265909
 20
58.940799999999733
 30
0.0
 11
143.2451695813734034
 21
58.940799999999733
 31
0.0
  0
ARC
  5
104A
  8
0
 10
145.0500000000000114
 20
60.4647999999996131
 30
0.0
 40
2.362199999999949
 50
220.1777695401463859
 51
244.9547320930525132
  0
LINE
  5
104B
  8
0
 10
144.0500000000000114
 20
55.9082076836318791
 30
0.0
 11
94.0500000000000114
 21
55.9082076836318578
 31
0.0
  0
ARC
  5
104C
  8
0
 10
113.0499999999999972
 20
60.4647999999995776
 30
0.0
 40
2.3621999999999739
 50
220.1777695401468122
 51
319.8222304598536994
  0
LINE
  5
104D
  8
0
 10
114.8548304186266051
 20
58.9407999999996406
 30
0.0
 11
115.2451695813733039
 21
58.9407999999996406
 31
0.0
  0
ARC
  5
104E
  8
0
 10
117.0499999999999972
 20
60.4647999999995776
 30
0.0
 40
2.3621999999999739
 50
220.1777695401468122
 51
319.8222304598551204
  0
LINE
  5
104F
  8
0
 10
118.8548304186267046
 20
58.9407999999996619
 30
0.0
 11
119.2451695813734034
 21
58.9407999999996619
 31
0.0
  0
ARC
  5
1050
  8
0
 10
121.0499999999999972
 20
60.4647999999995776
 30
0.0
 40
2.3621999999999561
 50
220.1777695401468122
 51
319.8222304598551204
  0
LINE
  5
1051
  8
0
 10
122.8548304186266051
 20
58.9407999999996619
 30
0.0
 11
123.2451695813733039
 21
58.9407999999996619
 31
0.0
  0
ARC
  5
1052
  8
0
 10
125.0499999999999972
 20
60.4647999999995776
 30
0.0
 40
2.3621999999999561
 50
220.1777695401466133
 51
319.8222304598551204
  0
LINE
  5
1053
  8
0
 10
144.0500000000000114
 20
49.99999999999973
 30
0.0
 11
144.0500000000000114
 21
59.3217999999979284
 31
0.0
  0
LINE
  5
1054
  8
0
 10
94.0500000000000114
 20
49.9999999999997016
 30
0.0
 11
94.0500000000000114
 21
59.3217999999996977
 31
0.0
  0
LINE
  5
1055
  8
0
 10
115.2451695813734034
 20
59.3217999999996621
 30
0.0
 11
115.2451695813733039
 21
58.9407999999996406
 31
0.0
  0
LINE
  5
1056
  8
0
 10
114.8548304186266051
 20
59.3217999999996621
 30
0.0
 11
114.8548304186266051
 21
58.9407999999996406
 31
0.0
  0
LINE
  5
1057
  8
0
 10
118.8548304186267046
 20
59.3217999999996977
 30
0.0
 11
118.8548304186267046
 21
58.9407999999996619
 31
0.0
  0
LINE
  5
1058
  8
0
 10
123.2451695813733039
 20
59.3217999999996977
 30
0.0
 11
123.2451695813733039
 21
58.9407999999996619
 31
0.0
  0
LINE
  5
1059
  8
0
 10
126.8548304186266051
 20
59.3217999999996977
 30
0.0
 11
126.8548304186266051
 21
58.9407999999996619
 31
0.0
  0
LINE
  5
105A
  8
0
 10
127.2451695813733039
 20
59.3217999999996977
 30
0.0
 11
127.2451695813734034
 21
58.9407999999996619
 31
0.0
  0
LINE
  5
105B
  8
0
 10
119.2451695813734034
 20
59.3217999999996977
 30
0.0
 11
119.2451695813734034
 21
58.9407999999996619
 31
0.0
  0
LINE
  5
105C
  8
0
 10
122.8548304186266051
 20
59.3217999999996977
 30
0.0
 11
122.8548304186266051
 21
58.9407999999996619
 31
0.0
  0
LINE
  5
105D
  8
0
 10
130.8548304186265909
 20
59.3217999999996977
 30
0.0
 11
130.8548304186265909
 21
58.9407999999996619
 31
0.0
  0
LINE
  5
105E
  8
0
 10
131.2451695813732897
 20
59.3217999999996977
 30
0.0
 11
131.2451695813732897
 21
58.9407999999996619
 31
0.0
  0
LINE
  5
105F
  8
0
 10
135.2451695813734034
 20
59.3217999999996977
 30
0.0
 11
135.2451695813734034
 21
58.940799999999733
 31
0.0
  0
LINE
  5
1060
  8
0
 10
134.8548304186265909
 20
59.3217999999996977
 30
0.0
 11
134.8548304186265909
 21
58.940799999999733
 31
0.0
  0
LINE
  5
1061
  8
0
 10
138.8548304186265909
 20
59.3217999999996977
 30
0.0
 11
138.8548304186265909
 21
58.9407999999996619
 31
0.0
  0
LINE
  5
1062
  8
0
 10
139.2451695813732897
 20
59.3217999999996977
 30
0.0
 11
139.2451695813732897
 21
58.940799999999733
 31
0.0
  0
LINE
  5
1063
  8
0
 10
142.8548304186265909
 20
59.3217999999996977
 30
0.0
 11
142.8548304186265909
 21
58.940799999999733
 31
0.0
  0
LINE
  5
1064
  8
0
 10
143.2451695813734034
 20
58.940799999999733
 30
0.0
 11
143.2451695813734034
 21
59.3217999999996977
 31
0.0
  0
LINE
  5
1065
  8
1
 10
100.0
 20
39.7218000000000089
 30
0.0
 11
100.0
 21
61.8217999999996621
 31
0.0
  0
LINE
  5
1069
  8
0
 10
56.4924076836323081
 20
55.9082076836318578
 30
0.0
 11
59.5250000000002899
 21
58.9407999999996406
 31
0.0
  0
ARC
  5
106A
  8
0
 10
56.7618153672643615
 20
55.6387999999997618
 30
0.0
 40
0.3810000000000001
 50
134.9999999999951967
 51
269.9999999999985789
  0
LINE
  5
106B
  8
0
 10
59.5250000000001833
 20
55.2577999999996834
 30
0.0
 11
56.7618153672643473
 21
55.25779999999979
 31
0.0
  0
LINE
  5
106C
  8
0
 10
59.5249999999999986
 20
50.5000000159996674
 30
0.0
 11
59.5250000000001833
 21
55.2577999999996834
 31
0.0
  0
LINE
  5
106D
  8
0
 10
59.0249999839999973
 20
49.9999999999997016
 30
0.0
 11
59.5249999999999986
 21
50.5000000159996674
 31
0.0
  0
LINE
  5
106E
  8
0
 10
40.9750000159999885
 20
50.0000000000002984
 30
0.0
 11
59.0249999839999973
 21
49.9999999999997016
 31
0.0
  0
LINE
  5
106F
  8
0
 10
40.4750000000000085
 20
50.5000000160003211
 30
0.0
 11
40.9750000159999885
 21
50.0000000000002984
 31
0.0
  0
LINE
  5
1070
  8
0
 10
40.4750000000001791
 20
55.2578000000003229
 30
0.0
 11
40.4750000000000085
 21
50.5000000160003211
 31
0.0
  0
LINE
  5
1071
  8
0
 10
43.2381846327360009
 20
55.2578000000002518
 30
0.0
 11
40.4750000000001791
 21
55.2578000000003229
 31
0.0
  0
ARC
  5
1072
  8
0
 10
43.2381846327360222
 20
55.6388000000002521
 30
0.0
 40
0.3810000000000026
 50
269.9999999999985789
 51
44.9999999999982023
  0
LINE
  5
1073
  8
0
 10
40.4750000000002927
 20
58.9408000000003227
 30
0.0
 11
43.5075923163680969
 21
55.9082076836323125
 31
0.0
  0
LINE
  5
1074
  8
0
 10
41.0910908485393591
 20
59.3218000000003229
 30
0.0
 11
41.0910908485393165
 21
58.3247091514612421
 31
0.0
  0
LINE
  5
1075
  8
0
 10
59.5250000000003183
 20
59.3217999999996692
 30
0.0
 11
40.475000000000442
 21
59.3218000000003371
 31
0.0
  0
LINE
  5
1076
  8
0
 10
58.9089091514613514
 20
58.3247091514607376
 30
0.0
 11
58.908909151461387
 21
59.3217999999996977
 31
0.0
  0
LINE
  5
1077
  8
0
 10
40.4750000000002927
 20
58.9408000000003227
 30
0.0
 11
40.475000000000442
 21
59.3218000000003371
 31
0.0
  0
LINE
  5
107A
  8
0
 10
59.5250000000003183
 20
59.3217999999996692
 30
0.0
 11
59.5250000000002899
 21
58.9407999999996406
 31
0.0
  0
LINE
  5
107D
  8
1
 10
49.9999999999996021
 20
37.2218000000000231
 30
0.0
 11
50.0000000000004334
 21
64.3218000000000103
 31
0.0
  0
LINE
  5
107E
  8
1
 10
138.0999999999999943
 20
39.7218000000000089
 30
0.0
 11
138.0999999999999943
 21
61.8217999999996621
 31
0.0
  0
LINE
  5
107F
  8
1
 10
119.0499999999995993
 20
37.2217999999997318
 30
0.0
 11
119.0500000000003951
 21
64.3217999999997261
 31
0.0
  0
LINE
  5
1080
  8
1
 10
100.0003999999999991
 20
92.5000000107349791
 30
0.0
 11
100.0003999999999991
 21
107.499999989264694
 31
0.0
  0
LINE
  5
1081
  8
1
 10
138.0999999999999943
 20
92.500000010735036
 30
0.0
 11
138.0999999999999943
 21
107.499999989264694
 31
0.0
  0
LINE
  5
1101
  8
0
 10
52.4999999999997513
 20
43.1218000000000501
 30
0.0
 11
47.4999999999997371
 21
43.1218000000000501
 31
0.0
  0
LINE
  5
1102
  8
0
 10
48.3999999999997428
 20
42.2218000000000089
 30
0.0
 11
47.4999999999997371
 21
43.1218000000000217
 31
0.0
  0
LINE
  5
1103
  8
0
 10
52.4999999999997513
 20
43.1218000000000217
 30
0.0
 11
51.5999999999997669
 21
42.2218000000000089
 31
0.0
  0
LINE
  5
1104
  8
0
 10
51.5999999999997669
 20
42.2218000000000089
 30
0.0
 11
48.3999999999997428
 21
42.2218000000000089
 31
0.0
  0
LINE
  5
1105
  8
0
 10
52.4999999999997513
 20
49.9999999999999218
 30
0.0
 11
52.4999999999997513
 21
43.1218000000000217
 31
0.0
  0
LINE
  5
1106
  8
3
 10
52.0669999999999717
 20
49.9999999999999218
 30
0.0
 11
52.0669999999999504
 21
42.6888000000002492
 31
0.0
  0
LINE
  5
1107
  8
3
 10
47.9329999999995522
 20
50.0000000000000711
 30
0.0
 11
47.9329999999995593
 21
42.6888000000002279
 31
0.0
  0
LINE
  5
1108
  8
0
 10
47.4999999999997371
 20
50.0000000000000782
 30
0.0
 11
47.4999999999997371
 21
43.1218000000000217
 31
0.0
  0
LINE
  5
1109
  8
0
 10
102.5
 20
43.1218000000000501
 30
0.0
 11
97.5
 21
43.1218000000000501
 31
0.0
  0
LINE
  5
110A
  8
0
 10
98.4000000000000057
 20
42.2218000000000089
 30
0.0
 11
97.5
 21
43.1218000000000217
 31
0.0
  0
LINE
  5
110B
  8
0
 10
102.5
 20
43.1218000000000217
 30
0.0
 11
101.5999999999999943
 21
42.2218000000000089
 31
0.0
  0
LINE
  5
110C
  8
0
 10
101.5999999999999943
 20
42.2218000000000089
 30
0.0
 11
98.4000000000000057
 21
42.2218000000000089
 31
0.0
  0
LINE
  5
110D
  8
0
 10
102.5
 20
49.9999999999997016
 30
0.0
 11
102.5
 21
43.1218000000000217
 31
0.0
  0
LINE
  5
110E
  8
3
 10
102.0670000000002062
 20
49.9999999999997087
 30
0.0
 11
102.0670000000002062
 21
42.6888000000002492
 31
0.0
  0
LINE
  5
110F
  8
3
 10
97.9329999999997938
 20
49.9999999999997016
 30
0.0
 11
97.9329999999998222
 21
42.6888000000002279
 31
0.0
  0
LINE
  5
1110
  8
0
 10
97.5
 20
49.9999999999997087
 30
0.0
 11
97.5
 21
43.1218000000000217
 31
0.0
  0
LINE
  5
1111
  8
0
 10
140.5999999999999943
 20
43.1218000000000501
 30
0.0
 11
135.5999999999999943
 21
43.1218000000000501
 31
0.0
  0
LINE
  5
1112
  8
0
 10
136.5
 20
42.2218000000000089
 30
0.0
 11
135.5999999999999943
 21
43.1218000000000217
 31
0.0
  0
LINE
  5
1113
  8
0
 10
140.5999999999999943
 20
43.1218000000000217
 30
0.0
 11
139.6999999999999886
 21
42.2218000000000089
 31
0.0
  0
LINE
  5
1114
  8
0
 10
139.6999999999999886
 20
42.2218000000000089
 30
0.0
 11
136.5
 21
42.2218000000000089
 31
0.0
  0
LINE
  5
1115
  8
0
 10
140.5999999999999943
 20
49.9999999999997229
 30
0.0
 11
140.5999999999999943
 21
43.1218000000000217
 31
0.0
  0
LINE
  5
1116
  8
3
 10
140.1670000000002005
 20
49.99999999999973
 30
0.0
 11
140.1670000000002005
 21
42.6888000000002492
 31
0.0
  0
LINE
  5
1117
  8
3
 10
136.0329999999997881
 20
49.99999999999973
 30
0.0
 11
136.0329999999997881
 21
42.6888000000002279
 31
0.0
  0
LINE
  5
1118
  8
0
 10
135.5999999999999943
 20
49.9999999999997229
 30
0.0
 11
135.5999999999999943
 21
43.1218000000000217
 31
0.0
  0
LINE
  5
11B3
  8
2
 10
47.5000000000003766
 20
50.0000000000015774
 30
0.0
 11
47.5000000000003766
 21
54.2218000000018705
 31
0.0
  0
LINE
  5
11B4
  8
2
 10
52.5000000000003908
 20
50.0000000000015774
 30
0.0
 11
52.5000000000003908
 21
54.2218000000018705
 31
0.0
  0
LINE
  5
11B5
  8
2
 10
45.0000000000049596
 20
59.3218000000001879
 30
0.0
 11
45.4407000000106933
 21
58.8810999999944187
 31
0.0
  0
LINE
  5
11B6
  8
2
 10
54.9999999999958433
 20
59.3217999999998327
 30
0.0
 11
54.5592999999901025
 21
58.8810999999941131
 31
0.0
  0
LINE
  5
11B7
  8
2
 10
45.4407000000106933
 20
58.88109999999444
 30
0.0
 11
45.4407000000106933
 21
54.2218000000018705
 31
0.0
  0
LINE
  5
11B8
  8
2
 10
54.5592999999901025
 20
58.8810999999940918
 30
0.0
 11
54.5592999999901025
 21
54.2218000000018776
 31
0.0
  0
LINE
  5
11B9
  8
2
 10
45.4407000000106933
 20
54.2218000000018776
 30
0.0
 11
54.5592999999901025
 21
54.2218000000018776
 31
0.0
  0
LINE
  5
11BA
  8
2
 10
45.7500000000003766
 20
58.9218000000018876
 30
0.0
 11
46.2696152422710014
 21
59.2218000000018776
 31
0.0
  0
LINE
  5
11BB
  8
2
 10
54.2500000000003766
 20
58.9218000000018733
 30
0.0
 11
53.7303847577297091
 21
59.2218000000018776
 31
0.0
  0
LINE
  5
11BC
  8
2
 10
45.7500000000003766
 20
58.9218000000018733
 30
0.0
 11
54.2500000000003766
 21
58.9218000000018733
 31
0.0
  0
LINE
  5
11BD
  8
2
 10
46.2696152422710014
 20
59.2218000000018776
 30
0.0
 11
53.7303847577297091
 21
59.2218000000018776
 31
0.0
  0
LINE
  5
11BE
  8
2
 10
45.7500000000003766
 20
54.2218000000018776
 30
0.0
 11
45.7500000000003766
 21
58.9218000000018733
 31
0.0
  0
LINE
  5
11BF
  8
2
 10
54.2500000000003766
 20
58.9218000000018733
 30
0.0
 11
54.2500000000003766
 21
54.2218000000018776
 31
0.0
  0
LINE
  5
11C0
  8
2
 10
47.9330000000001988
 20
50.0000000000015916
 30
0.0
 11
47.9330000000001988
 21
51.8218000000017796
 31
0.0
  0
LINE
  5
11C1
  8
2
 10
52.0670000000006112
 20
50.0000000000015916
 30
0.0
 11
52.0670000000005899
 21
51.8218000000019572
 31
0.0
  0
LINE
  5
11C2
  8
2
 10
47.9330000000001775
 20
51.8218000000018719
 30
0.0
 11
47.5000000000003766
 21
52.5717779996788011
 31
0.0
  0
LINE
  5
11C3
  8
2
 10
52.0670000000005615
 20
51.8218000000018719
 30
0.0
 11
52.5000000000003482
 21
52.5717779996788011
 31
0.0
  0
LINE
  5
11C4
  8
2
 10
52.5000000000003482
 20
51.8218000000018719
 30
0.0
 11
47.5000000000003482
 21
51.8218000000018719
 31
0.0
  0
ENDSEC
  0
EOF
