  0
SECTION
  2
HEADER
  9
$ACADVER
  1
AC1009
  9
$INSBASE
 10
0.0
 20
0.0
 30
0.0
  9
$EXTMIN
 10
0.0
 20
-1.4802182810368341
 30
0.0
  9
$EXTMAX
 10
89.36095428268149
 20
125.54295008045089
 30
0.0
  9
$LIMMIN
 10
0.0
 20
0.0
  9
$LIMMAX
 10
375.0
 20
270.0
  9
$ORTHOMODE
 70
     1
  9
$REGENMODE
 70
     1
  9
$FILLMODE
 70
     1
  9
$QTEXTMODE
 70
     0
  9
$MIRRTEXT
 70
     0
  9
$DRAGMODE
 70
     2
  9
$LTSCALE
 40
5.0
  9
$OSMODE
 70
    37
  9
$ATTMODE
 70
     1
  9
$TEXTSIZE
 40
4.000000000000048
  9
$TRACEWID
 40
0.05
  9
$TEXTSTYLE
  7
STANDARD
  9
$CLAYER
  8
0
  9
$CELTYPE
  6
BYLAYER
  9
$CECOLOR
 62
   256
  9
$DIMSCALE
 40
0.5
  9
$DIMASZ
 40
3.0
  9
$DIMEXO
 40
2.0
  9
$DIMDLI
 40
0.38
  9
$DIMRND
 40
0.0
  9
$DIMDLE
 40
0.0
  9
$DIMEXE
 40
2.0
  9
$DIMTP
 40
0.0
  9
$DIMTM
 40
0.0
  9
$DIMTXT
 40
3.2000000000000002
  9
$DIMCEN
 40
0.0
  9
$DIMTSZ
 40
0.0
  9
$DIMTOL
 70
     0
  9
$DIMLIM
 70
     0
  9
$DIMTIH
 70
     0
  9
$DIMTOH
 70
     0
  9
$DIMSE1
 70
     0
  9
$DIMSE2
 70
     0
  9
$DIMTAD
 70
     1
  9
$DIMZIN
 70
     0
  9
$DIMBLK
  1

  9
$DIMASO
 70
     0
  9
$DIMSHO
 70
     0
  9
$DIMPOST
  1

  9
$DIMAPOST
  1

  9
$DIMALT
 70
     0
  9
$DIMALTD
 70
     2
  9
$DIMALTF
 40
25.399999999999999
  9
$DIMLFAC
 40
1.0
  9
$DIMTOFL
 70
     0
  9
$DIMTVP
 40
1.6000000000000001
  9
$DIMTIX
 70
     1
  9
$DIMSOXD
 70
     0
  9
$DIMSAH
 70
     0
  9
$DIMBLK1
  1

  9
$DIMBLK2
  1

  9
$DIMSTYLE
  2
STANDARD
  9
$DIMCLRD
 70
     4
  9
$DIMCLRE
 70
     4
  9
$DIMCLRT
 70
     4
  9
$DIMTFAC
 40
1.0
  9
$DIMGAP
 40
0.09
  9
$LUNITS
 70
     2
  9
$LUPREC
 70
     1
  9
$SKETCHINC
 40
0.1
  9
$FILLETRAD
 40
0.0
  9
$AUNITS
 70
     0
  9
$AUPREC
 70
     0
  9
$MENU
  1
E:\r13\win\SUPPORT\ACAD
  9
$ELEVATION
 40
0.0
  9
$PELEVATION
 40
0.0
  9
$THICKNESS
 40
0.0
  9
$LIMCHECK
 70
     0
  9
$BLIPMODE
 70
     0
  9
$CHAMFERA
 40
1.1999999999999991
  9
$CHAMFERB
 40
1.1999999999999991
  9
$SKPOLY
 70
     0
  9
$TDCREATE
 40
2449983.5574884261
  9
$TDUPDATE
 40
2457968.42559228
  9
$TDINDWG
 40
0.0411864699
  9
$TDUSRTIMER
 40
0.0411864699
  9
$USRTIMER
 70
     1
  9
$ANGBASE
 50
0.0
  9
$ANGDIR
 70
     0
  9
$PDMODE
 70
     0
  9
$PDSIZE
 40
0.0
  9
$PLINEWID
 40
0.0
  9
$COORDS
 70
     1
  9
$SPLFRAME
 70
     0
  9
$SPLINETYPE
 70
     6
  9
$SPLINESEGS
 70
     8
  9
$ATTDIA
 70
     0
  9
$ATTREQ
 70
     1
  9
$HANDLING
 70
     1
  9
$HANDSEED
  5
D73
  9
$SURFTAB1
 70
     6
  9
$SURFTAB2
 70
     6
  9
$SURFTYPE
 70
     6
  9
$SURFU
 70
     6
  9
$SURFV
 70
     6
  9
$UCSNAME
  2

  9
$UCSORG
 10
0.0
 20
0.0
 30
0.0
  9
$UCSXDIR
 10
1.0
 20
0.0
 30
0.0
  9
$UCSYDIR
 10
0.0
 20
1.0
 30
0.0
  9
$PUCSNAME
  2

  9
$PUCSORG
 10
0.0
 20
0.0
 30
0.0
  9
$PUCSXDIR
 10
1.0
 20
0.0
 30
0.0
  9
$PUCSYDIR
 10
0.0
 20
1.0
 30
0.0
  9
$USERI1
 70
     0
  9
$USERI2
 70
     1
  9
$USERI3
 70
     0
  9
$USERI4
 70
     0
  9
$USERI5
 70
     0
  9
$USERR1
 40
0.0
  9
$USERR2
 40
0.0
  9
$USERR3
 40
0.0
  9
$USERR4
 40
0.0
  9
$USERR5
 40
0.0
  9
$WORLDVIEW
 70
     1
  9
$SHADEDGE
 70
     3
  9
$SHADEDIF
 70
    70
  9
$TILEMODE
 70
     1
  9
$MAXACTVP
 70
    16
  9
$PLIMCHECK
 70
     0
  9
$PEXTMIN
 10
1.0000000000000000E+020
 20
1.0000000000000000E+020
 30
1.0000000000000000E+020
  9
$PEXTMAX
 10
-1.0000000000000000E+020
 20
-1.0000000000000000E+020
 30
-1.0000000000000000E+020
  9
$PLIMMIN
 10
0.0
 20
0.0
  9
$PLIMMAX
 10
12.0
 20
9.0
  9
$UNITMODE
 70
     0
  9
$VISRETAIN
 70
     0
  9
$PLINEGEN
 70
     0
  9
$PSLTSCALE
 70
     0
  0
ENDSEC
  0
SECTION
  2
TABLES
  0
TABLE
  2
VPORT
 70
     1
  0
VPORT
  2
*ACTIVE
 70
     0
 10
0.0
 20
0.0
 11
1.0
 21
1.0
 12
181.62393162393161
 22
100.0
 13
0.0
 23
0.0
 14
5.0
 24
5.0
 15
5.0
 25
5.0
 16
0.0
 26
0.0
 36
1.0
 17
0.0
 27
0.0
 37
0.0
 40
200.0
 41
1.816239316239316
 42
50.0
 43
0.0
 44
0.0
 50
0.0
 51
0.0
 71
     0
 72
   500
 73
     1
 74
     0
 75
     0
 76
     0
 77
     0
 78
     2
  0
ENDTAB
  0
TABLE
  2
LTYPE
 70
     3
  0
LTYPE
  2
CONTINUOUS
 70
     0
  3
Solid Line
 72
    65
 73
     0
 40
0.0
  0
LTYPE
  2
CENTER
 70
     0
  3
____ _ ____ _ ____ _ ____ _ ____ _ ____ _ ____
 72
    65
 73
     4
 40
2.0
 49
1.25
 49
-0.25
 49
0.25
 49
-0.25
  0
LTYPE
  2
PHANTOM2
 70
     0
  3
___ _ _ ___ _ _ ___ _ _ ___ _ _
 72
    65
 73
     6
 40
1.25
 49
0.625
 49
-0.125
 49
0.125
 49
-0.125
 49
0.125
 49
-0.125
  0
ENDTAB
  0
TABLE
  2
LAYER
 70
     3
  0
LAYER
  2
0
 70
     0
 62
     7
  6
CONTINUOUS
  0
LAYER
  2
1
 70
     0
 62
     1
  6
CENTER
  0
LAYER
  2
3
 70
     0
 62
     3
  6
CONTINUOUS
  0
ENDTAB
  0
TABLE
  2
STYLE
 70
     2
  0
STYLE
  2
STANDARD
 70
     0
 40
0.0
 41
1.0
 50
0.0
 71
     0
 42
4.000000000000048
  3
SIMPLEX
  4
BIGFONT
  0
STYLE
  2
STANDARD1
 70
     0
 40
0.0
 41
1.0
 50
0.0
 71
     0
 42
3.0
  3
txt
  4

  0
ENDTAB
  0
TABLE
  2
VIEW
 70
     1
  0
VIEW
  2
ALL
 70
     0
 40
270.0
 10
220.78595317725751
 20
135.0
 41
441.57190635451502
 11
0.0
 21
0.0
 31
1.0
 12
0.0
 22
0.0
 32
0.0
 42
50.0
 43
0.0
 44
0.0
 50
0.0
 71
     0
  0
ENDTAB
  0
TABLE
  2
UCS
 70
     0
  0
ENDTAB
  0
TABLE
  2
APPID
 70
     4
  0
APPID
  2
ACAD
 70
     0
  0
APPID
  2
ACAD_MLEADERVER
 70
     0
  0
APPID
  2
ACAD_NAV_VCDISPLAY
 70
     0
  0
APPID
  2
ACAD_EXEMPT_FROM_CAD_STANDARDS
 70
     0
  0
ENDTAB
  0
TABLE
  2
DIMSTYLE
 70
     1
  0
DIMSTYLE
  2
STANDARD
 70
     0
  3

  4

  5

  6

  7

 40
1.0
 41
0.18
 42
0.0625
 43
0.38
 44
0.18
 45
0.0
 46
0.0
 47
0.0
 48
0.0
140
0.18
141
0.09
142
0.0
143
25.399999999999999
144
1.0
145
0.0
146
1.0
147
0.09
 71
     0
 72
     0
 73
     1
 74
     1
 75
     0
 76
     0
 77
     0
 78
     0
170
     0
171
     2
172
     0
173
     0
174
     0
175
     0
176
     0
177
     0
178
     0
  0
ENDTAB
  0
ENDSEC
  0
SECTION
  2
BLOCKS
  0
BLOCK
  8
0
  2
$MODEL_SPACE
 70
     0
 10
0.0
 20
0.0
 30
0.0
  3
$MODEL_SPACE
  1

  0
ENDBLK
  5
34A
  8
0
  0
BLOCK
 67
     1
  8
0
  2
$PAPER_SPACE
 70
     0
 10
0.0
 20
0.0
 30
0.0
  3
$PAPER_SPACE
  1

  0
ENDBLK
  5
348
 67
     1
  8
0
  0
ENDSEC
  0
SECTION
  2
ENTITIES
  0
TEXT
  5
3F7
  8
0
 62
     3
 10
0.0
 20
0.0
 30
0.0
 40
5.0
  1
TSLIDE-NUTM5
  7
STANDARD1
  0
ARC
  5
AAA
  8
0
 10
75.760954282681155
 20
84.194287615188628
 30
0.0
 40
0.6000000000000086
 50
90.0
 51
270.0
  0
ARC
  5
AAB
  8
0
 10
81.960954282681129
 20
84.194287615188628
 30
0.0
 40
0.6000000000000086
 50
270.0
 51
90.0
  0
LINE
  5
AAC
  8
0
 10
81.960954282681129
 20
84.794287615188637
 30
0.0
 11
75.760954282681155
 21
84.794287615188637
 31
0.0
  0
LINE
  5
AAD
  8
0
 10
75.760954282681155
 20
83.594287615188605
 30
0.0
 11
81.960954282681129
 21
83.594287615188605
 31
0.0
  0
ARC
  5
AAE
  8
0
 10
80.285067213381126
 20
87.650430386088644
 30
0.0
 40
3.5393350930000191
 50
20.000000000459469
 51
78.004576755117
  0
ARC
  5
AAF
  8
0
 10
77.436841351981144
 20
87.650430386088644
 30
0.0
 40
3.5393350930000098
 50
101.9985696342867
 51
159.99999999954051
  0
LINE
  5
AB0
  8
0
 10
83.610954282681135
 20
88.360954281888624
 30
0.0
 11
83.610954282681135
 21
88.860954281888624
 31
0.0
  0
LINE
  5
AB1
  8
0
 10
74.110954282681149
 20
88.860954281888624
 30
0.0
 11
74.110954282681149
 21
88.360954281888624
 31
0.0
  0
ARC
  5
AB2
  8
0
 10
81.560954282681138
 20
88.160954281888621
 30
0.0
 40
0.2000000000000028
 50
90.0
 51
180.0
  0
ARC
  5
AB3
  8
0
 10
76.160954282681132
 20
88.160954281888621
 30
0.0
 40
0.200000000000017
 50
0.0
 51
90.0
  0
LINE
  5
AB4
  8
0
 10
81.360954282681149
 20
63.85170428188863
 30
0.0
 11
81.360954282681149
 21
68.360954281908064
 31
0.0
  0
LINE
  5
AB5
  8
0
 10
81.360954282681149
 20
75.860954281888624
 30
0.0
 11
81.360954282681149
 21
83.594287615188605
 31
0.0
  0
LINE
  5
AB6
  8
0
 10
81.360954282681149
 20
84.794287615188637
 30
0.0
 11
81.360954282681149
 21
88.160954281888621
 31
0.0
  0
LINE
  5
AB7
  8
0
 10
76.360954282681149
 20
88.160954281888621
 30
0.0
 11
76.360954282681149
 21
84.794287615188637
 31
0.0
  0
LINE
  5
AB8
  8
0
 10
76.360954282681149
 20
83.594287615188605
 30
0.0
 11
76.360954282681149
 21
75.860954281888624
 31
0.0
  0
LINE
  5
AB9
  8
0
 10
76.360954282681149
 20
68.360954281908064
 30
0.0
 11
76.360954282681149
 21
63.85170428188863
 31
0.0
  0
LINE
  5
ABA
  8
0
 10
76.360954282621037
 20
63.85170428188863
 30
0.0
 11
76.851704282609688
 21
63.360954281899993
 31
0.0
  0
LINE
  5
ABB
  8
0
 10
80.87020428275261
 20
63.360954281899993
 30
0.0
 11
81.360954282741218
 21
63.85170428188863
 31
0.0
  0
LINE
  5
ABC
  8
0
 10
83.610954282756552
 20
88.860954281888624
 30
0.0
 11
74.110954282643434
 21
88.860954281888624
 31
0.0
  0
LINE
  5
ABE
  8
0
 10
81.020659812577136
 20
91.112481285273887
 30
0.0
 11
76.701058635872442
 21
91.112440885093093
 31
0.0
  0
LINE
  5
ABF
  8
0
 10
83.610954282681135
 20
88.360954281888624
 30
0.0
 11
74.110954282681149
 21
88.360954281888624
 31
0.0
  0
LINE
  5
AC2
  8
0
 10
76.360954282681149
 20
63.85170428188863
 30
0.0
 11
81.360954282681149
 21
63.85170428188863
 31
0.0
  0
LINE
  5
AC3
  8
0
 10
76.851704282609688
 20
63.360954281899993
 30
0.0
 11
80.87020428275261
 21
63.360954281899993
 31
0.0
  0
LINE
  5
AC6
  8
0
 10
63.360954282681121
 20
75.26095428188863
 30
0.0
 11
86.360954282681149
 21
75.26095428188863
 31
0.0
  0
LINE
  5
AD1
  8
0
 10
63.360954282681121
 20
75.860954281888624
 30
0.0
 11
86.360954282681149
 21
75.860954281888624
 31
0.0
  0
LINE
  5
AD2
  8
0
 10
86.360954282681206
 20
68.360954279158065
 30
0.0
 11
86.360954282681149
 21
75.860954281888624
 31
0.0
  0
LINE
  5
AD3
  8
0
 10
63.360954282681121
 20
75.860954281888624
 30
0.0
 11
63.360954282681121
 21
68.36095427640808
 31
0.0
  0
LINE
  5
AD4
  8
0
 10
81.360954282681149
 20
68.360954276408066
 30
0.0
 11
86.360954282681149
 21
68.360954279158065
 31
0.0
  0
ARC
  5
AD5
  8
0
 10
78.860954282681121
 20
64.932165159638146
 30
0.0
 40
4.2434178214359113
 50
53.90344777786845
 51
126.096552222128
  0
LINE
  5
AD6
  8
0
 10
63.360954282681121
 20
68.360954276408066
 30
0.0
 11
76.360954282681149
 21
68.360954279158065
 31
0.0
  0
LINE
  5
ADB
  8
0
 10
86.360954282681149
 20
124.47342722235091
 30
0.0
 11
63.360954282681121
 21
124.47342722235091
 31
0.0
  0
LINE
  5
ADC
  8
0
 10
63.360954282681121
 20
111.1124729404509
 30
0.0
 11
86.360954282681149
 21
111.1124729404509
 31
0.0
  0
LINE
  5
ADD
  8
0
 10
79.726979686481116
 20
116.29295008045089
 30
0.0
 11
77.994928878881126
 21
116.29295008045089
 31
0.0
  0
LINE
  5
ADE
  8
0
 10
80.593005090281139
 20
117.79295008045089
 30
0.0
 11
79.726979686481116
 21
116.29295008045089
 31
0.0
  0
LINE
  5
ADF
  8
0
 10
79.726979686481116
 20
119.29295008045089
 30
0.0
 11
80.593005090281139
 21
117.79295008045089
 31
0.0
  0
LINE
  5
AE0
  8
0
 10
77.994928878881126
 20
119.29295008045089
 30
0.0
 11
79.726979686481116
 21
119.29295008045089
 31
0.0
  0
LINE
  5
AE1
  8
0
 10
77.128903475081131
 20
117.79295008045089
 30
0.0
 11
77.994928878881126
 21
119.29295008045089
 31
0.0
  0
LINE
  5
AE2
  8
0
 10
77.994928878881126
 20
116.29295008045089
 30
0.0
 11
77.128903475081131
 21
117.79295008045089
 31
0.0
  0
CIRCLE
  5
AE4
  8
0
 10
78.860954282681149
 20
117.79295008045089
 30
0.0
 40
4.7499999999999707
  0
LINE
  5
AE5
  8
0
 10
86.360954282681149
 20
121.892950080451
 30
0.0
 11
81.259391273723324
 21
121.892950080451
 31
0.0
  0
LINE
  5
AE6
  8
0
 10
76.462517291638903
 20
121.892950080451
 30
0.0
 11
63.360954282681121
 21
121.892950080451
 31
0.0
  0
LINE
  5
AEB
  8
0
 10
63.360954282681121
 20
113.6929500804509
 30
0.0
 11
76.462517291638761
 21
113.6929500804509
 31
0.0
  0
LINE
  5
AEC
  8
0
 10
81.259391273723509
 20
113.6929500804509
 30
0.0
 11
86.360954282681149
 21
113.6929500804509
 31
0.0
  0
LINE
  5
AF4
  8
0
 10
86.360954282681149
 20
111.1124729404509
 30
0.0
 11
86.360954282681149
 21
124.47342722235091
 31
0.0
  0
LINE
  5
AF5
  8
0
 10
63.360954282681121
 20
124.47342722235091
 30
0.0
 11
63.360954282681092
 21
111.1124729404509
 31
0.0
  0
LINE
  5
B05
  8
0
 10
63.360954282681121
 20
30.0
 30
0.0
 11
86.360954282681149
 21
30.0
 31
0.0
  0
LINE
  5
B06
  8
0
 10
86.360954282681149
 20
43.360954281899993
 30
0.0
 11
63.360954282681121
 21
43.360954281899993
 31
0.0
  0
CIRCLE
  5
B07
  8
0
 10
78.860954282681149
 20
36.680477141899992
 30
0.0
 40
2.5
  0
CIRCLE
  5
B08
  8
3
 10
78.860954282681149
 20
36.680477141899992
 30
0.0
 40
2.0670000000002058
  0
LINE
  5
B19
  8
0
 10
86.360954282681092
 20
30.0
 30
0.0
 11
86.360954282681149
 21
43.360954281899993
 31
0.0
  0
LINE
  5
B1A
  8
0
 10
63.360954282681121
 20
43.360954281899993
 30
0.0
 11
63.360954282681121
 21
30.0
 31
0.0
  0
ARC
  5
B1B
  8
0
 10
33.580477141765563
 20
84.194287615188628
 30
0.0
 40
0.6000000000000086
 50
90.0
 51
270.0
  0
ARC
  5
B1C
  8
0
 10
39.78047714176558
 20
84.194287615188628
 30
0.0
 40
0.6000000000000086
 50
270.0
 51
90.0
  0
LINE
  5
B1D
  8
0
 10
39.78047714176558
 20
84.794287615188637
 30
0.0
 11
33.580477141765563
 21
84.794287615188637
 31
0.0
  0
LINE
  5
B1E
  8
0
 10
33.580477141765563
 20
83.594287615188605
 30
0.0
 11
39.78047714176558
 21
83.594287615188605
 31
0.0
  0
ARC
  5
B1F
  8
0
 10
38.104590072465562
 20
87.650430386088644
 30
0.0
 40
3.5393350930000049
 50
20.000000000459281
 51
77.884824174673255
  0
ARC
  5
B20
  8
0
 10
35.256364211065581
 20
87.650430386088644
 30
0.0
 40
3.5393350930000138
 50
102.113245930513
 51
159.99999999954051
  0
LINE
  5
B21
  8
0
 10
41.430477141765579
 20
88.360954281888624
 30
0.0
 11
41.430477141765579
 21
88.860954281888624
 31
0.0
  0
LINE
  5
B22
  8
0
 10
31.930477141765579
 20
88.860954281888624
 30
0.0
 11
31.930477141765579
 21
88.360954281888624
 31
0.0
  0
ARC
  5
B23
  8
0
 10
39.380477141765567
 20
88.160954281888621
 30
0.0
 40
0.2000000000000028
 50
90.0
 51
179.9999999999992
  0
ARC
  5
B24
  8
0
 10
33.98047714176559
 20
88.160954281888621
 30
0.0
 40
0.2000000000000028
 50
0.0
 51
90.0
  0
LINE
  5
B25
  8
0
 10
34.180477141705502
 20
63.85170428188863
 30
0.0
 11
34.671227141694118
 21
63.360954281899993
 31
0.0
  0
LINE
  5
B26
  8
0
 10
38.689727141837039
 20
63.360954281899993
 30
0.0
 11
39.180477141825662
 21
63.85170428188863
 31
0.0
  0
LINE
  5
B27
  8
0
 10
39.180477141765579
 20
63.85170428188863
 30
0.0
 11
39.180477141765579
 21
69.23845375614394
 31
0.0
  0
LINE
  5
B28
  8
0
 10
39.180477141765579
 20
75.860954281888624
 30
0.0
 11
39.180477141765579
 21
83.594287615188605
 31
0.0
  0
LINE
  5
B29
  8
0
 10
39.180477141765579
 20
84.794287615188637
 30
0.0
 11
39.180477141765579
 21
88.160954281888621
 31
0.0
  0
LINE
  5
B2A
  8
0
 10
34.180477141765579
 20
88.160954281888621
 30
0.0
 11
34.180477141765579
 21
84.794287615188637
 31
0.0
  0
LINE
  5
B2B
  8
0
 10
34.180477141765579
 20
83.594287615188605
 30
0.0
 11
34.180477141765579
 21
75.860954281888624
 31
0.0
  0
LINE
  5
B2C
  8
0
 10
34.180477141765579
 20
69.238453763189597
 30
0.0
 11
34.180477141765579
 21
63.85170428188863
 31
0.0
  0
LINE
  5
B2D
  8
0
 10
41.430477141765579
 20
88.860954281888624
 30
0.0
 11
31.93047714172787
 21
88.860954281888624
 31
0.0
  0
LINE
  5
B2E
  8
0
 10
38.847332632208833
 20
91.110954281897648
 30
0.0
 11
34.51362114130049
 21
91.110954281809811
 31
0.0
  0
LINE
  5
B2F
  8
0
 10
41.430477141765579
 20
88.360954281888624
 30
0.0
 11
31.930477141765579
 21
88.360954281888624
 31
0.0
  0
LINE
  5
B30
  8
0
 10
34.180477141765579
 20
63.85170428188863
 30
0.0
 11
39.180477141765579
 21
63.85170428188863
 31
0.0
  0
LINE
  5
B31
  8
0
 10
34.671227141694118
 20
63.360954281899993
 30
0.0
 11
38.689727141837039
 21
63.360954281899993
 31
0.0
  0
ARC
  5
B32
  8
0
 10
43.060954281765561
 20
74.960954281888633
 30
0.0
 40
0.3000000009155583
 50
336.05156811718098
 51
90.0
  0
ARC
  5
B33
  8
0
 10
28.712548961765549
 20
81.333808001888656
 30
0.0
 40
15.999999994299991
 50
311.60519826240989
 51
336.05156855486371
  0
ARC
  5
B34
  8
0
 10
36.68048961176558
 20
72.360924161888605
 30
0.0
 40
3.9999698856878392
 50
269.99982137902322
 51
311.60535160780228
  0
ARC
  5
B35
  8
0
 10
36.680464671765577
 20
72.360924161888633
 30
0.0
 40
3.9999698855000041
 50
228.3946483922366
 51
270.00017862089868
  0
LINE
  5
B36
  8
0
 10
32.28047714176558
 20
75.26095428188863
 30
0.0
 11
30.300000001765572
 21
75.26095428188863
 31
0.0
  0
ARC
  5
B37
  8
0
 10
32.28047714176558
 20
75.560954281888627
 30
0.0
 40
0.2999999999999971
 50
270.0
 51
0.0
  0
LINE
  5
B38
  8
0
 10
32.580477141765563
 20
75.660954281888621
 30
0.0
 11
32.580477141765563
 21
75.560954281888627
 31
0.0
  0
ARC
  5
B39
  8
0
 10
32.780477141765573
 20
75.660954281888621
 30
0.0
 40
0.2000000000000028
 50
90.0
 51
180.0
  0
LINE
  5
B3A
  8
0
 10
32.780477141765573
 20
75.860954281888624
 30
0.0
 11
40.580477141765577
 21
75.860954281888624
 31
0.0
  0
ARC
  5
B3B
  8
0
 10
40.580477141765577
 20
75.660954281888621
 30
0.0
 40
0.2000000000000028
 50
0.0
 51
90.0
  0
LINE
  5
B3C
  8
0
 10
40.780477141765573
 20
75.560954281888627
 30
0.0
 11
40.780477141765573
 21
75.660954281888621
 31
0.0
  0
ARC
  5
B3D
  8
0
 10
41.080477141765577
 20
75.560954281888627
 30
0.0
 40
0.3000000000000114
 50
180.0
 51
270.0
  0
LINE
  5
B3E
  8
0
 10
43.060954281765561
 20
75.26095428188863
 30
0.0
 11
41.080477141765577
 21
75.26095428188863
 31
0.0
  0
ARC
  5
B3F
  8
0
 10
44.648405321765523
 20
81.333808001888585
 30
0.0
 40
15.99999999423439
 50
203.94843144515789
 51
228.39480173760279
  0
ARC
  5
B40
  8
0
 10
30.300000001765572
 20
74.960954281888633
 30
0.0
 40
0.3000000017655742
 50
90.0
 51
203.94843188393841
  0
LINE
  5
BCB
  8
3
 10
80.927954282681355
 20
63.418704281828781
 30
0.0
 11
80.927954282681384
 21
68.638120610973047
 31
0.0
  0
LINE
  5
BCC
  8
3
 10
76.793954282680943
 20
63.418704281828738
 30
0.0
 11
76.793954282680943
 21
68.638120610973104
 31
0.0
  0
LINE
  5
BCE
  8
3
 10
80.927954282681384
 20
75.860954281888624
 30
0.0
 11
80.927954282681384
 21
83.594287615188634
 31
0.0
  0
LINE
  5
BCF
  8
3
 10
76.793954282680915
 20
75.860954281888624
 30
0.0
 11
76.793954282680943
 21
83.594287615188634
 31
0.0
  0
LINE
  5
BD0
  8
3
 10
80.927954282681384
 20
84.794287615188637
 30
0.0
 11
80.927954282681384
 21
86.760954281888203
 31
0.0
  0
LINE
  5
BD1
  8
3
 10
76.793954282680943
 20
84.794287615188637
 30
0.0
 11
76.793954282680943
 21
86.760954281888203
 31
0.0
  0
LINE
  5
BEE
  8
3
 10
76.793954282680971
 20
86.760954281888203
 30
0.0
 11
76.360954282681149
 21
87.510932281565161
 31
0.0
  0
LINE
  5
BF2
  8
3
 10
80.927954282681327
 20
86.760954281888203
 30
0.0
 11
81.360954282681149
 21
87.510932281565161
 31
0.0
  0
LINE
  5
BF3
  8
0
 10
81.360954282681149
 20
86.760954281888203
 30
0.0
 11
76.360954282681149
 21
86.760954281888203
 31
0.0
  0
LINE
  5
BFA
  8
3
 10
38.747477141765778
 20
63.418704281828781
 30
0.0
 11
38.74747714176582
 21
68.936406438583148
 31
0.0
  0
LINE
  5
BFB
  8
3
 10
38.74747714176582
 20
75.860954281888624
 30
0.0
 11
38.74747714176582
 21
83.594287615188634
 31
0.0
  0
LINE
  5
BFC
  8
3
 10
38.74747714176582
 20
84.794287615188637
 30
0.0
 11
38.74747714176582
 21
86.760954281888203
 31
0.0
  0
LINE
  5
BFD
  8
3
 10
34.613477141765372
 20
63.418704281828738
 30
0.0
 11
34.613477141765372
 21
68.936406438802564
 31
0.0
  0
LINE
  5
BFE
  8
3
 10
34.613477141765351
 20
75.860954281888624
 30
0.0
 11
34.613477141765372
 21
83.594287615188634
 31
0.0
  0
LINE
  5
BFF
  8
3
 10
34.613477141765372
 20
84.794287615188637
 30
0.0
 11
34.613477141765372
 21
86.760954281888203
 31
0.0
  0
LINE
  5
C00
  8
3
 10
34.613477141765401
 20
86.760954281888203
 30
0.0
 11
34.180477141765579
 21
87.510932281565161
 31
0.0
  0
LINE
  5
C01
  8
3
 10
38.747477141765764
 20
86.760954281888203
 30
0.0
 11
39.180477141765579
 21
87.510932281565161
 31
0.0
  0
LINE
  5
C02
  8
0
 10
39.180477141765579
 20
86.760954281888203
 30
0.0
 11
34.180477141765579
 21
86.760954281888203
 31
0.0
  0
LINE
  5
C46
  8
1
 10
78.860954282681149
 20
125.54295008045089
 30
0.0
 11
78.860954282681149
 21
110.04295008045101
 31
0.0
  0
LINE
  5
C47
  8
1
 10
36.680477141765579
 20
94.110954281894394
 30
0.0
 11
36.680477141765579
 21
60.360954281899993
 31
0.0
  0
LINE
  5
C4C
  8
1
 10
89.360954282681078
 20
36.680477141899992
 30
0.0
 11
60.360954282681121
 21
36.680477141899992
 31
0.0
  0
LINE
  5
C4D
  8
1
 10
89.36095428268149
 20
117.79295008045089
 30
0.0
 11
60.360954282681121
 21
117.79295008045089
 31
0.0
  0
LINE
  5
C54
  8
1
 10
78.860954282681149
 20
94.110954281855143
 30
0.0
 11
78.860954282681149
 21
60.360954281899993
 31
0.0
  0
LINE
  5
C55
  8
1
 10
78.860954282681149
 20
42.180477141899992
 30
0.0
 11
78.860954282681149
 21
31.180477141899988
 31
0.0
  0
ENDSEC
  0
EOF
