  0
SECTION
  2
HEADER
  9
$ACADVER
  1
AC1009
  9
$INSBASE
 10
0.0
 20
0.0
 30
0.0
  9
$EXTMIN
 10
0.0
 20
-1.4802182810368341
 30
0.0
  9
$EXTMAX
 10
169.0
 20
99.0
 30
0.0
  9
$LIMMIN
 10
0.0
 20
0.0
  9
$LIMMAX
 10
187.5
 20
135.0
  9
$ORTHOMODE
 70
     1
  9
$REGENMODE
 70
     1
  9
$FILLMODE
 70
     1
  9
$QTEXTMODE
 70
     0
  9
$MIRRTEXT
 70
     0
  9
$DRAGMODE
 70
     2
  9
$LTSCALE
 40
5.0
  9
$OSMODE
 70
    37
  9
$ATTMODE
 70
     1
  9
$TEXTSIZE
 40
4.0
  9
$TRACEWID
 40
0.05
  9
$TEXTSTYLE
  7
STANDARD
  9
$CLAYER
  8
0
  9
$CELTYPE
  6
BYLAYER
  9
$CECOLOR
 62
   256
  9
$DIMSCALE
 40
0.5
  9
$DIMASZ
 40
3.0
  9
$DIMEXO
 40
2.0
  9
$DIMDLI
 40
0.38
  9
$DIMRND
 40
0.0
  9
$DIMDLE
 40
0.0
  9
$DIMEXE
 40
2.0
  9
$DIMTP
 40
0.0
  9
$DIMTM
 40
0.0
  9
$DIMTXT
 40
3.0
  9
$DIMCEN
 40
0.0
  9
$DIMTSZ
 40
0.0
  9
$DIMTOL
 70
     0
  9
$DIMLIM
 70
     0
  9
$DIMTIH
 70
     0
  9
$DIMTOH
 70
     0
  9
$DIMSE1
 70
     0
  9
$DIMSE2
 70
     0
  9
$DIMTAD
 70
     1
  9
$DIMZIN
 70
     0
  9
$DIMBLK
  1

  9
$DIMASO
 70
     0
  9
$DIMSHO
 70
     0
  9
$DIMPOST
  1

  9
$DIMAPOST
  1

  9
$DIMALT
 70
     0
  9
$DIMALTD
 70
     2
  9
$DIMALTF
 40
25.399999999999999
  9
$DIMLFAC
 40
1.0
  9
$DIMTOFL
 70
     0
  9
$DIMTVP
 40
1.6000000000000001
  9
$DIMTIX
 70
     1
  9
$DIMSOXD
 70
     0
  9
$DIMSAH
 70
     0
  9
$DIMBLK1
  1

  9
$DIMBLK2
  1

  9
$DIMSTYLE
  2
STANDARD
  9
$DIMCLRD
 70
     0
  9
$DIMCLRE
 70
     0
  9
$DIMCLRT
 70
     0
  9
$DIMTFAC
 40
1.0
  9
$DIMGAP
 40
0.09
  9
$LUNITS
 70
     2
  9
$LUPREC
 70
     4
  9
$SKETCHINC
 40
0.1
  9
$FILLETRAD
 40
1.0
  9
$AUNITS
 70
     0
  9
$AUPREC
 70
     0
  9
$MENU
  1
E:\r13\win\SUPPORT\ACAD
  9
$ELEVATION
 40
0.0
  9
$PELEVATION
 40
0.0
  9
$THICKNESS
 40
0.0
  9
$LIMCHECK
 70
     0
  9
$BLIPMODE
 70
     0
  9
$CHAMFERA
 40
0.0
  9
$CHAMFERB
 40
0.0
  9
$SKPOLY
 70
     0
  9
$TDCREATE
 40
2449840.6143865739
  9
$TDUPDATE
 40
2457161.641333553
  9
$TDINDWG
 40
0.2672429861
  9
$TDUSRTIMER
 40
0.2672429861
  9
$USRTIMER
 70
     1
  9
$ANGBASE
 50
0.0
  9
$ANGDIR
 70
     0
  9
$PDMODE
 70
     0
  9
$PDSIZE
 40
0.0
  9
$PLINEWID
 40
0.0
  9
$COORDS
 70
     1
  9
$SPLFRAME
 70
     0
  9
$SPLINETYPE
 70
     6
  9
$SPLINESEGS
 70
     8
  9
$ATTDIA
 70
     0
  9
$ATTREQ
 70
     1
  9
$HANDLING
 70
     1
  9
$HANDSEED
  5
1C3F
  9
$SURFTAB1
 70
     6
  9
$SURFTAB2
 70
     6
  9
$SURFTYPE
 70
     6
  9
$SURFU
 70
     6
  9
$SURFV
 70
     6
  9
$UCSNAME
  2

  9
$UCSORG
 10
0.0
 20
0.0
 30
0.0
  9
$UCSXDIR
 10
1.0
 20
0.0
 30
0.0
  9
$UCSYDIR
 10
0.0
 20
1.0
 30
0.0
  9
$PUCSNAME
  2

  9
$PUCSORG
 10
0.0
 20
0.0
 30
0.0
  9
$PUCSXDIR
 10
1.0
 20
0.0
 30
0.0
  9
$PUCSYDIR
 10
0.0
 20
1.0
 30
0.0
  9
$USERI1
 70
     0
  9
$USERI2
 70
     1
  9
$USERI3
 70
     1
  9
$USERI4
 70
     0
  9
$USERI5
 70
     0
  9
$USERR1
 40
0.0
  9
$USERR2
 40
0.0
  9
$USERR3
 40
0.0
  9
$USERR4
 40
0.0
  9
$USERR5
 40
0.0
  9
$WORLDVIEW
 70
     1
  9
$SHADEDGE
 70
     3
  9
$SHADEDIF
 70
    70
  9
$TILEMODE
 70
     1
  9
$MAXACTVP
 70
    16
  9
$PLIMCHECK
 70
     0
  9
$PEXTMIN
 10
1.0000000000000000E+020
 20
1.0000000000000000E+020
 30
1.0000000000000000E+020
  9
$PEXTMAX
 10
-1.0000000000000000E+020
 20
-1.0000000000000000E+020
 30
-1.0000000000000000E+020
  9
$PLIMMIN
 10
0.0
 20
0.0
  9
$PLIMMAX
 10
12.0
 20
9.0
  9
$UNITMODE
 70
     0
  9
$VISRETAIN
 70
     0
  9
$PLINEGEN
 70
     0
  9
$PSLTSCALE
 70
     0
  0
ENDSEC
  0
SECTION
  2
TABLES
  0
TABLE
  2
VPORT
 70
     1
  0
VPORT
  2
*ACTIVE
 70
     0
 10
0.0
 20
0.0
 11
1.0
 21
1.0
 12
85.275359477000507
 22
48.758943181844977
 13
0.0
 23
0.0
 14
5.0
 24
5.0
 15
5.0
 25
5.0
 16
0.0
 26
0.0
 36
1.0
 17
0.0
 27
0.0
 37
0.0
 40
125.3893906558918
 41
1.368715083798882
 42
50.0
 43
0.0
 44
0.0
 50
0.0
 51
0.0
 71
     0
 72
   100
 73
     1
 74
     0
 75
     0
 76
     0
 77
     0
 78
     0
  0
ENDTAB
  0
TABLE
  2
LTYPE
 70
     4
  0
LTYPE
  2
CONTINUOUS
 70
     0
  3
Solid Line
 72
    65
 73
     0
 40
0.0
  0
LTYPE
  2
CENTER
 70
     0
  3
____ _ ____ _ ____ _ ____ _ ____ _ ____ _ ____
 72
    65
 73
     4
 40
2.0
 49
1.25
 49
-0.25
 49
0.25
 49
-0.25
  0
LTYPE
  2
HIDDEN
 70
     0
  3
_ _ _ _ _ _ _ _ _ _ _ _ _ _ _ _ _ _ _ _ _ _ _
 72
    65
 73
     2
 40
0.375
 49
0.25
 49
-0.125
  0
LTYPE
  2
PHANTOM2
 70
     0
  3
___ _ _ ___ _ _ ___ _ _ ___ _ _
 72
    65
 73
     6
 40
1.25
 49
0.625
 49
-0.125
 49
0.125
 49
-0.125
 49
0.125
 49
-0.125
  0
ENDTAB
  0
TABLE
  2
LAYER
 70
     4
  0
LAYER
  2
0
 70
     0
 62
     7
  6
CONTINUOUS
  0
LAYER
  2
1
 70
     0
 62
     1
  6
CENTER
  0
LAYER
  2
3
 70
     0
 62
     3
  6
CONTINUOUS
  0
LAYER
  2
2
 70
     0
 62
     2
  6
HIDDEN
  0
ENDTAB
  0
TABLE
  2
STYLE
 70
     2
  0
STYLE
  2
STANDARD
 70
     0
 40
0.0
 41
1.0
 50
0.0
 71
     0
 42
4.0
  3
TXT
  4
BIGFONT
  0
STYLE
  2
STANDARD1
 70
     0
 40
0.0
 41
1.0
 50
0.0
 71
     0
 42
3.0
  3
txt
  4

  0
ENDTAB
  0
TABLE
  2
VIEW
 70
     1
  0
VIEW
  2
ALL
 70
     0
 40
179.66152299999999
 10
141.903918
 20
89.830760999999995
 41
0.0
 11
0.0
 21
0.0
 31
1.0
 12
0.0
 22
0.0
 32
0.0
 42
0.0
 43
0.0
 44
0.0
 50
0.0
 71
     0
  0
ENDTAB
  0
TABLE
  2
UCS
 70
     0
  0
ENDTAB
  0
TABLE
  2
APPID
 70
     5
  0
APPID
  2
ACAD
 70
     0
  0
APPID
  2
DCO15
 70
     0
  0
APPID
  2
ACAD_MLEADERVER
 70
     0
  0
APPID
  2
ACAD_EXEMPT_FROM_CAD_STANDARDS
 70
     0
  0
APPID
  2
ACAD_NAV_VCDISPLAY
 70
     0
  0
ENDTAB
  0
TABLE
  2
DIMSTYLE
 70
     2
  0
DIMSTYLE
  2
STANDARD
 70
     0
  3

  4

  5

  6

  7

 40
1.0
 41
0.18
 42
0.0625
 43
0.38
 44
0.18
 45
0.0
 46
0.0
 47
0.0
 48
0.0
140
0.18
141
0.09
142
0.0
143
25.399999999999999
144
1.0
145
0.0
146
1.0
147
0.09
 71
     0
 72
     0
 73
     1
 74
     1
 75
     0
 76
     0
 77
     0
 78
     0
170
     0
171
     2
172
     0
173
     0
174
     0
175
     0
176
     0
177
     0
178
     0
  0
DIMSTYLE
  2
ISO-25
 70
     0
  3

  4

  5

  6

  7

 40
1.0
 41
2.5
 42
0.625
 43
3.75
 44
1.25
 45
0.0
 46
0.0
 47
0.0
 48
0.0
140
2.5
141
2.5
142
0.0
143
0.0393700787
144
1.0
145
0.0
146
1.0
147
0.625
 71
     0
 72
     0
 73
     0
 74
     0
 75
     0
 76
     0
 77
     1
 78
     8
170
     0
171
     3
172
     1
173
     0
174
     0
175
     0
176
     0
177
     0
178
     0
  0
ENDTAB
  0
ENDSEC
  0
SECTION
  2
BLOCKS
  0
BLOCK
  8
0
  2
$MODEL_SPACE
 70
     0
 10
0.0
 20
0.0
 30
0.0
  3
$MODEL_SPACE
  1

  0
ENDBLK
  5
1BD
  8
0
  0
BLOCK
 67
     1
  8
0
  2
$PAPER_SPACE
 70
     0
 10
0.0
 20
0.0
 30
0.0
  3
$PAPER_SPACE
  1

  0
ENDBLK
  5
1BB
 67
     1
  8
0
  0
ENDSEC
  0
SECTION
  2
ENTITIES
  0
TEXT
  5
1641
  8
0
 62
     3
 10
0.0
 20
0.0
 30
0.0
 40
5.0
  1
TWDXN10-5L
  7
STANDARD1
  0
ARC
  5
17D2
  8
0
 10
111.5096620623071
 20
17.985506906502149
 30
0.0
 40
2.0000000000000071
 50
276.90185434710088
 51
330.47828070479977
  0
ARC
  5
17D3
  8
0
 10
111.509662062347
 20
42.014493093511277
 30
0.0
 40
2.0000000000000071
 50
29.521719295200221
 51
83.098145652898964
  0
LINE
  5
17D4
  8
0
 10
111.384280831307
 20
44.000000000002167
 30
0.0
 11
104.5500000000071
 21
38.85000000000214
 31
0.0
  0
LINE
  5
17D5
  8
0
 10
104.5500000000071
 20
21.150000000002152
 30
0.0
 11
111.384280831307
 21
16.000000000002139
 31
0.0
  0
LINE
  5
17D6
  8
0
 10
111.750000000047
 20
44.000000000011298
 30
0.0
 11
111.384280831347
 21
44.000000000011298
 31
0.0
  0
LINE
  5
17D7
  8
0
 10
111.384280831307
 20
16.000000000002139
 30
0.0
 11
111.75000000000711
 21
16.000000000002139
 31
0.0
  0
LINE
  5
17D8
  8
0
 10
91.750000000007034
 20
38.850000000002169
 30
0.0
 11
91.250000000007034
 21
38.350000000002169
 31
0.0
  0
LINE
  5
17D9
  8
0
 10
91.250000000007034
 20
21.65000000000218
 30
0.0
 11
91.750000000007034
 21
21.15000000000218
 31
0.0
  0
LINE
  5
17DA
  8
0
 10
104.5500000000071
 20
38.85000000000214
 30
0.0
 11
91.750000000007034
 21
38.850000000002169
 31
0.0
  0
LINE
  5
17DB
  8
0
 10
91.750000000007034
 20
21.15000000000218
 30
0.0
 11
104.5500000000071
 21
21.150000000002152
 31
0.0
  0
LINE
  5
17DC
  8
0
 10
78.250000000007034
 20
35.000000000002181
 30
0.0
 11
73.250000000007034
 21
35.000000000002181
 31
0.0
  0
LINE
  5
17DD
  8
0
 10
73.250000000007034
 20
25.000000000002181
 30
0.0
 11
78.250000000007034
 21
25.000000000002181
 31
0.0
  0
LINE
  5
17DE
  8
0
 10
71.750000000007034
 20
32.500000000002181
 30
0.0
 11
68.050000000007103
 21
32.500000000002181
 31
0.0
  0
LINE
  5
17DF
  8
0
 10
68.050000000007103
 20
27.500000000002181
 30
0.0
 11
71.750000000007034
 21
27.500000000002181
 31
0.0
  0
LINE
  5
17E0
  8
0
 10
68.050000000007103
 20
32.500000000002181
 30
0.0
 11
67.161877467607084
 21
31.987242216902182
 31
0.0
  0
LINE
  5
17E1
  8
0
 10
67.161877467607084
 20
28.012757783102181
 30
0.0
 11
68.050000000007103
 21
27.500000000002181
 31
0.0
  0
ARC
  5
17E2
  8
0
 10
71.750000000007034
 20
30.000000000002181
 30
0.0
 40
5.0000000000141611
 50
156.5812350453007
 51
203.41876495479951
  0
LINE
  5
17E3
  8
0
 10
113.25000000000711
 20
17.000000000002139
 30
0.0
 11
113.25000000000711
 21
43.000000000002139
 31
0.0
  0
LINE
  5
17E4
  8
0
 10
111.75000000000711
 20
16.000000000002139
 30
0.0
 11
111.75000000000711
 21
44.000000000002167
 31
0.0
  0
LINE
  5
17E5
  8
0
 10
104.5500000000071
 20
21.150000000002152
 30
0.0
 11
104.5500000000071
 21
38.85000000000214
 31
0.0
  0
LINE
  5
17E6
  8
0
 10
111.384280831307
 20
16.000000000002139
 30
0.0
 11
111.384280831307
 21
44.000000000002167
 31
0.0
  0
ARC
  5
17E8
  8
0
 10
91.626708606107044
 20
25.946710785302191
 30
0.0
 40
13.378154890242159
 50
180.84250063210001
 51
199.41365736830059
  0
ARC
  5
17E9
  8
0
 10
91.608132208007063
 20
25.556607568602189
 30
0.0
 40
13.359532054697
 50
160.5732840111998
 51
179.17055798839991
  0
LINE
  5
17EA
  8
0
 10
79.00918937850706
 20
30.000000000002181
 30
0.0
 11
90.490810616607064
 21
30.000000014502191
 31
0.0
  0
ARC
  5
17EB
  8
0
 10
77.873291851407075
 20
25.553289244502182
 30
0.0
 40
13.37815443225767
 50
0.8425005334007423
 51
19.41365811489986
  0
ARC
  5
17EC
  8
0
 10
77.891867871107067
 20
25.943392421602191
 30
0.0
 40
13.35953197537517
 50
340.5732842772
 51
359.17055802570007
  0
ARC
  5
17ED
  8
0
 10
77.891867871107067
 20
34.443392421602177
 30
0.0
 40
13.35953197537396
 50
340.5732842772
 51
359.17055802570007
  0
ARC
  5
17EF
  8
0
 10
91.626708606107044
 20
34.446710785302187
 30
0.0
 40
13.378154890243311
 50
180.84250063210001
 51
199.41365736830059
  0
ARC
  5
17F0
  8
0
 10
91.608132208007063
 20
34.056607568602189
 30
0.0
 40
13.359532054697331
 50
160.5732840111998
 51
179.17055798839991
  0
ARC
  5
17F2
  8
0
 10
77.873292275207049
 20
34.053289280902177
 30
0.0
 40
13.37815400796574
 50
0.8425004040003635
 51
19.41365841939847
  0
LINE
  5
17F4
  8
0
 10
91.750000000007034
 20
38.850000000002169
 30
0.0
 11
91.750000000007034
 21
21.15000000000218
 31
0.0
  0
LINE
  5
17F5
  8
0
 10
73.250000000007034
 20
23.000000000002171
 30
0.0
 11
71.750000000007034
 21
23.000000000002171
 31
0.0
  0
LINE
  5
17F6
  8
0
 10
73.250000000007034
 20
30.000000000002181
 30
0.0
 11
71.750000000007034
 21
30.000000000002181
 31
0.0
  0
LINE
  5
17F7
  8
0
 10
73.250000000007034
 20
37.000000000002181
 30
0.0
 11
73.250000000007034
 21
23.000000000002171
 31
0.0
  0
LINE
  5
17F8
  8
0
 10
71.750000000007034
 20
37.000000000002181
 30
0.0
 11
71.750000000007034
 21
23.000000000002171
 31
0.0
  0
LINE
  5
17F9
  8
0
 10
73.250000000007034
 20
37.000000000002181
 30
0.0
 11
71.750000000007034
 21
37.000000000002181
 31
0.0
  0
LINE
  5
17FC
  8
0
 10
91.250000000007034
 20
38.500000000002181
 30
0.0
 11
78.250000000007034
 21
38.500000000002181
 31
0.0
  0
LINE
  5
17FF
  8
0
 10
91.250000000007034
 20
21.500000000002171
 30
0.0
 11
91.250000000007034
 21
38.500000000002181
 31
0.0
  0
LINE
  5
1801
  8
0
 10
78.250000000007034
 20
38.500000000002181
 30
0.0
 11
78.250000000007034
 21
21.500000000002171
 31
0.0
  0
LINE
  5
1804
  8
0
 10
68.050000000007103
 20
32.500000000002181
 30
0.0
 11
68.050000000007103
 21
27.500000000002181
 31
0.0
  0
LINE
  5
1805
  8
0
 10
67.161877467607084
 20
31.987242216902182
 30
0.0
 11
67.161877467607084
 21
28.012757783102181
 31
0.0
  0
CIRCLE
  5
1807
  8
0
 10
150.0003578875
 20
80.001598412999982
 30
0.0
 40
11.090178734119849
  0
CIRCLE
  5
1808
  8
0
 10
150.0
 20
79.999999999999972
 30
0.0
 40
13.00000000000003
  0
CIRCLE
  5
1809
  8
0
 10
150.0
 20
79.999999999999972
 30
0.0
 40
14.0
  0
CIRCLE
  5
180A
  8
0
 10
30.0
 20
80.0
 30
0.0
 40
1.9872422168987209
  0
CIRCLE
  5
180B
  8
0
 10
30.0
 20
80.0
 30
0.0
 40
2.5000000000000062
  0
LINE
  5
180C
  8
0
 10
37.0
 20
75.958548115600024
 30
0.0
 11
30.0
 21
71.917096231299979
 31
0.0
  0
LINE
  5
180D
  8
0
 10
30.0
 20
71.917096231299979
 30
0.0
 11
22.999999999999989
 21
75.958548115600024
 31
0.0
  0
LINE
  5
180E
  8
0
 10
22.999999999999989
 20
75.958548115600024
 30
0.0
 11
22.999999999999989
 21
84.041451884300045
 31
0.0
  0
LINE
  5
180F
  8
0
 10
22.999999999999989
 20
84.041451884300045
 30
0.0
 11
30.0
 21
88.082903768600033
 31
0.0
  0
LINE
  5
1810
  8
0
 10
30.0
 20
88.082903768600033
 30
0.0
 11
37.0
 21
84.041451884300045
 31
0.0
  0
LINE
  5
1811
  8
0
 10
37.0
 20
84.041451884300045
 30
0.0
 11
37.0
 21
75.958548115600024
 31
0.0
  0
ARC
  5
1824
  8
0
 10
30.0
 20
80.0
 30
0.0
 40
8.8500000000000085
 50
43.832539823558392
 51
76.167460176561306
  0
ARC
  5
1825
  8
0
 10
30.0
 20
80.0
 30
0.0
 40
8.8500000000000245
 50
343.83253982385492
 51
16.167460176145049
  0
ARC
  5
1826
  8
0
 10
30.0
 20
80.0
 30
0.0
 40
8.8500000000000085
 50
283.83253982495052
 51
316.16746017594141
  0
CIRCLE
  5
182A
  8
0
 10
30.0
 20
80.0
 30
0.0
 40
14.0
  0
ARC
  5
182B
  8
0
 10
111.5096620623071
 20
67.985506906502181
 30
0.0
 40
2.0000000000000222
 50
276.90185434710088
 51
330.47828070480023
  0
ARC
  5
182C
  8
0
 10
111.5096620623071
 20
92.014493093502153
 30
0.0
 40
2.0000000000000071
 50
29.521719295199759
 51
83.098145652899007
  0
LINE
  5
182D
  8
0
 10
111.38428083130709
 20
94.000000000002174
 30
0.0
 11
104.5500000000071
 21
88.85000000000214
 31
0.0
  0
LINE
  5
182E
  8
0
 10
104.5500000000071
 20
71.150000000002152
 30
0.0
 11
111.38428083130709
 21
66.000000000002103
 31
0.0
  0
LINE
  5
182F
  8
0
 10
111.75000000000711
 20
94.000000000002174
 30
0.0
 11
111.38428083130709
 21
94.000000000002174
 31
0.0
  0
LINE
  5
1830
  8
0
 10
111.38428083130709
 20
66.000000000002103
 30
0.0
 11
111.75000000000701
 21
66.000000000002103
 31
0.0
  0
LINE
  5
1831
  8
0
 10
91.750000000007077
 20
88.85000000000214
 30
0.0
 11
91.250000000007077
 21
88.35000000000214
 31
0.0
  0
LINE
  5
1832
  8
0
 10
91.250000000007077
 20
71.650000000002152
 30
0.0
 11
91.750000000007077
 21
71.150000000002152
 31
0.0
  0
LINE
  5
1833
  8
0
 10
104.5500000000071
 20
88.85000000000214
 30
0.0
 11
91.750000000007077
 21
88.85000000000214
 31
0.0
  0
LINE
  5
1834
  8
0
 10
91.750000000007077
 20
71.150000000002152
 30
0.0
 11
104.5500000000071
 21
71.150000000002152
 31
0.0
  0
LINE
  5
1835
  8
0
 10
78.250000000007077
 20
85.000000000002103
 30
0.0
 11
73.250000000007077
 21
85.000000000002103
 31
0.0
  0
LINE
  5
1836
  8
0
 10
73.250000000007077
 20
75.000000000002117
 30
0.0
 11
78.250000000007077
 21
75.000000000002117
 31
0.0
  0
LINE
  5
1837
  8
0
 10
90.490810625307077
 20
70.185045430402127
 30
0.0
 11
91.250000000007077
 21
71.500000000002103
 31
0.0
  0
LINE
  5
1838
  8
0
 10
78.250000000007077
 20
71.500000000002103
 30
0.0
 11
79.009189378507102
 21
70.185045423802151
 31
0.0
  0
LINE
  5
1839
  8
0
 10
91.250000000007077
 20
88.500000000002117
 30
0.0
 11
90.490810616607092
 21
89.814954584502132
 31
0.0
  0
LINE
  5
183A
  8
0
 10
79.009189378507102
 20
89.814954576202183
 30
0.0
 11
78.250000000007077
 21
88.500000000002117
 31
0.0
  0
LINE
  5
183B
  8
0
 10
68.050000000007088
 20
82.500000000002103
 30
0.0
 11
67.161877467607127
 21
81.987242216902203
 31
0.0
  0
LINE
  5
183C
  8
0
 10
67.161877467607127
 20
78.012757783102145
 30
0.0
 11
68.050000000007088
 21
77.500000000002117
 31
0.0
  0
LINE
  5
183D
  8
0
 10
71.750000000007077
 20
82.500000000002103
 30
0.0
 11
68.050000000007088
 21
82.500000000002103
 31
0.0
  0
LINE
  5
183E
  8
0
 10
68.050000000007088
 20
77.500000000002117
 30
0.0
 11
71.750000000007077
 21
77.500000000002117
 31
0.0
  0
ARC
  5
183F
  8
0
 10
71.750000000007077
 20
80.000000000002103
 30
0.0
 40
5.0000000000141496
 50
156.5812350453003
 51
203.418764954799
  0
LINE
  5
1840
  8
0
 10
113.25000000000711
 20
67.000000000002117
 30
0.0
 11
113.25000000000711
 21
93.000000000002174
 31
0.0
  0
LINE
  5
1841
  8
0
 10
111.75000000000701
 20
66.000000000002103
 30
0.0
 11
111.75000000000711
 21
94.000000000002174
 31
0.0
  0
LINE
  5
1842
  8
0
 10
104.5500000000071
 20
71.150000000002152
 30
0.0
 11
104.5500000000071
 21
88.85000000000214
 31
0.0
  0
LINE
  5
1843
  8
0
 10
111.38428083130709
 20
66.000000000002103
 30
0.0
 11
111.38428083130709
 21
94.000000000002174
 31
0.0
  0
LINE
  5
1844
  8
0
 10
91.750000000007077
 20
88.85000000000214
 30
0.0
 11
91.750000000007077
 21
83.649464858002119
 31
0.0
  0
LINE
  5
1845
  8
0
 10
90.490810625307077
 20
70.185045430402127
 30
0.0
 11
79.009189378507102
 21
70.185045423802151
 31
0.0
  0
ARC
  5
1846
  8
0
 10
83.18165161170711
 20
72.820326059102129
 30
0.0
 40
4.9349919062347709
 50
182.10819744809919
 51
212.2760500199995
  0
ARC
  5
1847
  8
0
 10
83.170780155607105
 20
72.460605716802164
 30
0.0
 40
4.9240049619504713
 50
147.68949064269901
 51
177.92626188930029
  0
LINE
  5
1848
  8
0
 10
90.490810616607092
 20
75.092522720202126
 30
0.0
 11
79.009189378507102
 21
75.092522711902191
 31
0.0
  0
ARC
  5
1849
  8
0
 10
86.318348441107133
 20
72.457242087302134
 30
0.0
 40
4.9349918529254211
 50
2.1081973459999599
 51
32.276050893298027
  0
ARC
  5
184A
  8
0
 10
86.329219859007111
 20
72.816962415702122
 30
0.0
 40
4.9240049471637164
 50
327.68949078319969
 51
357.9262619196989
  0
ARC
  5
184C
  8
0
 10
73.692888942307121
 20
80.203632390802184
 30
0.0
 40
17.558291911310999
 50
343.07654951779949
 51
347.32350291971881
  0
ARC
  5
184D
  8
0
 10
95.831960197307097
 20
80.207476561402146
 30
0.0
 40
17.583184322107641
 50
180.67608955089989
 51
196.91186422309869
  0
ARC
  5
184E
  8
0
 10
95.807111154807131
 20
79.796367598802135
 30
0.0
 40
17.558292008569961
 50
163.07654928340139
 51
179.3354969427009
  0
LINE
  5
184F
  8
0
 10
79.009189378507102
 20
84.907477288102157
 30
0.0
 11
90.490810616607092
 21
84.907477304802185
 31
0.0
  0
ARC
  5
1850
  8
0
 10
73.66804126640713
 20
79.792523582202151
 30
0.0
 40
17.583182856723571
 50
12.671092427333759
 51
16.91186527680081
  0
ARC
  5
1852
  8
0
 10
83.18165161170711
 20
87.542757923402135
 30
0.0
 40
4.9349919062346412
 50
182.10819744809919
 51
212.2760500199995
  0
ARC
  5
1854
  8
0
 10
86.329219886807124
 20
87.539394274102122
 30
0.0
 40
4.9240049191467126
 50
327.68949104940162
 51
357.92626197730038
  0
ARC
  5
1856
  8
0
 10
83.170780155607105
 20
87.183037581102155
 30
0.0
 40
4.9240049619500956
 50
147.68949064269901
 51
177.92626188930029
  0
LINE
  5
1857
  8
0
 10
79.009189378507102
 20
89.814954576202183
 30
0.0
 11
90.490810616607092
 21
89.814954584502132
 31
0.0
  0
ARC
  5
1858
  8
0
 10
86.318349059807147
 20
87.179674073302124
 30
0.0
 40
4.934991230182324
 50
2.1081961989993281
 51
32.2760528972006
  0
LINE
  5
1859
  8
0
 10
73.250000000007077
 20
71.917096231302153
 30
0.0
 11
71.750000000007077
 21
71.917096231302153
 31
0.0
  0
LINE
  5
185A
  8
0
 10
73.250000000007077
 20
75.958548115702186
 30
0.0
 11
71.750000000007077
 21
75.958548115702186
 31
0.0
  0
LINE
  5
185B
  8
0
 10
71.750000000007077
 20
88.082903768602151
 30
0.0
 11
71.750000000007077
 21
71.917096231302153
 31
0.0
  0
LINE
  5
185C
  8
0
 10
73.250000000007077
 20
88.082903768602151
 30
0.0
 11
73.250000000007077
 21
71.917096231302153
 31
0.0
  0
LINE
  5
185D
  8
0
 10
73.250000000007077
 20
84.041451884302163
 30
0.0
 11
71.750000000007077
 21
84.041451884302163
 31
0.0
  0
LINE
  5
1860
  8
0
 10
73.250000000007077
 20
88.082903768602151
 30
0.0
 11
71.750000000007077
 21
88.082903768602151
 31
0.0
  0
LINE
  5
1863
  8
0
 10
91.250000000007077
 20
71.500000000002103
 30
0.0
 11
91.250000000007077
 21
76.350535141902157
 31
0.0
  0
LINE
  5
1864
  8
0
 10
78.250000000007077
 20
88.500000000002117
 30
0.0
 11
78.250000000007077
 21
71.500000000002103
 31
0.0
  0
LINE
  5
1867
  8
0
 10
67.161877467607127
 20
81.987242216902203
 30
0.0
 11
67.161877467607127
 21
78.012757783102145
 31
0.0
  0
LINE
  5
1868
  8
0
 10
68.050000000007088
 20
82.500000000002103
 30
0.0
 11
68.050000000007088
 21
77.500000000002117
 31
0.0
  0
ARC
  5
1869
  8
2
 10
132.25000000000699
 20
80.000000000002174
 30
0.0
 40
21.999999999999929
 50
149.73489947770179
 51
210.25887471910079
  0
ARC
  5
186A
  8
2
 10
132.25000000000711
 20
30.000000000002149
 30
0.0
 40
21.999999999999929
 50
149.73489947770179
 51
210.25887471910079
  0
LINE
  5
187F
  8
1
 10
11.0
 20
80.0
 30
0.0
 11
49.0
 21
80.0
 31
0.0
  0
LINE
  5
1880
  8
1
 10
30.0
 20
99.0
 30
0.0
 11
30.0
 21
61.0
 31
0.0
  0
LINE
  5
1881
  8
1
 10
61.749999999992923
 20
79.999999999993435
 30
0.0
 11
118.25000000000711
 21
80.000000000002132
 31
0.0
  0
LINE
  5
1882
  8
1
 10
131.0
 20
79.999999999999972
 30
0.0
 11
169.0
 21
79.999999999999972
 31
0.0
  0
LINE
  5
1883
  8
1
 10
150.0
 20
98.999999999999986
 30
0.0
 11
150.0
 21
60.999999999999972
 31
0.0
  0
LINE
  5
1884
  8
1
 10
61.749999999992909
 20
29.999999999993442
 30
0.0
 11
118.25000000000711
 21
30.000000000002132
 31
0.0
  0
LINE
  5
188A
  8
0
 10
30.0
 20
89.814954576200023
 30
0.0
 11
21.499999999999989
 21
84.907477288100054
 31
0.0
  0
LINE
  5
188B
  8
0
 10
21.499999999999989
 20
75.092522711900017
 30
0.0
 11
29.999999999999989
 21
70.185045423699989
 31
0.0
  0
LINE
  5
188D
  8
0
 10
21.499999999999989
 20
75.092522711900017
 30
0.0
 11
21.499999999999989
 21
84.907477288100054
 31
0.0
  0
LINE
  5
188E
  8
0
 10
30.0
 20
89.814954576200023
 30
0.0
 11
38.500000000000007
 21
84.907477288100054
 31
0.0
  0
LINE
  5
188F
  8
0
 10
38.500000000000007
 20
75.092522711900017
 30
0.0
 11
30.000000000000021
 21
70.185045423699989
 31
0.0
  0
LINE
  5
1890
  8
0
 10
38.500000000000007
 20
75.092522711900017
 30
0.0
 11
38.500000000000007
 21
84.907477288100054
 31
0.0
  0
ARC
  5
1891
  8
0
 10
30.0
 20
80.0
 30
0.0
 40
8.8500000000000085
 50
103.83253982343859
 51
136.16746017644161
  0
ARC
  5
1892
  8
0
 10
30.0
 20
80.0
 30
0.0
 40
8.8500000000000245
 50
163.832539823855
 51
196.1674601761452
  0
ARC
  5
1893
  8
0
 10
30.0
 20
80.0
 30
0.0
 40
8.8500000000000085
 50
223.8325398240587
 51
256.16746017504983
  0
CIRCLE
  5
189E
  8
0
 10
30.0
 20
80.0
 30
0.0
 40
8.4999999999846754
  0
LINE
  5
18FE
  8
0
 10
74.250000000007134
 20
85.000000000002075
 30
0.0
 11
74.25000000000702
 21
75.000000000002075
 31
0.0
  0
LINE
  5
18FF
  8
3
 10
74.25000000000712
 20
84.188000000002148
 30
0.0
 11
78.250000000007077
 21
84.188000000002219
 31
0.0
  0
LINE
  5
1900
  8
3
 10
74.25000000000702
 20
75.812000000001973
 30
0.0
 11
78.250000000007077
 21
75.812000000002044
 31
0.0
  0
LINE
  5
1907
  8
3
 10
74.25000000000712
 20
84.188000000002148
 30
0.0
 11
73.250000000007077
 21
85.000000000002103
 31
0.0
  0
LINE
  5
1908
  8
3
 10
74.250000000007034
 20
75.812000000001973
 30
0.0
 11
73.250000000007077
 21
75.000000000002117
 31
0.0
  0
LINE
  5
1909
  8
0
 10
74.250000000007091
 20
35.000000000045127
 30
0.0
 11
74.250000000006963
 21
25.00000000004513
 31
0.0
  0
LINE
  5
190A
  8
3
 10
74.250000000007077
 20
34.188000000045221
 30
0.0
 11
78.250000000007034
 21
34.188000000045292
 31
0.0
  0
LINE
  5
190B
  8
3
 10
74.250000000006963
 20
25.812000000045028
 30
0.0
 11
78.250000000007034
 21
25.812000000045099
 31
0.0
  0
LINE
  5
190C
  8
3
 10
74.250000000007077
 20
34.188000000045221
 30
0.0
 11
73.250000000007034
 21
35.000000000045169
 31
0.0
  0
LINE
  5
190D
  8
3
 10
74.250000000006992
 20
25.812000000045028
 30
0.0
 11
73.250000000007034
 21
25.000000000045169
 31
0.0
  0
LINE
  5
1A27
  8
0
 10
91.250000000007034
 20
21.499999999989779
 30
0.0
 11
78.250000000007034
 21
21.499999999989779
 31
0.0
  0
LINE
  5
1B60
  8
0
 10
80.750000000007105
 20
76.350535141902157
 30
0.0
 11
91.750000000007105
 21
76.350535141902157
 31
0.0
  0
LINE
  5
1B61
  8
0
 10
80.750000000007105
 20
83.649464858002119
 30
0.0
 11
80.750000000007105
 21
76.350535141902157
 31
0.0
  0
LINE
  5
1B62
  8
0
 10
91.750000000007105
 20
83.649464858002119
 30
0.0
 11
80.750000000007105
 21
83.649464858002119
 31
0.0
  0
LINE
  5
1B63
  8
0
 10
91.750000000007077
 20
76.350535141902157
 30
0.0
 11
91.750000000007077
 21
71.150000000002152
 31
0.0
  0
LINE
  5
1B64
  8
0
 10
91.250000000007077
 20
83.649464858002119
 30
0.0
 11
91.250000000007077
 21
88.500000000002117
 31
0.0
  0
ENDSEC
  0
EOF
