  0
SECTION
  2
HEADER
  9
$ACADVER
  1
AC1009
  9
$INSBASE
 10
0.0
 20
0.0
 30
0.0
  9
$EXTMIN
 10
0.0
 20
-2.960436562073669
 30
-0.0000000000000089
  9
$EXTMAX
 10
504.3074595511135954
 20
333.9118462027180954
 30
0.0
  9
$LIMMIN
 10
0.0
 20
0.0
  9
$LIMMAX
 10
375.0
 20
270.0
  9
$ORTHOMODE
 70
     1
  9
$REGENMODE
 70
     1
  9
$FILLMODE
 70
     1
  9
$QTEXTMODE
 70
     0
  9
$MIRRTEXT
 70
     0
  9
$DRAGMODE
 70
     2
  9
$LTSCALE
 40
10.0
  9
$OSMODE
 70
    37
  9
$ATTMODE
 70
     1
  9
$TEXTSIZE
 40
0.2
  9
$TRACEWID
 40
0.05
  9
$TEXTSTYLE
  7
STANDARD
  9
$CLAYER
  8
0
  9
$CELTYPE
  6
BYLAYER
  9
$CECOLOR
 62
   256
  9
$DIMSCALE
 40
1.0
  9
$DIMASZ
 40
3.0
  9
$DIMEXO
 40
2.0
  9
$DIMDLI
 40
0.38
  9
$DIMRND
 40
0.0
  9
$DIMDLE
 40
0.0
  9
$DIMEXE
 40
2.0
  9
$DIMTP
 40
0.0
  9
$DIMTM
 40
0.0
  9
$DIMTXT
 40
3.2000000000000002
  9
$DIMCEN
 40
0.0
  9
$DIMTSZ
 40
0.0
  9
$DIMTOL
 70
     0
  9
$DIMLIM
 70
     0
  9
$DIMTIH
 70
     0
  9
$DIMTOH
 70
     0
  9
$DIMSE1
 70
     0
  9
$DIMSE2
 70
     0
  9
$DIMTAD
 70
     1
  9
$DIMZIN
 70
     8
  9
$DIMBLK
  1

  9
$DIMASO
 70
     1
  9
$DIMSHO
 70
     0
  9
$DIMPOST
  1

  9
$DIMAPOST
  1

  9
$DIMALT
 70
     0
  9
$DIMALTD
 70
     2
  9
$DIMALTF
 40
25.3999999999999986
  9
$DIMLFAC
 40
1.0
  9
$DIMTOFL
 70
     1
  9
$DIMTVP
 40
1.6000000000000001
  9
$DIMTIX
 70
     1
  9
$DIMSOXD
 70
     0
  9
$DIMSAH
 70
     0
  9
$DIMBLK1
  1

  9
$DIMBLK2
  1

  9
$DIMSTYLE
  2
STANDARD
  9
$DIMCLRD
 70
     0
  9
$DIMCLRE
 70
     0
  9
$DIMCLRT
 70
     0
  9
$DIMTFAC
 40
1.0
  9
$DIMGAP
 40
1.5
  9
$LUNITS
 70
     2
  9
$LUPREC
 70
     1
  9
$SKETCHINC
 40
0.1
  9
$FILLETRAD
 40
0.0
  9
$AUNITS
 70
     0
  9
$AUPREC
 70
     0
  9
$MENU
  1
E:\r13\win\SUPPORT\ACAD
  9
$ELEVATION
 40
0.0
  9
$PELEVATION
 40
0.0
  9
$THICKNESS
 40
0.0
  9
$LIMCHECK
 70
     0
  9
$BLIPMODE
 70
     0
  9
$CHAMFERA
 40
0.0
  9
$CHAMFERB
 40
0.0
  9
$SKPOLY
 70
     0
  9
$TDCREATE
 40
2449839.7800462958402932
  9
$TDUPDATE
 40
2460263.6915162038058043
  9
$TDINDWG
 40
1.0216431133999999
  9
$TDUSRTIMER
 40
1.0216431133999999
  9
$USRTIMER
 70
     1
  9
$ANGBASE
 50
0.0
  9
$ANGDIR
 70
     0
  9
$PDMODE
 70
     0
  9
$PDSIZE
 40
0.0
  9
$PLINEWID
 40
0.0
  9
$COORDS
 70
     1
  9
$SPLFRAME
 70
     0
  9
$SPLINETYPE
 70
     6
  9
$SPLINESEGS
 70
     8
  9
$ATTDIA
 70
     1
  9
$ATTREQ
 70
     1
  9
$HANDLING
 70
     1
  9
$HANDSEED
  5
A1D4
  9
$SURFTAB1
 70
     6
  9
$SURFTAB2
 70
     6
  9
$SURFTYPE
 70
     6
  9
$SURFU
 70
     6
  9
$SURFV
 70
     6
  9
$UCSNAME
  2

  9
$UCSORG
 10
0.0
 20
0.0
 30
0.0
  9
$UCSXDIR
 10
1.0
 20
0.0
 30
0.0
  9
$UCSYDIR
 10
0.0
 20
1.0
 30
0.0
  9
$PUCSNAME
  2

  9
$PUCSORG
 10
0.0
 20
0.0
 30
0.0
  9
$PUCSXDIR
 10
1.0
 20
0.0
 30
0.0
  9
$PUCSYDIR
 10
0.0
 20
1.0
 30
0.0
  9
$USERI1
 70
     0
  9
$USERI2
 70
     1
  9
$USERI3
 70
     1
  9
$USERI4
 70
     0
  9
$USERI5
 70
     0
  9
$USERR1
 40
0.0
  9
$USERR2
 40
0.0
  9
$USERR3
 40
0.0
  9
$USERR4
 40
0.0
  9
$USERR5
 40
0.0
  9
$WORLDVIEW
 70
     1
  9
$SHADEDGE
 70
     3
  9
$SHADEDIF
 70
    70
  9
$TILEMODE
 70
     1
  9
$MAXACTVP
 70
    16
  9
$PLIMCHECK
 70
     0
  9
$PEXTMIN
 10
1.0000000000000000E+20
 20
1.0000000000000000E+20
 30
1.0000000000000000E+20
  9
$PEXTMAX
 10
-1.0000000000000000E+20
 20
-1.0000000000000000E+20
 30
-1.0000000000000000E+20
  9
$PLIMMIN
 10
0.0
 20
0.0
  9
$PLIMMAX
 10
12.0
 20
9.0
  9
$UNITMODE
 70
     0
  9
$VISRETAIN
 70
     0
  9
$PLINEGEN
 70
     0
  9
$PSLTSCALE
 70
     0
  0
ENDSEC
  0
SECTION
  2
TABLES
  0
TABLE
  2
VPORT
 70
     1
  0
VPORT
  2
*ACTIVE
 70
     0
 10
0.0
 20
0.0
 11
1.0
 21
1.0
 12
587.130541871921082
 22
250.0
 13
0.0
 23
0.0
 14
10.0
 24
10.0
 15
10.0
 25
10.0
 16
0.0
 26
0.0
 36
1.0
 17
0.0
 27
0.0
 37
0.0
 40
500.0
 41
2.3485221674876842
 42
50.0
 43
0.0
 44
0.0
 50
0.0
 51
0.0
 71
     0
 72
   500
 73
     1
 74
     0
 75
     0
 76
     0
 77
     0
 78
     2
  0
ENDTAB
  0
TABLE
  2
LTYPE
 70
     4
  0
LTYPE
  2
CONTINUOUS
 70
     0
  3
Solid Line
 72
    65
 73
     0
 40
0.0
  0
LTYPE
  2
CENTER
 70
     0
  3
____ _ ____ _ ____ _ ____ _ ____ _ ____ _ ____
 72
    65
 73
     4
 40
2.0
 49
1.25
 49
-0.25
 49
0.25
 49
-0.25
  0
LTYPE
  2
HIDDEN
 70
     0
  3
_ _ _ _ _ _ _ _ _ _ _ _ _ _ _ _ _ _ _ _ _ _ _
 72
    65
 73
     2
 40
0.375
 49
0.25
 49
-0.125
  0
LTYPE
  2
PHANTOM2
 70
     0
  3
___ _ _ ___ _ _ ___ _ _ ___ _ _
 72
    65
 73
     6
 40
1.25
 49
0.625
 49
-0.125
 49
0.125
 49
-0.125
 49
0.125
 49
-0.125
  0
ENDTAB
  0
TABLE
  2
LAYER
 70
     4
  0
LAYER
  2
0
 70
     0
 62
     7
  6
CONTINUOUS
  0
LAYER
  2
1
 70
     0
 62
     1
  6
CENTER
  0
LAYER
  2
2
 70
     0
 62
     2
  6
HIDDEN
  0
LAYER
  2
DEFPOINTS
 70
     0
 62
     7
  6
CONTINUOUS
  0
ENDTAB
  0
TABLE
  2
STYLE
 70
     2
  0
STYLE
  2
STANDARD
 70
     0
 40
0.0
 41
1.0
 50
0.0
 71
     0
 42
0.2
  3
TXT
  4
BIGFONT
  0
STYLE
  2
STANDARD1
 70
     0
 40
0.0
 41
1.0
 50
0.0
 71
     0
 42
3.0
  3
txt
  4

  0
ENDTAB
  0
TABLE
  2
VIEW
 70
     1
  0
VIEW
  2
ALL
 70
     0
 40
270.0
 10
220.9915966386554942
 20
135.0
 41
0.0
 11
0.0
 21
0.0
 31
1.0
 12
0.0
 22
0.0
 32
0.0
 42
0.0
 43
0.0
 44
0.0
 50
0.0
 71
     0
  0
ENDTAB
  0
TABLE
  2
UCS
 70
     0
  0
ENDTAB
  0
TABLE
  2
APPID
 70
     8
  0
APPID
  2
ACAD
 70
     0
  0
APPID
  2
ACAD_MLEADERVER
 70
     0
  0
APPID
  2
ACAD_EXEMPT_FROM_CAD_STANDARDS
 70
     0
  0
APPID
  2
ACAD_DSTYLE_DIMJAG
 70
     0
  0
APPID
  2
ACAD_DSTYLE_DIMTALN
 70
     0
  0
APPID
  2
ACAD_DSTYLE_DIMRADIAL_EXTENSION
 70
     0
  0
APPID
  2
ACAD_PSEXT
 70
     0
  0
APPID
  2
ACAD_NAV_VCDISPLAY
 70
     0
  0
ENDTAB
  0
TABLE
  2
DIMSTYLE
 70
     1
  0
DIMSTYLE
  2
STANDARD
 70
     0
  3

  4

  5

  6

  7

 40
1.0
 41
0.18
 42
0.0625
 43
0.38
 44
0.18
 45
0.0
 46
0.0
 47
0.0
 48
0.0
140
0.18
141
0.09
142
0.0
143
25.3999999999999986
144
1.0
145
0.0
146
1.0
147
0.09
 71
     0
 72
     0
 73
     1
 74
     1
 75
     0
 76
     0
 77
     0
 78
     0
170
     0
171
     2
172
     0
173
     0
174
     0
175
     0
176
     0
177
     0
178
     0
  0
ENDTAB
  0
ENDSEC
  0
SECTION
  2
BLOCKS
  0
BLOCK
  8
0
  2
$MODEL_SPACE
 70
     0
 10
0.0
 20
0.0
 30
0.0
  3
$MODEL_SPACE
  1

  0
ENDBLK
  5
11B
  8
0
  0
BLOCK
 67
     1
  8
0
  2
$PAPER_SPACE
 70
     0
 10
0.0
 20
0.0
 30
0.0
  3
$PAPER_SPACE
  1

  0
ENDBLK
  5
119
 67
     1
  8
0
  0
ENDSEC
  0
SECTION
  2
ENTITIES
  0
ARC
  5
3AC8
  8
0
 10
359.4044708697064721
 20
130.2945456694154132
 30
0.0
 40
9.0
 50
41.8103148957787809
 51
138.189685104221212
  0
LINE
  5
3AD1
  8
1
 10
375.3881690447026926
 20
314.4281480277218748
 30
0.0
 11
343.4207726947103083
 21
314.4281480277218748
 31
0.0
  0
CIRCLE
  5
3AD8
  8
0
 10
359.4044708697064721
 20
277.4281480277218748
 30
0.0
 40
49.5
  0
CIRCLE
  5
3ADB
  8
0
 10
359.4044708697064721
 20
277.4281480277218748
 30
0.0
 40
46.1790180745012577
  0
ARC
  5
3AE0
  8
0
 10
359.4044708697064721
 20
277.8629169202598064
 30
0.0
 40
36.6484626047255375
 50
102.5457033862577987
 51
77.4542966137421871
  0
POLYLINE
  5
3AE6
  8
0
 66
     1
 10
0.0
 20
0.0
 30
0.0
  0
VERTEX
  5
9A9C
  8
0
 10
342.3557774041136099
 20
307.00415834742779
 30
0.0
  0
VERTEX
  5
9A9D
  8
0
 10
342.3736852279297977
 20
307.0143695913718034
 30
0.0
  0
VERTEX
  5
9A9E
  8
0
 10
342.4099431819677761
 20
307.0343723489297076
 30
0.0
  0
VERTEX
  5
9A9F
  8
0
 10
342.4467744267403191
 20
307.0537938592901241
 30
0.0
  0
VERTEX
  5
9AA0
  8
0
 10
342.4653986345094836
 20
307.0632787782183755
 30
0.0
  0
VERTEX
  5
9AA1
  8
0
 10
342.4841583735873201
 20
307.0726090746737782
 30
0.0
  0
VERTEX
  5
9AA2
  8
0
 10
342.5220735628665238
 20
307.0907940207994784
 30
0.0
  0
VERTEX
  5
9AA3
  8
0
 10
342.5604977758941914
 20
307.1083258615544196
 30
0.0
  0
VERTEX
  5
9AA4
  8
0
 10
342.599408151306875
 20
307.1251829527565178
 30
0.0
  0
VERTEX
  5
9AA5
  8
0
 10
342.638781306124713
 20
307.1413448851520798
 30
0.0
  0
VERTEX
  5
9AA6
  8
0
 10
342.6785934617582825
 20
307.15679251665739
 30
0.0
  0
VERTEX
  5
9AA7
  8
0
 10
342.6986566580591784
 20
307.164242839655401
 30
0.0
  0
VERTEX
  5
9AA8
  8
0
 10
342.7188205751327814
 20
307.1715079937426935
 30
0.0
  0
VERTEX
  5
9AA9
  8
0
 10
342.7594384750340168
 20
307.1854747617351791
 30
0.0
  0
VERTEX
  5
9AAA
  8
0
 10
342.8004229583842175
 20
307.1986775496189921
 30
0.0
  0
VERTEX
  5
9AAB
  8
0
 10
342.8417494605823777
 20
307.2111022238356099
 30
0.0
  0
VERTEX
  5
9AAC
  8
0
 10
342.8833927063046758
 20
307.2227356836344256
 30
0.0
  0
VERTEX
  5
9AAD
  8
0
 10
342.9253267755210004
 20
307.2335659069977964
 30
0.0
  0
VERTEX
  5
9AAE
  8
0
 10
342.946394620629917
 20
307.2386763559217115
 30
0.0
  0
VERTEX
  5
9AAF
  8
0
 10
342.9675252173602757
 20
307.2435820018250752
 30
0.0
  0
VERTEX
  5
9AB0
  8
0
 10
343.0099611656884804
 20
307.2527742462307856
 30
0.0
  0
VERTEX
  5
9AB1
  8
0
 10
343.0526074565137264
 20
307.2611341181304283
 30
0.0
  0
VERTEX
  5
9AB2
  8
0
 10
343.0740009395016727
 20
307.2649995841946975
 30
0.0
  0
VERTEX
  5
9AB3
  8
0
 10
343.0954367473485718
 20
307.2686543142090727
 30
0.0
  0
VERTEX
  5
9AB4
  8
0
 10
343.1384216386568937
 20
307.275328758300077
 30
0.0
  0
VERTEX
  5
9AB5
  8
0
 10
343.1815347974894053
 20
307.2811525991074859
 30
0.0
  0
VERTEX
  5
9AB6
  8
0
 10
343.2031309848268847
 20
307.2837443591855049
 30
0.0
  0
VERTEX
  5
9AB7
  8
0
 10
343.2247502279407172
 20
307.2861223173142093
 30
0.0
  0
VERTEX
  5
9AB8
  8
0
 10
343.2680515833828849
 20
307.2902362833858092
 30
0.0
  0
VERTEX
  5
9AB9
  8
0
 10
343.3114142261558754
 20
307.2934926184935875
 30
0.0
  0
VERTEX
  5
9ABA
  8
0
 10
343.3548104827877978
 20
307.2958902523999996
 30
0.0
  0
VERTEX
  5
9ABB
  8
0
 10
343.398212333470326
 20
307.2974292871587068
 30
0.0
  0
VERTEX
  5
9ABC
  8
0
 10
343.4415915323421018
 20
307.2981110284640067
 30
0.0
  0
VERTEX
  5
9ABD
  8
0
 10
343.4632637782586926
 20
307.2981311564645921
 30
0.0
  0
VERTEX
  5
9ABE
  8
0
 10
343.4849197275636925
 20
307.2979380060556878
 30
0.0
  0
VERTEX
  5
9ABF
  8
0
 10
343.5281685812661863
 20
307.2969139833431882
 30
0.0
  0
VERTEX
  5
9AC0
  8
0
 10
343.5713098894991049
 20
307.2950439563271061
 30
0.0
  0
VERTEX
  5
9AC1
  8
0
 10
343.6143157023323056
 20
307.2923341418323844
 30
0.0
  0
VERTEX
  5
9AC2
  8
0
 10
343.6571584442893936
 20
307.2887919549770004
 30
0.0
  0
VERTEX
  5
9AC3
  8
0
 10
343.6998110169162146
 20
307.2844259777912725
 30
0.0
  0
VERTEX
  5
9AC4
  8
0
 10
343.7210575992913277
 20
307.2819370685671174
 30
0.0
  0
VERTEX
  5
9AC5
  8
0
 10
343.7422465446858268
 20
307.2792459660150826
 30
0.0
  0
VERTEX
  5
9AC6
  8
0
 10
343.7844379311782177
 20
307.2732629179055266
 30
0.0
  0
VERTEX
  5
9AC7
  8
0
 10
343.8263579072092853
 20
307.2664891145906267
 30
0.0
  0
VERTEX
  5
9AC8
  8
0
 10
343.8679791651709934
 20
307.2589381417006962
 30
0.0
  0
VERTEX
  5
9AC9
  8
0
 10
343.9092744903365997
 20
307.2506248991662119
 30
0.0
  0
VERTEX
  5
9ACA
  8
0
 10
343.9502168891415863
 20
307.2415655994900021
 30
0.0
  0
VERTEX
  5
9ACB
  8
0
 10
343.9705473970619778
 20
307.2367616005611808
 30
0.0
  0
VERTEX
  5
9ACC
  8
0
 10
343.9907797145954191
 20
307.2317777547203832
 30
0.0
  0
VERTEX
  5
9ACD
  8
0
 10
344.0309367890761791
 20
307.2212801522343284
 30
0.0
  0
VERTEX
  5
9ACE
  8
0
 10
344.0706625248370756
 20
307.2100928193314076
 30
0.0
  0
VERTEX
  5
9ACF
  8
0
 10
344.1099537080373238
 20
307.1982302143741208
 30
0.0
  0
VERTEX
  5
9AD0
  8
0
 10
344.1491263596673207
 20
307.1856002246868798
 30
0.0
  0
VERTEX
  5
9AD1
  8
0
 10
344.1882676988856815
 20
307.1721646908687262
 30
0.0
  0
VERTEX
  5
9AD2
  8
0
 10
344.2078167474725205
 20
307.1651441293491871
 30
0.0
  0
VERTEX
  5
9AD3
  8
0
 10
344.2273461305745172
 20
307.1579214901951786
 30
0.0
  0
VERTEX
  5
9AD4
  8
0
 10
344.2663302336911215
 20
307.142869827281686
 30
0.0
  0
VERTEX
  5
9AD5
  8
0
 10
344.3051888790766952
 20
307.1270101991863726
 30
0.0
  0
VERTEX
  5
9AD6
  8
0
 10
344.3438913422094743
 20
307.1103443506515873
 30
0.0
  0
VERTEX
  5
9AD7
  8
0
 10
344.382407411242184
 20
307.0928752194272988
 30
0.0
  0
VERTEX
  5
9AD8
  8
0
 10
344.4207074905451123
 20
307.0746068715649244
 30
0.0
  0
VERTEX
  5
9AD9
  8
0
 10
344.439767478401393
 20
307.0651745523356908
 30
0.0
  0
VERTEX
  5
9ADA
  8
0
 10
344.4587626998596761
 20
307.0555444265224878
 30
0.0
  0
VERTEX
  5
9ADB
  8
0
 10
344.4965449690500918
 20
307.0356939719040952
 30
0.0
  0
VERTEX
  5
9ADC
  8
0
 10
344.5340271175692806
 20
307.0150624736839973
 30
0.0
  0
VERTEX
  5
9ADD
  8
0
 10
344.5526473575043269
 20
307.0044562588919916
 30
0.0
  0
VERTEX
  5
9ADE
  8
0
 10
344.5711826598956122
 20
306.9936578359540249
 30
0.0
  0
VERTEX
  5
9ADF
  8
0
 10
344.6079854058684191
 20
306.9714891176619176
 30
0.0
  0
VERTEX
  5
9AE0
  8
0
 10
344.6444094825374123
 20
306.9485665452406238
 30
0.0
  0
VERTEX
  5
9AE1
  8
0
 10
344.6624715483259251
 20
306.936826068132973
 30
0.0
  0
VERTEX
  5
9AE2
  8
0
 10
344.6804294433537734
 20
306.9249014688929265
 30
0.0
  0
VERTEX
  5
9AE3
  8
0
 10
344.7160203709639177
 20
306.9005063108693889
 30
0.0
  0
VERTEX
  5
9AE4
  8
0
 10
344.7511579737220018
 20
306.8753945058597878
 30
0.0
  0
VERTEX
  5
9AE5
  8
0
 10
344.7858186761238244
 20
306.8495804334854142
 30
0.0
  0
VERTEX
  5
9AE6
  8
0
 10
344.8199797033005893
 20
306.8230793428361949
 30
0.0
  0
VERTEX
  5
9AE7
  8
0
 10
344.8536191596573985
 20
306.7959072689415052
 30
0.0
  0
VERTEX
  5
9AE8
  8
0
 10
344.8702367148665076
 20
306.7820748167242755
 30
0.0
  0
VERTEX
  5
9AE9
  8
0
 10
344.8867161340734242
 20
306.768080913240226
 30
0.0
  0
VERTEX
  5
9AEA
  8
0
 10
344.9192565142520834
 20
306.7396124090251988
 30
0.0
  0
VERTEX
  5
9AEB
  8
0
 10
344.9512249838944058
 20
306.7105156596390998
 30
0.0
  0
VERTEX
  5
9AEC
  8
0
 10
344.9826022245948138
 20
306.6808093242045175
 30
0.0
  0
VERTEX
  5
9AED
  8
0
 10
345.0133694851734276
 20
306.6505130883405172
 30
0.0
  0
VERTEX
  5
9AEE
  8
0
 10
345.0435086820903052
 20
306.6196476045566897
 30
0.0
  0
VERTEX
  5
9AEF
  8
0
 10
345.0583373111343803
 20
306.6040080968006123
 30
0.0
  0
VERTEX
  5
9AF0
  8
0
 10
345.0730024923196879
 20
306.5882344259176762
 30
0.0
  0
VERTEX
  5
9AF1
  8
0
 10
345.1018344388725154
 20
306.5562959330209765
 30
0.0
  0
VERTEX
  5
9AF2
  8
0
 10
345.1299889691322278
 20
306.5238552542567732
 30
0.0
  0
VERTEX
  5
9AF3
  8
0
 10
345.1574515261320926
 20
306.4909361792441018
 30
0.0
  0
VERTEX
  5
9AF4
  8
0
 10
345.1842086128651772
 20
306.4575630652728933
 30
0.0
  0
VERTEX
  5
9AF5
  8
0
 10
345.2102478489237001
 20
306.4237607374994923
 30
0.0
  0
VERTEX
  5
9AF6
  8
0
 10
345.2229947060134236
 20
306.406706499321615
 30
0.0
  0
VERTEX
  5
9AF7
  8
0
 10
345.2355579247587798
 20
306.3895545134874965
 30
0.0
  0
VERTEX
  5
9AF8
  8
0
 10
345.2601283168813211
 20
306.3549705864649013
 30
0.0
  0
VERTEX
  5
9AF9
  8
0
 10
345.2839492534827741
 20
306.320036138417322
 30
0.0
  0
VERTEX
  5
9AFA
  8
0
 10
345.3070118167142937
 20
306.2847792686853836
 30
0.0
  0
VERTEX
  5
9AFB
  8
0
 10
345.3293080378579134
 20
306.2492289134489738
 30
0.0
  0
VERTEX
  5
9AFC
  8
0
 10
345.3508309828606002
 20
306.2134147597795959
 30
0.0
  0
VERTEX
  5
9AFD
  8
0
 10
345.3613006117595887
 20
306.1954182186984212
 30
0.0
  0
VERTEX
  5
9AFE
  8
0
 10
345.3715748284719211
 20
306.177367154304477
 30
0.0
  0
VERTEX
  5
9AFF
  8
0
 10
345.3915349292149131
 20
306.1411170063943814
 30
0.0
  0
VERTEX
  5
9B00
  8
0
 10
345.4107078753872884
 20
306.1046956856567931
 30
0.0
  0
VERTEX
  5
9B01
  8
0
 10
345.4290915422611761
 20
306.0681349134017069
 30
0.0
  0
VERTEX
  5
9B02
  8
0
 10
345.446771735429877
 20
306.0312817628746984
 30
0.0
  0
VERTEX
  5
9B03
  8
0
 10
345.4638781952338036
 20
305.993850799249401
 30
0.0
  0
VERTEX
  5
9B04
  8
0
 10
345.4722084659655934
 20
305.974924065791015
 30
0.0
  0
VERTEX
  5
9B05
  8
0
 10
345.4803855972368183
 20
305.9558605193874996
 30
0.0
  0
VERTEX
  5
9B06
  8
0
 10
345.4962674373246045
 20
305.9173353836278011
 30
0.0
  0
VERTEX
  5
9B07
  8
0
 10
345.5114985661410856
 20
305.8783006724200959
 30
0.0
  0
VERTEX
  5
9B08
  8
0
 10
345.5188626394032099
 20
305.8586003184929041
 30
0.0
  0
VERTEX
  5
9B09
  8
0
 10
345.5260552462264059
 20
305.8387823562035237
 30
0.0
  0
VERTEX
  5
9B0A
  8
0
 10
345.5399151969210152
 20
305.7988069601943835
 30
0.0
  0
VERTEX
  5
9B0B
  8
0
 10
345.5530576270895722
 20
305.758401423545024
 30
0.0
  0
VERTEX
  5
9B0C
  8
0
 10
345.5593536873216181
 20
305.7380458481213168
 30
0.0
  0
VERTEX
  5
9B0D
  8
0
 10
345.5654632555471721
 20
305.7175929524029243
 30
0.0
  0
VERTEX
  5
9B0E
  8
0
 10
345.577114318895724
 20
305.6764088665386794
 30
0.0
  0
VERTEX
  5
9B0F
  8
0
 10
345.5879945439359062
 20
305.6348765283760827
 30
0.0
  0
VERTEX
  5
9B10
  8
0
 10
345.5980889993974756
 20
305.5930237771169118
 30
0.0
  0
VERTEX
  5
9B11
  8
0
 10
345.6073840430818791
 20
305.5508791865181024
 30
0.0
  0
VERTEX
  5
9B12
  8
0
 10
345.6158673745514989
 20
305.5084719530215125
 30
0.0
  0
VERTEX
  5
9B13
  8
0
 10
345.6198011827631831
 20
305.4871791066307765
 30
0.0
  0
VERTEX
  5
9B14
  8
0
 10
345.6235280810583959
 20
305.4658317627115025
 30
0.0
  0
VERTEX
  5
9B15
  8
0
 10
345.6303566711421809
 20
305.4229886566233176
 30
0.0
  0
VERTEX
  5
9B16
  8
0
 10
345.6363450960477053
 20
305.3799728939795273
 30
0.0
  0
VERTEX
  5
9B17
  8
0
 10
345.6414867589915048
 20
305.3368148129404176
 30
0.0
  0
VERTEX
  5
9B18
  8
0
 10
345.6457765121709826
 20
305.2935446884852126
 30
0.0
  0
VERTEX
  5
9B19
  8
0
 10
345.6492107336443951
 20
305.2501912539489126
 30
0.0
  0
VERTEX
  5
9B1A
  8
0
 10
345.6506064242049092
 20
305.2284891527140758
 30
0.0
  0
VERTEX
  5
9B1B
  8
0
 10
345.6517875138305271
 20
305.2067745329204058
 30
0.0
  0
VERTEX
  5
9B1C
  8
0
 10
345.6535052699799735
 20
305.1633231588547233
 30
0.0
  0
VERTEX
  5
9B1D
  8
0
 10
345.6543636561185053
 20
305.119868035096772
 30
0.0
  0
VERTEX
  5
9B1E
  8
0
 10
345.6544708697064721
 20
305.0981487281803197
 30
0.0
  0
SEQEND
  5
9B1F
  8
0
  0
ARC
  5
3AE7
  8
0
 10
359.4044708697064721
 20
277.4281480277218748
 30
0.0
 40
34.1379310344827616
 50
119.9607204410829979
 51
240.0392793242876053
  0
POLYLINE
  5
3AE8
  8
0
 66
     1
 10
0.0
 20
0.0
 30
0.0
  0
VERTEX
  5
9B20
  8
0
 10
345.6544708697064721
 20
249.7581473272632024
 30
0.0
  0
VERTEX
  5
9B21
  8
0
 10
345.6543636561185053
 20
249.7364280203470059
 30
0.0
  0
VERTEX
  5
9B22
  8
0
 10
345.6535052699799735
 20
249.6929728965889126
 30
0.0
  0
VERTEX
  5
9B23
  8
0
 10
345.6517875138305271
 20
249.6495215225232869
 30
0.0
  0
VERTEX
  5
9B24
  8
0
 10
345.6506064242049092
 20
249.6278069027295032
 30
0.0
  0
VERTEX
  5
9B25
  8
0
 10
345.6492107336443951
 20
249.6061048014948085
 30
0.0
  0
VERTEX
  5
9B26
  8
0
 10
345.6457765121709826
 20
249.5627513669583948
 30
0.0
  0
VERTEX
  5
9B27
  8
0
 10
345.6414867589915048
 20
249.5194812425029909
 30
0.0
  0
VERTEX
  5
9B28
  8
0
 10
345.6363450960477053
 20
249.4763231614643928
 30
0.0
  0
VERTEX
  5
9B29
  8
0
 10
345.6303566711421809
 20
249.4333073988200908
 30
0.0
  0
VERTEX
  5
9B2A
  8
0
 10
345.6235280810583959
 20
249.3904642927321902
 30
0.0
  0
VERTEX
  5
9B2B
  8
0
 10
345.6198011827631831
 20
249.3691169488126036
 30
0.0
  0
VERTEX
  5
9B2C
  8
0
 10
345.6158673745514989
 20
249.3478241024224076
 30
0.0
  0
VERTEX
  5
9B2D
  8
0
 10
345.6073840430818791
 20
249.3054168689255903
 30
0.0
  0
VERTEX
  5
9B2E
  8
0
 10
345.5980889993974756
 20
249.2632722783266104
 30
0.0
  0
VERTEX
  5
9B2F
  8
0
 10
345.5879945439359062
 20
249.2214195270676953
 30
0.0
  0
VERTEX
  5
9B30
  8
0
 10
345.577114318895724
 20
249.1798871889050986
 30
0.0
  0
VERTEX
  5
9B31
  8
0
 10
345.5654632555471721
 20
249.1387031030409105
 30
0.0
  0
VERTEX
  5
9B32
  8
0
 10
345.5593536873216181
 20
249.1182502073224043
 30
0.0
  0
VERTEX
  5
9B33
  8
0
 10
345.5530576270895722
 20
249.0978946318986118
 30
0.0
  0
VERTEX
  5
9B34
  8
0
 10
345.5399151969210152
 20
249.0574890952495082
 30
0.0
  0
VERTEX
  5
9B35
  8
0
 10
345.5260552462264059
 20
249.0175136992403111
 30
0.0
  0
VERTEX
  5
9B36
  8
0
 10
345.5188626394032099
 20
248.9976957369509876
 30
0.0
  0
VERTEX
  5
9B37
  8
0
 10
345.5114985661410856
 20
248.9779953830235968
 30
0.0
  0
VERTEX
  5
9B38
  8
0
 10
345.4962674373246045
 20
248.9389606718160906
 30
0.0
  0
VERTEX
  5
9B39
  8
0
 10
345.4803855972368183
 20
248.9004355360561078
 30
0.0
  0
VERTEX
  5
9B3A
  8
0
 10
345.4722084659655934
 20
248.8813719896525924
 30
0.0
  0
VERTEX
  5
9B3B
  8
0
 10
345.4638781952338036
 20
248.8624452561944906
 30
0.0
  0
VERTEX
  5
9B3C
  8
0
 10
345.446771735429877
 20
248.825014292569108
 30
0.0
  0
VERTEX
  5
9B3D
  8
0
 10
345.4290915422611761
 20
248.7881611420422132
 30
0.0
  0
VERTEX
  5
9B3E
  8
0
 10
345.4107078753872884
 20
248.7516003697867859
 30
0.0
  0
VERTEX
  5
9B3F
  8
0
 10
345.3915349292149131
 20
248.7151790490489986
 30
0.0
  0
VERTEX
  5
9B40
  8
0
 10
345.3715748284719211
 20
248.678928901139102
 30
0.0
  0
VERTEX
  5
9B41
  8
0
 10
345.3613006117595887
 20
248.6608778367449872
 30
0.0
  0
VERTEX
  5
9B42
  8
0
 10
345.3508309828603728
 20
248.6428812956642957
 30
0.0
  0
VERTEX
  5
9B43
  8
0
 10
345.3293080378579134
 20
248.6070671419946052
 30
0.0
  0
VERTEX
  5
9B44
  8
0
 10
345.3070118167142937
 20
248.5715167867579964
 30
0.0
  0
VERTEX
  5
9B45
  8
0
 10
345.2839492534827741
 20
248.5362599170263138
 30
0.0
  0
VERTEX
  5
9B46
  8
0
 10
345.2601283168813211
 20
248.5013254689785072
 30
0.0
  0
VERTEX
  5
9B47
  8
0
 10
345.2355579247587798
 20
248.466741541955912
 30
0.0
  0
VERTEX
  5
9B48
  8
0
 10
345.2229947060134236
 20
248.4495895561217935
 30
0.0
  0
VERTEX
  5
9B49
  8
0
 10
345.2102478489237001
 20
248.4325353179443994
 30
0.0
  0
VERTEX
  5
9B4A
  8
0
 10
345.1842086128651772
 20
248.3987329901707994
 30
0.0
  0
VERTEX
  5
9B4B
  8
0
 10
345.1574515261320926
 20
248.3653598761995056
 30
0.0
  0
VERTEX
  5
9B4C
  8
0
 10
345.1299889691322278
 20
248.3324408011868911
 30
0.0
  0
VERTEX
  5
9B4D
  8
0
 10
345.1018344388725154
 20
248.3000001224226025
 30
0.0
  0
VERTEX
  5
9B4E
  8
0
 10
345.0730024923196879
 20
248.2680616295259028
 30
0.0
  0
VERTEX
  5
9B4F
  8
0
 10
345.0583373111343803
 20
248.2522879586431941
 30
0.0
  0
VERTEX
  5
9B50
  8
0
 10
345.0435086820903052
 20
248.2366484508868893
 30
0.0
  0
VERTEX
  5
9B51
  8
0
 10
345.0133694851734276
 20
248.2057829671030902
 30
0.0
  0
VERTEX
  5
9B52
  8
0
 10
344.9826022245948138
 20
248.175486731238891
 30
0.0
  0
VERTEX
  5
9B53
  8
0
 10
344.9512249838944058
 20
248.1457803958047066
 30
0.0
  0
VERTEX
  5
9B54
  8
0
 10
344.9192565142520834
 20
248.1166836464182097
 30
0.0
  0
VERTEX
  5
9B55
  8
0
 10
344.8867161340734242
 20
248.0882151422034951
 30
0.0
  0
VERTEX
  5
9B56
  8
0
 10
344.8702367148665076
 20
248.0742212387195877
 30
0.0
  0
VERTEX
  5
9B57
  8
0
 10
344.8536191596573985
 20
248.0603887865021022
 30
0.0
  0
VERTEX
  5
9B58
  8
0
 10
344.8199797033005893
 20
248.0332167126076968
 30
0.0
  0
VERTEX
  5
9B59
  8
0
 10
344.7858186761238244
 20
248.0067156219579942
 30
0.0
  0
VERTEX
  5
9B5A
  8
0
 10
344.7511579737220018
 20
247.9809015495835922
 30
0.0
  0
VERTEX
  5
9B5B
  8
0
 10
344.7160203709639177
 20
247.9557897445739911
 30
0.0
  0
VERTEX
  5
9B5C
  8
0
 10
344.6804294433538871
 20
247.9313945865507094
 30
0.0
  0
VERTEX
  5
9B5D
  8
0
 10
344.6624715483259251
 20
247.9194699873106913
 30
0.0
  0
VERTEX
  5
9B5E
  8
0
 10
344.6444094825374123
 20
247.9077295102030121
 30
0.0
  0
VERTEX
  5
9B5F
  8
0
 10
344.6079854058684191
 20
247.8848069377814909
 30
0.0
  0
VERTEX
  5
9B60
  8
0
 10
344.5711826598956122
 20
247.8626382194896962
 30
0.0
  0
VERTEX
  5
9B61
  8
0
 10
344.5526473575043838
 20
247.8518397965513884
 30
0.0
  0
VERTEX
  5
9B62
  8
0
 10
344.5340271175692806
 20
247.8412335817598944
 30
0.0
  0
VERTEX
  5
9B63
  8
0
 10
344.4965449690500918
 20
247.8206020835393133
 30
0.0
  0
VERTEX
  5
9B64
  8
0
 10
344.4587626998596761
 20
247.8007516289214038
 30
0.0
  0
VERTEX
  5
9B65
  8
0
 10
344.439767478401393
 20
247.7911215031078029
 30
0.0
  0
VERTEX
  5
9B66
  8
0
 10
344.4207074905451123
 20
247.7816891838789104
 30
0.0
  0
VERTEX
  5
9B67
  8
0
 10
344.382407411242184
 20
247.7634208360161097
 30
0.0
  0
VERTEX
  5
9B68
  8
0
 10
344.3438913422094743
 20
247.7459517047919917
 30
0.0
  0
VERTEX
  5
9B69
  8
0
 10
344.3051888790768089
 20
247.7292858562570075
 30
0.0
  0
VERTEX
  5
9B6A
  8
0
 10
344.2663302336911784
 20
247.7134262281616941
 30
0.0
  0
VERTEX
  5
9B6B
  8
0
 10
344.2273461305745172
 20
247.6983745652484004
 30
0.0
  0
VERTEX
  5
9B6C
  8
0
 10
344.2078167474725205
 20
247.6911519260943919
 30
0.0
  0
VERTEX
  5
9B6D
  8
0
 10
344.1882676988856815
 20
247.6841313645747107
 30
0.0
  0
VERTEX
  5
9B6E
  8
0
 10
344.1491263596673207
 20
247.6706958307566993
 30
0.0
  0
VERTEX
  5
9B6F
  8
0
 10
344.1099537080373238
 20
247.6580658410694866
 30
0.0
  0
VERTEX
  5
9B70
  8
0
 10
344.0706625248370756
 20
247.6462032361125125
 30
0.0
  0
VERTEX
  5
9B71
  8
0
 10
344.0309367890761791
 20
247.6350159032093927
 30
0.0
  0
VERTEX
  5
9B72
  8
0
 10
343.9907797145954191
 20
247.6245183007231958
 30
0.0
  0
VERTEX
  5
9B73
  8
0
 10
343.9705473970619778
 20
247.6195344548825119
 30
0.0
  0
VERTEX
  5
9B74
  8
0
 10
343.9502168891415863
 20
247.6147304559536906
 30
0.0
  0
VERTEX
  5
9B75
  8
0
 10
343.9092744903365997
 20
247.6056711562775092
 30
0.0
  0
VERTEX
  5
9B76
  8
0
 10
343.8679791651709934
 20
247.5973579137427123
 30
0.0
  0
VERTEX
  5
9B77
  8
0
 10
343.8263579072092853
 20
247.5898069408532933
 30
0.0
  0
VERTEX
  5
9B78
  8
0
 10
343.7844379311782177
 20
247.5830331375381093
 30
0.0
  0
VERTEX
  5
9B79
  8
0
 10
343.7422465446858268
 20
247.5770500894284964
 30
0.0
  0
VERTEX
  5
9B7A
  8
0
 10
343.7210575992913277
 20
247.5743589868762911
 30
0.0
  0
VERTEX
  5
9B7B
  8
0
 10
343.6998110169162146
 20
247.5718700776521075
 30
0.0
  0
VERTEX
  5
9B7C
  8
0
 10
343.6571584442893936
 20
247.5675041004666923
 30
0.0
  0
VERTEX
  5
9B7D
  8
0
 10
343.6143157023323056
 20
247.5639619136115073
 30
0.0
  0
VERTEX
  5
9B7E
  8
0
 10
343.5713098894991049
 20
247.5612520991163024
 30
0.0
  0
VERTEX
  5
9B7F
  8
0
 10
343.5281685812661863
 20
247.5593820721007035
 30
0.0
  0
VERTEX
  5
9B80
  8
0
 10
343.4849197275636925
 20
247.5583580493878912
 30
0.0
  0
VERTEX
  5
9B81
  8
0
 10
343.4632637782586926
 20
247.5581648989789869
 30
0.0
  0
VERTEX
  5
9B82
  8
0
 10
343.4415915323421018
 20
247.558185026979686
 30
0.0
  0
VERTEX
  5
9B83
  8
0
 10
343.398212333470326
 20
247.5588667682847017
 30
0.0
  0
VERTEX
  5
9B84
  8
0
 10
343.3548104827877978
 20
247.5604058030436931
 30
0.0
  0
VERTEX
  5
9B85
  8
0
 10
343.3114142261558754
 20
247.5628034369497925
 30
0.0
  0
VERTEX
  5
9B86
  8
0
 10
343.2680515833828849
 20
247.566059772057713
 30
0.0
  0
VERTEX
  5
9B87
  8
0
 10
343.2247502279408877
 20
247.5701737381295118
 30
0.0
  0
VERTEX
  5
9B88
  8
0
 10
343.2031309848268847
 20
247.5725516962581025
 30
0.0
  0
VERTEX
  5
9B89
  8
0
 10
343.1815347974894053
 20
247.5751434563360931
 30
0.0
  0
VERTEX
  5
9B8A
  8
0
 10
343.1384216386568937
 20
247.5809672971433031
 30
0.0
  0
VERTEX
  5
9B8B
  8
0
 10
343.0954367473485718
 20
247.5876417412343073
 30
0.0
  0
VERTEX
  5
9B8C
  8
0
 10
343.0740009395016727
 20
247.5912964712489952
 30
0.0
  0
VERTEX
  5
9B8D
  8
0
 10
343.0526074565137264
 20
247.5951619373132928
 30
0.0
  0
VERTEX
  5
9B8E
  8
0
 10
343.0099611656884804
 20
247.6035218092129924
 30
0.0
  0
VERTEX
  5
9B8F
  8
0
 10
342.9675252173602757
 20
247.6127140536187881
 30
0.0
  0
VERTEX
  5
9B90
  8
0
 10
342.946394620629917
 20
247.6176196995216969
 30
0.0
  0
VERTEX
  5
9B91
  8
0
 10
342.9253267755210004
 20
247.622730148445811
 30
0.0
  0
VERTEX
  5
9B92
  8
0
 10
342.8833927063046758
 20
247.6335603718090113
 30
0.0
  0
VERTEX
  5
9B93
  8
0
 10
342.8417494605823777
 20
247.6451938316083101
 30
0.0
  0
VERTEX
  5
9B94
  8
0
 10
342.8004229583842744
 20
247.657618505824388
 30
0.0
  0
VERTEX
  5
9B95
  8
0
 10
342.7594384750253198
 20
247.6708212937114126
 30
0.0
  0
VERTEX
  5
9B96
  8
0
 10
342.7188205714969058
 20
247.6847880629908047
 30
0.0
  0
VERTEX
  5
9B97
  8
0
 10
342.6986566504240272
 20
247.6920532185812078
 30
0.0
  0
VERTEX
  5
9B98
  8
0
 10
342.6785934489062129
 20
247.699503543629902
 30
0.0
  0
VERTEX
  5
9B99
  8
0
 10
342.6387812799019912
 20
247.7149511807602948
 30
0.0
  0
VERTEX
  5
9B9A
  8
0
 10
342.5994081089810948
 20
247.7311131205412096
 30
0.0
  0
VERTEX
  5
9B9B
  8
0
 10
342.5604977161312945
 20
247.7479702204672094
 30
0.0
  0
VERTEX
  5
9B9C
  8
0
 10
342.5220734856956142
 20
247.7655020707537972
 30
0.0
  0
VERTEX
  5
9B9D
  8
0
 10
342.4841582803575193
 20
247.783687026586108
 30
0.0
  0
VERTEX
  5
9B9E
  8
0
 10
342.4653985341540192
 20
247.7930173277351003
 30
0.0
  0
VERTEX
  5
9B9F
  8
0
 10
342.4467743200668224
 20
247.8025022511197903
 30
0.0
  0
VERTEX
  5
9BA0
  8
0
 10
342.4099430656709728
 20
247.8219237692522938
 30
0.0
  0
VERTEX
  5
9BA1
  8
0
 10
342.3736851069655245
 20
247.8419265322982881
 30
0.0
  0
VERTEX
  5
9BA2
  8
0
 10
342.3557772830080808
 20
247.8521377778255044
 30
0.0
  0
SEQEND
  5
9BA3
  8
0
  0
POLYLINE
  5
3AEC
  8
0
 66
     1
 10
0.0
 20
0.0
 30
0.0
  0
VERTEX
  5
9BA4
  8
0
 10
376.4531646547303012
 20
247.8521378921473968
 30
0.0
  0
VERTEX
  5
9BA5
  8
0
 10
376.4352568305416185
 20
247.8419266440270121
 30
0.0
  0
VERTEX
  5
9BA6
  8
0
 10
376.3989988641927198
 20
247.8219238719939881
 30
0.0
  0
VERTEX
  5
9BA7
  8
0
 10
376.3621675940374871
 20
247.8025023411337884
 30
0.0
  0
VERTEX
  5
9BA8
  8
0
 10
376.3435433696035943
 20
247.793017410451796
 30
0.0
  0
VERTEX
  5
9BA9
  8
0
 10
376.3247836117312204
 20
247.7836871016156124
 30
0.0
  0
VERTEX
  5
9BAA
  8
0
 10
376.2868683800942904
 20
247.7655021298880058
 30
0.0
  0
VERTEX
  5
9BAB
  8
0
 10
376.2484441211511239
 20
247.7479702639921868
 30
0.0
  0
VERTEX
  5
9BAC
  8
0
 10
376.2095336997454069
 20
247.7311131497799011
 30
0.0
  0
VERTEX
  5
9BAD
  8
0
 10
376.1701605024539958
 20
247.7149511979042131
 30
0.0
  0
VERTEX
  5
9BAE
  8
0
 10
376.1303483115538029
 20
247.6995035515620884
 30
0.0
  0
VERTEX
  5
9BAF
  8
0
 10
376.1102851014924795
 20
247.6920532231553125
 30
0.0
  0
VERTEX
  5
9BB0
  8
0
 10
376.0901211738703864
 20
247.6847880651035894
 30
0.0
  0
VERTEX
  5
9BB1
  8
0
 10
376.0495032644024036
 20
247.6708212937161022
 30
0.0
  0
VERTEX
  5
9BB2
  8
0
 10
376.0085187810287835
 20
247.657618505824388
 30
0.0
  0
VERTEX
  5
9BB3
  8
0
 10
375.9671922788306233
 20
247.6451938316083101
 30
0.0
  0
VERTEX
  5
9BB4
  8
0
 10
375.9255490331083251
 20
247.6335603718090113
 30
0.0
  0
VERTEX
  5
9BB5
  8
0
 10
375.8836149638921142
 20
247.622730148445811
 30
0.0
  0
VERTEX
  5
9BB6
  8
0
 10
375.8625471187830271
 20
247.6176196995216969
 30
0.0
  0
VERTEX
  5
9BB7
  8
0
 10
375.8414165220527821
 20
247.6127140536187881
 30
0.0
  0
VERTEX
  5
9BB8
  8
0
 10
375.7989805737245206
 20
247.6035218092129924
 30
0.0
  0
VERTEX
  5
9BB9
  8
0
 10
375.7563342828993882
 20
247.5951619373132928
 30
0.0
  0
VERTEX
  5
9BBA
  8
0
 10
375.7349407999112145
 20
247.5912964712489952
 30
0.0
  0
VERTEX
  5
9BBB
  8
0
 10
375.7135049920643723
 20
247.5876417412343073
 30
0.0
  0
VERTEX
  5
9BBC
  8
0
 10
375.6705201007562209
 20
247.5809672971433031
 30
0.0
  0
VERTEX
  5
9BBD
  8
0
 10
375.6274069419235957
 20
247.5751434563360931
 30
0.0
  0
VERTEX
  5
9BBE
  8
0
 10
375.6058107545861162
 20
247.5725516962581025
 30
0.0
  0
VERTEX
  5
9BBF
  8
0
 10
375.5841915114722269
 20
247.5701737381295118
 30
0.0
  0
VERTEX
  5
9BC0
  8
0
 10
375.540890156030116
 20
247.566059772057713
 30
0.0
  0
VERTEX
  5
9BC1
  8
0
 10
375.4975275132571824
 20
247.5628034369497925
 30
0.0
  0
VERTEX
  5
9BC2
  8
0
 10
375.4541312566253168
 20
247.5604058030436931
 30
0.0
  0
VERTEX
  5
9BC3
  8
0
 10
375.4107294059426749
 20
247.5588667682847017
 30
0.0
  0
VERTEX
  5
9BC4
  8
0
 10
375.3673502070708992
 20
247.558185026979686
 30
0.0
  0
VERTEX
  5
9BC5
  8
0
 10
375.3456779611543084
 20
247.5581648989789869
 30
0.0
  0
VERTEX
  5
9BC6
  8
0
 10
375.3240220118494221
 20
247.5583580493878912
 30
0.0
  0
VERTEX
  5
9BC7
  8
0
 10
375.2807731581468147
 20
247.5593820721007035
 30
0.0
  0
VERTEX
  5
9BC8
  8
0
 10
375.2376318499140098
 20
247.5612520991163024
 30
0.0
  0
VERTEX
  5
9BC9
  8
0
 10
375.1946260370805817
 20
247.5639619136115073
 30
0.0
  0
VERTEX
  5
9BCA
  8
0
 10
375.1517832951236073
 20
247.5675041004666923
 30
0.0
  0
VERTEX
  5
9BCB
  8
0
 10
375.1091307224966727
 20
247.5718700776521075
 30
0.0
  0
VERTEX
  5
9BCC
  8
0
 10
375.0878841401216732
 20
247.5743589868762911
 30
0.0
  0
VERTEX
  5
9BCD
  8
0
 10
375.0666951947271173
 20
247.5770500894284964
 30
0.0
  0
VERTEX
  5
9BCE
  8
0
 10
375.0245038082347264
 20
247.5830331375381093
 30
0.0
  0
VERTEX
  5
9BCF
  8
0
 10
374.9825838322037157
 20
247.5898069408532933
 30
0.0
  0
VERTEX
  5
9BD0
  8
0
 10
374.9409625742421213
 20
247.5973579137427123
 30
0.0
  0
VERTEX
  5
9BD1
  8
0
 10
374.8996672490764013
 20
247.6056711562775092
 30
0.0
  0
VERTEX
  5
9BD2
  8
0
 10
374.8587248502714147
 20
247.6147304559536906
 30
0.0
  0
VERTEX
  5
9BD3
  8
0
 10
374.8383943423510232
 20
247.6195344548825119
 30
0.0
  0
VERTEX
  5
9BD4
  8
0
 10
374.8181620248176955
 20
247.6245183007231958
 30
0.0
  0
VERTEX
  5
9BD5
  8
0
 10
374.7780049503367081
 20
247.6350159032093927
 30
0.0
  0
VERTEX
  5
9BD6
  8
0
 10
374.7382792145759822
 20
247.6462032361125125
 30
0.0
  0
VERTEX
  5
9BD7
  8
0
 10
374.6989880313757908
 20
247.6580658410694866
 30
0.0
  0
VERTEX
  5
9BD8
  8
0
 10
374.6598153797456803
 20
247.6706958307566993
 30
0.0
  0
VERTEX
  5
9BD9
  8
0
 10
374.6206740405273194
 20
247.6841313645747107
 30
0.0
  0
VERTEX
  5
9BDA
  8
0
 10
374.6011249919404236
 20
247.6911519260943919
 30
0.0
  0
VERTEX
  5
9BDB
  8
0
 10
374.5815956088385974
 20
247.6983745652484004
 30
0.0
  0
VERTEX
  5
9BDC
  8
0
 10
374.5426115057218794
 20
247.7134262281616941
 30
0.0
  0
VERTEX
  5
9BDD
  8
0
 10
374.503752860336192
 20
247.7292858562570075
 30
0.0
  0
VERTEX
  5
9BDE
  8
0
 10
374.4650503972035267
 20
247.7459517047919917
 30
0.0
  0
VERTEX
  5
9BDF
  8
0
 10
374.4265343281708738
 20
247.7634208360161097
 30
0.0
  0
VERTEX
  5
9BE0
  8
0
 10
374.3882342488680024
 20
247.7816891838789104
 30
0.0
  0
VERTEX
  5
9BE1
  8
0
 10
374.3691742610114943
 20
247.7911215031078029
 30
0.0
  0
VERTEX
  5
9BE2
  8
0
 10
374.3501790395533817
 20
247.8007516289214038
 30
0.0
  0
VERTEX
  5
9BE3
  8
0
 10
374.3123967703627955
 20
247.8206020835393133
 30
0.0
  0
VERTEX
  5
9BE4
  8
0
 10
374.2749146218437204
 20
247.8412335817598944
 30
0.0
  0
VERTEX
  5
9BE5
  8
0
 10
374.256294381908674
 20
247.8518397965513884
 30
0.0
  0
VERTEX
  5
9BE6
  8
0
 10
374.237759079517275
 20
247.8626382194896962
 30
0.0
  0
VERTEX
  5
9BE7
  8
0
 10
374.2009563335445819
 20
247.8848069377814909
 30
0.0
  0
VERTEX
  5
9BE8
  8
0
 10
374.1645322568757024
 20
247.9077295102030121
 30
0.0
  0
VERTEX
  5
9BE9
  8
0
 10
374.146470191087019
 20
247.9194699873106913
 30
0.0
  0
VERTEX
  5
9BEA
  8
0
 10
374.1285122960592275
 20
247.9313945865507094
 30
0.0
  0
VERTEX
  5
9BEB
  8
0
 10
374.0929213684490833
 20
247.9557897445739911
 30
0.0
  0
VERTEX
  5
9BEC
  8
0
 10
374.0577837656909992
 20
247.9809015495835922
 30
0.0
  0
VERTEX
  5
9BED
  8
0
 10
374.0231230632892903
 20
248.0067156219579942
 30
0.0
  0
VERTEX
  5
9BEE
  8
0
 10
373.9889620361125253
 20
248.0332167126076968
 30
0.0
  0
VERTEX
  5
9BEF
  8
0
 10
373.9553225797554887
 20
248.0603887865021022
 30
0.0
  0
VERTEX
  5
9BF0
  8
0
 10
373.9387050245464934
 20
248.0742212387195877
 30
0.0
  0
VERTEX
  5
9BF1
  8
0
 10
373.9222256053395768
 20
248.0882151422034951
 30
0.0
  0
VERTEX
  5
9BF2
  8
0
 10
373.8896852251609175
 20
248.1166836464182097
 30
0.0
  0
VERTEX
  5
9BF3
  8
0
 10
373.8577167555184815
 20
248.1457803958047066
 30
0.0
  0
VERTEX
  5
9BF4
  8
0
 10
373.8263395148183008
 20
248.175486731238891
 30
0.0
  0
VERTEX
  5
9BF5
  8
0
 10
373.795572254239687
 20
248.2057829671030902
 30
0.0
  0
VERTEX
  5
9BF6
  8
0
 10
373.7654330573226957
 20
248.2366484508868893
 30
0.0
  0
VERTEX
  5
9BF7
  8
0
 10
373.7506044282785069
 20
248.2522879586429951
 30
0.0
  0
VERTEX
  5
9BF8
  8
0
 10
373.7359392470934267
 20
248.2680616295259028
 30
0.0
  0
VERTEX
  5
9BF9
  8
0
 10
373.7071073005403719
 20
248.3000001224226025
 30
0.0
  0
VERTEX
  5
9BFA
  8
0
 10
373.6789527702807732
 20
248.3324408011868911
 30
0.0
  0
VERTEX
  5
9BFB
  8
0
 10
373.6514902132810221
 20
248.3653598761995056
 30
0.0
  0
VERTEX
  5
9BFC
  8
0
 10
373.6247331265478806
 20
248.3987329901707994
 30
0.0
  0
VERTEX
  5
9BFD
  8
0
 10
373.5986938904891872
 20
248.4325353179443994
 30
0.0
  0
VERTEX
  5
9BFE
  8
0
 10
373.5859470333995773
 20
248.4495895561217935
 30
0.0
  0
VERTEX
  5
9BFF
  8
0
 10
373.5733838146542212
 20
248.466741541955912
 30
0.0
  0
VERTEX
  5
9C00
  8
0
 10
373.5488134225316799
 20
248.5013254689785072
 30
0.0
  0
VERTEX
  5
9C01
  8
0
 10
373.5249924859302837
 20
248.5362599170263138
 30
0.0
  0
VERTEX
  5
9C02
  8
0
 10
373.5019299226987073
 20
248.5715167867579964
 30
0.0
  0
VERTEX
  5
9C03
  8
0
 10
373.4796337015552012
 20
248.6070671419946052
 30
0.0
  0
VERTEX
  5
9C04
  8
0
 10
373.4581107565525144
 20
248.6428812956642957
 30
0.0
  0
VERTEX
  5
9C05
  8
0
 10
373.4476411276535259
 20
248.6608778367449872
 30
0.0
  0
VERTEX
  5
9C06
  8
0
 10
373.4373669109411935
 20
248.678928901139102
 30
0.0
  0
VERTEX
  5
9C07
  8
0
 10
373.4174068101982016
 20
248.7151790490489986
 30
0.0
  0
VERTEX
  5
9C08
  8
0
 10
373.3982338640255989
 20
248.7516003697867859
 30
0.0
  0
VERTEX
  5
9C09
  8
0
 10
373.3798501971518817
 20
248.7881611420422132
 30
0.0
  0
VERTEX
  5
9C0A
  8
0
 10
373.3621700039830102
 20
248.825014292569108
 30
0.0
  0
VERTEX
  5
9C0B
  8
0
 10
373.3450635441790837
 20
248.8624452561944906
 30
0.0
  0
VERTEX
  5
9C0C
  8
0
 10
373.3367332734472939
 20
248.8813719896525924
 30
0.0
  0
VERTEX
  5
9C0D
  8
0
 10
373.3285561421761827
 20
248.9004355360561078
 30
0.0
  0
VERTEX
  5
9C0E
  8
0
 10
373.3126743020885101
 20
248.9389606718160906
 30
0.0
  0
VERTEX
  5
9C0F
  8
0
 10
373.2974431732719722
 20
248.9779953830235968
 30
0.0
  0
VERTEX
  5
9C10
  8
0
 10
373.2900791000099048
 20
248.9976957369509876
 30
0.0
  0
VERTEX
  5
9C11
  8
0
 10
373.2828864931864814
 20
249.0175136992403111
 30
0.0
  0
VERTEX
  5
9C12
  8
0
 10
373.2690265424918721
 20
249.0574890952495082
 30
0.0
  0
VERTEX
  5
9C13
  8
0
 10
373.2558841123233719
 20
249.0978946318984129
 30
0.0
  0
VERTEX
  5
9C14
  8
0
 10
373.2495880520913829
 20
249.1182502073224043
 30
0.0
  0
VERTEX
  5
9C15
  8
0
 10
373.243478483865772
 20
249.1387031030409105
 30
0.0
  0
VERTEX
  5
9C16
  8
0
 10
373.231827420517277
 20
249.1798871889050986
 30
0.0
  0
VERTEX
  5
9C17
  8
0
 10
373.2209471954770947
 20
249.2214195270676953
 30
0.0
  0
VERTEX
  5
9C18
  8
0
 10
373.2108527400155253
 20
249.2632722783266104
 30
0.0
  0
VERTEX
  5
9C19
  8
0
 10
373.2015576963310082
 20
249.3054168689255903
 30
0.0
  0
VERTEX
  5
9C1A
  8
0
 10
373.1930743648616158
 20
249.3478241024224076
 30
0.0
  0
VERTEX
  5
9C1B
  8
0
 10
373.1891405566497042
 20
249.3691169488126036
 30
0.0
  0
VERTEX
  5
9C1C
  8
0
 10
373.1854136583544914
 20
249.3904642927321902
 30
0.0
  0
VERTEX
  5
9C1D
  8
0
 10
373.1785850682708769
 20
249.4333073988200908
 30
0.0
  0
VERTEX
  5
9C1E
  8
0
 10
373.1725966433654094
 20
249.4763231614643928
 30
0.0
  0
VERTEX
  5
9C1F
  8
0
 10
373.1674549804213825
 20
249.5194812425029909
 30
0.0
  0
VERTEX
  5
9C20
  8
0
 10
373.1631652272420752
 20
249.5627513669583948
 30
0.0
  0
VERTEX
  5
9C21
  8
0
 10
373.1597310057687196
 20
249.6061048014948085
 30
0.0
  0
VERTEX
  5
9C22
  8
0
 10
373.1583353152079781
 20
249.6278069027295032
 30
0.0
  0
VERTEX
  5
9C23
  8
0
 10
373.157154225582417
 20
249.6495215225232869
 30
0.0
  0
VERTEX
  5
9C24
  8
0
 10
373.1554364694330275
 20
249.6929728965889126
 30
0.0
  0
VERTEX
  5
9C25
  8
0
 10
373.1545780832946093
 20
249.7364280203470059
 30
0.0
  0
VERTEX
  5
9C26
  8
0
 10
373.1544708697064721
 20
249.7581473272632024
 30
0.0
  0
SEQEND
  5
9C27
  8
0
  0
POLYLINE
  5
3AEE
  8
0
 66
     1
 10
0.0
 20
0.0
 30
0.0
  0
VERTEX
  5
9C28
  8
0
 10
373.1544708697064721
 20
305.0981487281803197
 30
0.0
  0
VERTEX
  5
9C29
  8
0
 10
373.1545780832946093
 20
305.119868035096772
 30
0.0
  0
VERTEX
  5
9C2A
  8
0
 10
373.1554364694330275
 20
305.1633231588547233
 30
0.0
  0
VERTEX
  5
9C2B
  8
0
 10
373.157154225582417
 20
305.2067745329204058
 30
0.0
  0
VERTEX
  5
9C2C
  8
0
 10
373.1583353152079781
 20
305.2284891527140758
 30
0.0
  0
VERTEX
  5
9C2D
  8
0
 10
373.1597310057687196
 20
305.2501912539489126
 30
0.0
  0
VERTEX
  5
9C2E
  8
0
 10
373.1631652272420752
 20
305.2935446884852126
 30
0.0
  0
VERTEX
  5
9C2F
  8
0
 10
373.1674549804213825
 20
305.3368148129404176
 30
0.0
  0
VERTEX
  5
9C30
  8
0
 10
373.1725966433654094
 20
305.3799728939795273
 30
0.0
  0
VERTEX
  5
9C31
  8
0
 10
373.1785850682708769
 20
305.4229886566233176
 30
0.0
  0
VERTEX
  5
9C32
  8
0
 10
373.1854136583544914
 20
305.4658317627115025
 30
0.0
  0
VERTEX
  5
9C33
  8
0
 10
373.1891405566497042
 20
305.4871791066307765
 30
0.0
  0
VERTEX
  5
9C34
  8
0
 10
373.1930743648616158
 20
305.5084719530215125
 30
0.0
  0
VERTEX
  5
9C35
  8
0
 10
373.2015576963310082
 20
305.5508791865181024
 30
0.0
  0
VERTEX
  5
9C36
  8
0
 10
373.2108527400155253
 20
305.5930237771169118
 30
0.0
  0
VERTEX
  5
9C37
  8
0
 10
373.2209471954770947
 20
305.6348765283760827
 30
0.0
  0
VERTEX
  5
9C38
  8
0
 10
373.231827420517277
 20
305.6764088665386794
 30
0.0
  0
VERTEX
  5
9C39
  8
0
 10
373.243478483865772
 20
305.7175929524029243
 30
0.0
  0
VERTEX
  5
9C3A
  8
0
 10
373.2495880520913829
 20
305.7380458481213168
 30
0.0
  0
VERTEX
  5
9C3B
  8
0
 10
373.2558841123233719
 20
305.758401423545024
 30
0.0
  0
VERTEX
  5
9C3C
  8
0
 10
373.2690265424918721
 20
305.7988069601940992
 30
0.0
  0
VERTEX
  5
9C3D
  8
0
 10
373.2828864931864814
 20
305.8387823562035237
 30
0.0
  0
VERTEX
  5
9C3E
  8
0
 10
373.2900791000099048
 20
305.8586003184926767
 30
0.0
  0
VERTEX
  5
9C3F
  8
0
 10
373.2974431732719722
 20
305.8783006724200959
 30
0.0
  0
VERTEX
  5
9C40
  8
0
 10
373.3126743020885101
 20
305.9173353836278011
 30
0.0
  0
VERTEX
  5
9C41
  8
0
 10
373.3285561421761827
 20
305.9558605193874996
 30
0.0
  0
VERTEX
  5
9C42
  8
0
 10
373.3367332734472939
 20
305.9749240657907876
 30
0.0
  0
VERTEX
  5
9C43
  8
0
 10
373.3450635441790837
 20
305.9938507992491168
 30
0.0
  0
VERTEX
  5
9C44
  8
0
 10
373.3621700039830102
 20
306.0312817628746984
 30
0.0
  0
VERTEX
  5
9C45
  8
0
 10
373.3798501971518817
 20
306.0681349134017069
 30
0.0
  0
VERTEX
  5
9C46
  8
0
 10
373.3982338640255989
 20
306.1046956856567931
 30
0.0
  0
VERTEX
  5
9C47
  8
0
 10
373.4174068101982016
 20
306.1411170063943814
 30
0.0
  0
VERTEX
  5
9C48
  8
0
 10
373.4373669109411935
 20
306.177367154304477
 30
0.0
  0
VERTEX
  5
9C49
  8
0
 10
373.4476411276535259
 20
306.1954182186984212
 30
0.0
  0
VERTEX
  5
9C4A
  8
0
 10
373.4581107565525144
 20
306.2134147597795959
 30
0.0
  0
VERTEX
  5
9C4B
  8
0
 10
373.4796337015552012
 20
306.2492289134489738
 30
0.0
  0
VERTEX
  5
9C4C
  8
0
 10
373.5019299226987073
 20
306.2847792686853836
 30
0.0
  0
VERTEX
  5
9C4D
  8
0
 10
373.5249924859302837
 20
306.320036138417322
 30
0.0
  0
VERTEX
  5
9C4E
  8
0
 10
373.5488134225316799
 20
306.3549705864649013
 30
0.0
  0
VERTEX
  5
9C4F
  8
0
 10
373.5733838146542212
 20
306.3895545134874965
 30
0.0
  0
VERTEX
  5
9C50
  8
0
 10
373.5859470333995773
 20
306.406706499321615
 30
0.0
  0
VERTEX
  5
9C51
  8
0
 10
373.5986938904891872
 20
306.4237607374994923
 30
0.0
  0
VERTEX
  5
9C52
  8
0
 10
373.6247331265478806
 20
306.457563065272609
 30
0.0
  0
VERTEX
  5
9C53
  8
0
 10
373.6514902132810221
 20
306.4909361792441018
 30
0.0
  0
VERTEX
  5
9C54
  8
0
 10
373.6789527702807732
 20
306.5238552542567732
 30
0.0
  0
VERTEX
  5
9C55
  8
0
 10
373.7071073005403719
 20
306.5562959330209765
 30
0.0
  0
VERTEX
  5
9C56
  8
0
 10
373.7359392470934267
 20
306.5882344259176762
 30
0.0
  0
VERTEX
  5
9C57
  8
0
 10
373.7506044282785069
 20
306.6040080968006123
 30
0.0
  0
VERTEX
  5
9C58
  8
0
 10
373.7654330573226957
 20
306.6196476045566897
 30
0.0
  0
VERTEX
  5
9C59
  8
0
 10
373.795572254239687
 20
306.6505130883405172
 30
0.0
  0
VERTEX
  5
9C5A
  8
0
 10
373.8263395148183008
 20
306.6808093242045175
 30
0.0
  0
VERTEX
  5
9C5B
  8
0
 10
373.8577167555185952
 20
306.7105156596390998
 30
0.0
  0
VERTEX
  5
9C5C
  8
0
 10
373.8896852251609175
 20
306.7396124090251988
 30
0.0
  0
VERTEX
  5
9C5D
  8
0
 10
373.9222256053395768
 20
306.768080913240226
 30
0.0
  0
VERTEX
  5
9C5E
  8
0
 10
373.9387050245464934
 20
306.7820748167242755
 30
0.0
  0
VERTEX
  5
9C5F
  8
0
 10
373.9553225797554887
 20
306.7959072689415052
 30
0.0
  0
VERTEX
  5
9C60
  8
0
 10
373.9889620361125253
 20
306.8230793428361949
 30
0.0
  0
VERTEX
  5
9C61
  8
0
 10
374.0231230632892903
 20
306.8495804334854142
 30
0.0
  0
VERTEX
  5
9C62
  8
0
 10
374.0577837656909992
 20
306.8753945058597878
 30
0.0
  0
VERTEX
  5
9C63
  8
0
 10
374.0929213684490833
 20
306.9005063108693889
 30
0.0
  0
VERTEX
  5
9C64
  8
0
 10
374.1285122960592275
 20
306.9249014688926991
 30
0.0
  0
VERTEX
  5
9C65
  8
0
 10
374.146470191087019
 20
306.936826068132973
 30
0.0
  0
VERTEX
  5
9C66
  8
0
 10
374.1645322568757024
 20
306.9485665452406238
 30
0.0
  0
VERTEX
  5
9C67
  8
0
 10
374.2009563335445819
 20
306.9714891176619176
 30
0.0
  0
VERTEX
  5
9C68
  8
0
 10
374.2377590795173887
 20
306.9936578359540249
 30
0.0
  0
VERTEX
  5
9C69
  8
0
 10
374.256294381908674
 20
307.0044562588919916
 30
0.0
  0
VERTEX
  5
9C6A
  8
0
 10
374.2749146218437772
 20
307.0150624736839973
 30
0.0
  0
VERTEX
  5
9C6B
  8
0
 10
374.3123967703627955
 20
307.0356939719040952
 30
0.0
  0
VERTEX
  5
9C6C
  8
0
 10
374.3501790395533817
 20
307.0555444265224878
 30
0.0
  0
VERTEX
  5
9C6D
  8
0
 10
374.3691742610114943
 20
307.0651745523356908
 30
0.0
  0
VERTEX
  5
9C6E
  8
0
 10
374.3882342488680024
 20
307.0746068715649244
 30
0.0
  0
VERTEX
  5
9C6F
  8
0
 10
374.4265343281708738
 20
307.0928752194272988
 30
0.0
  0
VERTEX
  5
9C70
  8
0
 10
374.4650503972035267
 20
307.1103443506515873
 30
0.0
  0
VERTEX
  5
9C71
  8
0
 10
374.503752860336192
 20
307.1270101991863726
 30
0.0
  0
VERTEX
  5
9C72
  8
0
 10
374.5426115057218794
 20
307.142869827281686
 30
0.0
  0
VERTEX
  5
9C73
  8
0
 10
374.5815956088385974
 20
307.1579214901951786
 30
0.0
  0
VERTEX
  5
9C74
  8
0
 10
374.6011249919404236
 20
307.1651441293491871
 30
0.0
  0
VERTEX
  5
9C75
  8
0
 10
374.6206740405273194
 20
307.1721646908687262
 30
0.0
  0
VERTEX
  5
9C76
  8
0
 10
374.6598153797456803
 20
307.1856002246868798
 30
0.0
  0
VERTEX
  5
9C77
  8
0
 10
374.6989880313757908
 20
307.1982302143741208
 30
0.0
  0
VERTEX
  5
9C78
  8
0
 10
374.7382792145759822
 20
307.2100928193314076
 30
0.0
  0
VERTEX
  5
9C79
  8
0
 10
374.7780049503367081
 20
307.2212801522343284
 30
0.0
  0
VERTEX
  5
9C7A
  8
0
 10
374.8181620248176955
 20
307.2317777547203832
 30
0.0
  0
VERTEX
  5
9C7B
  8
0
 10
374.8383943423510232
 20
307.2367616005611808
 30
0.0
  0
VERTEX
  5
9C7C
  8
0
 10
374.8587248502714147
 20
307.2415655994900021
 30
0.0
  0
VERTEX
  5
9C7D
  8
0
 10
374.8996672490764013
 20
307.2506248991662119
 30
0.0
  0
VERTEX
  5
9C7E
  8
0
 10
374.9409625742421213
 20
307.2589381417006962
 30
0.0
  0
VERTEX
  5
9C7F
  8
0
 10
374.9825838322037157
 20
307.2664891145906267
 30
0.0
  0
VERTEX
  5
9C80
  8
0
 10
375.0245038082347264
 20
307.2732629179055266
 30
0.0
  0
VERTEX
  5
9C81
  8
0
 10
375.0666951947271741
 20
307.2792459660150826
 30
0.0
  0
VERTEX
  5
9C82
  8
0
 10
375.0878841401216732
 20
307.2819370685671174
 30
0.0
  0
VERTEX
  5
9C83
  8
0
 10
375.1091307224966727
 20
307.2844259777912725
 30
0.0
  0
VERTEX
  5
9C84
  8
0
 10
375.1517832951236073
 20
307.288791954976773
 30
0.0
  0
VERTEX
  5
9C85
  8
0
 10
375.1946260370805817
 20
307.2923341418323844
 30
0.0
  0
VERTEX
  5
9C86
  8
0
 10
375.2376318499140098
 20
307.2950439563271061
 30
0.0
  0
VERTEX
  5
9C87
  8
0
 10
375.2807731581468147
 20
307.2969139833431882
 30
0.0
  0
VERTEX
  5
9C88
  8
0
 10
375.3240220118494221
 20
307.2979380060556878
 30
0.0
  0
VERTEX
  5
9C89
  8
0
 10
375.3456779611544221
 20
307.2981311564645921
 30
0.0
  0
VERTEX
  5
9C8A
  8
0
 10
375.3673502070708992
 20
307.2981110284640067
 30
0.0
  0
VERTEX
  5
9C8B
  8
0
 10
375.4107294059427886
 20
307.2974292871587068
 30
0.0
  0
VERTEX
  5
9C8C
  8
0
 10
375.4541312566253168
 20
307.2958902523999996
 30
0.0
  0
VERTEX
  5
9C8D
  8
0
 10
375.4975275132571824
 20
307.2934926184935875
 30
0.0
  0
VERTEX
  5
9C8E
  8
0
 10
375.540890156030116
 20
307.2902362833858092
 30
0.0
  0
VERTEX
  5
9C8F
  8
0
 10
375.5841915114722269
 20
307.2861223173142093
 30
0.0
  0
VERTEX
  5
9C90
  8
0
 10
375.6058107545861731
 20
307.2837443591852775
 30
0.0
  0
VERTEX
  5
9C91
  8
0
 10
375.6274069419235957
 20
307.2811525991074859
 30
0.0
  0
VERTEX
  5
9C92
  8
0
 10
375.6705201007562209
 20
307.275328758300077
 30
0.0
  0
VERTEX
  5
9C93
  8
0
 10
375.7135049920643723
 20
307.2686543142090727
 30
0.0
  0
VERTEX
  5
9C94
  8
0
 10
375.7349407999112145
 20
307.2649995841946975
 30
0.0
  0
VERTEX
  5
9C95
  8
0
 10
375.7563342828993882
 20
307.2611341181304283
 30
0.0
  0
VERTEX
  5
9C96
  8
0
 10
375.7989805737245206
 20
307.2527742462307856
 30
0.0
  0
VERTEX
  5
9C97
  8
0
 10
375.8414165220527821
 20
307.243582001824791
 30
0.0
  0
VERTEX
  5
9C98
  8
0
 10
375.8625471187830271
 20
307.2386763559217115
 30
0.0
  0
VERTEX
  5
9C99
  8
0
 10
375.8836149638921142
 20
307.2335659069977964
 30
0.0
  0
VERTEX
  5
9C9A
  8
0
 10
375.925549033108382
 20
307.2227356836344256
 30
0.0
  0
VERTEX
  5
9C9B
  8
0
 10
375.9671922788306802
 20
307.2111022238356099
 30
0.0
  0
VERTEX
  5
9C9C
  8
0
 10
376.0085187810287835
 20
307.1986775496189921
 30
0.0
  0
VERTEX
  5
9C9D
  8
0
 10
376.0495032643877948
 20
307.1854747617322801
 30
0.0
  0
VERTEX
  5
9C9E
  8
0
 10
376.0901211679162088
 20
307.1715079924525753
 30
0.0
  0
VERTEX
  5
9C9F
  8
0
 10
376.1102850889889737
 20
307.1642428368623996
 30
0.0
  0
VERTEX
  5
9CA0
  8
0
 10
376.1303482905069018
 20
307.1567925118137055
 30
0.0
  0
VERTEX
  5
9CA1
  8
0
 10
376.1701604595108961
 20
307.1413448746833978
 30
0.0
  0
VERTEX
  5
9CA2
  8
0
 10
376.2095336304317925
 20
307.1251829349022273
 30
0.0
  0
VERTEX
  5
9CA3
  8
0
 10
376.2484440232818201
 20
307.1083258349764264
 30
0.0
  0
VERTEX
  5
9CA4
  8
0
 10
376.2868682537173868
 20
307.0907939846899239
 30
0.0
  0
VERTEX
  5
9CA5
  8
0
 10
376.3247834590555954
 20
307.0726090288578121
 30
0.0
  0
VERTEX
  5
9CA6
  8
0
 10
376.3435432052589249
 20
307.0632787277082798
 30
0.0
  0
VERTEX
  5
9CA7
  8
0
 10
376.3621674193461786
 20
307.0537938043237887
 30
0.0
  0
VERTEX
  5
9CA8
  8
0
 10
376.3989986737420281
 20
307.0343722861913989
 30
0.0
  0
VERTEX
  5
9CA9
  8
0
 10
376.4352566324474765
 20
307.0143695231454899
 30
0.0
  0
VERTEX
  5
9CAA
  8
0
 10
376.4531644564048065
 20
307.0041582776181031
 30
0.0
  0
SEQEND
  5
9CAB
  8
0
  0
ARC
  5
3AEF
  8
0
 10
359.4044708697064721
 20
277.4281480277218748
 30
0.0
 40
34.1379310344827616
 50
299.9607210599070868
 51
60.0392793242875626
  0
LINE
  5
3AFC
  8
1
 10
359.4044708697064721
 20
220.944449852725711
 30
0.0
 11
359.4044708697064721
 21
333.9118462027180954
 31
0.0
  0
LINE
  5
3AFD
  8
1
 10
415.888169044702579
 20
277.4281480277218748
 30
0.0
 11
302.9207726947101946
 21
277.4281480277218748
 31
0.0
  0
LINE
  5
3B22
  8
1
 10
359.4044708697064721
 20
92.3108474944192352
 30
0.0
 11
359.4044708697064721
 21
146.2782438444116906
 31
0.0
  0
LINE
  5
3B26
  8
2
 10
354.4044708697064721
 20
116.2945456694154984
 30
0.0
 11
354.4044708697064721
 21
99.29454566941547
 31
0.0
  0
LINE
  5
3B27
  8
2
 10
364.4044708697064721
 20
99.29454566941547
 30
0.0
 11
364.4044708697064721
 21
116.2945456694154984
 31
0.0
  0
LINE
  5
3B2A
  8
0
 10
350.4044708697064721
 20
99.4945456694155155
 30
0.0
 11
350.4044708697064721
 21
99.29454566941547
 31
0.0
  0
LINE
  5
3B2B
  8
0
 10
368.4044708697065857
 20
99.29454566941547
 30
0.0
 11
368.4044708697065857
 21
99.4945456694155155
 31
0.0
  0
ARC
  5
3B2C
  8
0
 10
371.6544708697064721
 20
99.9945456694154728
 30
0.0
 40
0.4999999999999999
 50
270.0
 51
0.0
  0
ARC
  5
3B2D
  8
0
 10
347.1544708697064721
 20
99.9945456694154728
 30
0.0
 40
0.4999999999999983
 50
180.0
 51
270.0
  0
LINE
  5
3B2E
  8
0
 10
346.6544708697064721
 20
101.2945456694153989
 30
0.0
 11
346.6544708697064721
 21
99.9945456694154728
 31
0.0
  0
LINE
  5
3B2F
  8
0
 10
372.1544708697064721
 20
99.9945456694154728
 30
0.0
 11
372.1544708697064721
 21
101.2945456694153989
 31
0.0
  0
ARC
  5
3B30
  8
0
 10
402.2378042030396728
 20
122.9612123360821982
 30
0.0
 40
6.6666666666666918
 50
270.0
 51
0.0
  0
ARC
  5
3B31
  8
0
 10
316.5711375363733282
 20
122.9612123360821982
 30
0.0
 40
6.6666666666666847
 50
180.0
 51
270.0
  0
LINE
  5
3B32
  8
0
 10
309.9044708697064721
 20
126.9948290510009059
 30
0.0
 11
309.9044708697064721
 21
122.9612123360821982
 31
0.0
  0
LINE
  5
3B33
  8
0
 10
408.9044708697064152
 20
122.9612123360821982
 30
0.0
 11
408.9044708697064152
 21
126.9948290510009059
 31
0.0
  0
ARC
  5
3B34
  8
0
 10
388.9044708697060742
 20
126.9948290510009059
 30
0.0
 40
20.0000000000004192
 50
0.0
 51
14.9999999999944595
  0
ARC
  5
3B35
  8
0
 10
329.9044708697069268
 20
126.9948290510009059
 30
0.0
 40
20.0000000000003091
 50
165.0000000000055138
 51
180.0
  0
LINE
  5
3B36
  8
0
 10
311.2936011426270966
 20
134.8121837596204955
 30
0.0
 11
310.5859543439252093
 21
132.1712099530514877
 31
0.0
  0
LINE
  5
3B37
  8
0
 10
408.2229873954877917
 20
132.1712099530514877
 30
0.0
 11
407.5153405967857907
 21
134.8121837596204955
 31
0.0
  0
ARC
  5
3B38
  8
0
 10
405.5834889442077724
 20
134.2945456694154132
 30
0.0
 40
2.0000000000000031
 50
14.9999999999944595
 51
90.0
  0
ARC
  5
3B39
  8
0
 10
313.2254527952051717
 20
134.2945456694154132
 30
0.0
 40
2.0
 50
90.0
 51
165.0000000000055138
  0
ARC
  5
3B47
  8
0
 10
394.0691429558730761
 20
112.2945456694154984
 30
0.0
 40
4.000000000000143
 50
90.0
 51
97.5669880781490235
  0
LINE
  5
3B59
  8
0
 10
368.4044708697065857
 20
99.29454566941547
 30
0.0
 11
350.4044708697064721
 21
99.29454566941547
 31
0.0
  0
LINE
  5
3B5A
  8
0
 10
371.6544708697064721
 20
99.4945456694154728
 30
0.0
 11
347.1544708697064721
 21
99.4945456694154728
 31
0.0
  0
LINE
  5
3B5C
  8
0
 10
402.2378042030396728
 20
116.2945456694154984
 30
0.0
 11
316.5711375363733282
 21
116.2945456694154984
 31
0.0
  0
LINE
  5
3B61
  8
0
 10
405.5834889442077724
 20
136.2945456694154984
 30
0.0
 11
313.2254527952051717
 21
136.2945456694154984
 31
0.0
  0
LINE
  5
3B66
  8
0
 10
372.4044708697064721
 20
101.2945456694191932
 30
0.0
 11
346.4044708697064721
 21
101.2945456694155979
 31
0.0
  0
POLYLINE
  5
3B71
  8
0
 66
     1
 10
0.0
 20
0.0
 30
0.0
  0
VERTEX
  5
9CAC
  8
0
 10
375.011309047120676
 20
116.2425826289887993
 30
0.0
  0
VERTEX
  5
9CAD
  8
0
 10
374.9812467026520153
 20
116.2409964298870051
 30
0.0
  0
VERTEX
  5
9CAE
  8
0
 10
374.9209574440245092
 20
116.2375613016859006
 30
0.0
  0
VERTEX
  5
9CAF
  8
0
 10
374.8604800655813278
 20
116.2337577582713948
 30
0.0
  0
VERTEX
  5
9CB0
  8
0
 10
374.8301825966361775
 20
116.2317106853278972
 30
0.0
  0
SEQEND
  5
9CB1
  8
0
  0
POLYLINE
  5
3B73
  8
0
 66
     1
 10
0.0
 20
0.0
 30
0.0
  0
VERTEX
  5
9CB2
  8
0
 10
374.4605267100320134
 20
116.1977516810966051
 30
0.0
  0
VERTEX
  5
9CB3
  8
0
 10
374.3999500607062032
 20
116.190314784318403
 30
0.0
  0
VERTEX
  5
9CB4
  8
0
 10
374.279913246904016
 20
116.1736737735117941
 30
0.0
  0
VERTEX
  5
9CB5
  8
0
 10
374.1615787512200768
 20
116.1544856372947976
 30
0.0
  0
VERTEX
  5
9CB6
  8
0
 10
374.1031283909230183
 20
116.1438623506750929
 30
0.0
  0
SEQEND
  5
9CB7
  8
0
  0
LINE
  5
3B75
  8
0
 10
375.7031643352985952
 20
116.2597119792299054
 30
0.0
 11
393.5424019041893189
 21
116.2597119792279017
 31
0.0
  0
POLYLINE
  5
3B76
  8
0
 66
     1
 10
0.0
 20
0.0
 30
0.0
  0
VERTEX
  5
9CB8
  8
0
 10
372.4044708697057899
 20
114.6895373314485056
 30
0.0
  0
VERTEX
  5
9CB9
  8
0
 10
372.4050439555542198
 20
114.7169355865084981
 30
0.0
  0
VERTEX
  5
9CBA
  8
0
 10
372.4096110991879982
 20
114.7724967185753968
 30
0.0
  0
VERTEX
  5
9CBB
  8
0
 10
372.4186873678464735
 20
114.8289219618608996
 30
0.0
  0
VERTEX
  5
9CBC
  8
0
 10
372.4248911985193899
 20
114.8574006348962939
 30
0.0
  0
VERTEX
  5
9CBD
  8
0
 10
372.4321880925936057
 20
114.8860220007237984
 30
0.0
  0
VERTEX
  5
9CBE
  8
0
 10
372.449997192787805
 20
114.9435867492504002
 30
0.0
  0
VERTEX
  5
9CBF
  8
0
 10
372.4719675889455175
 20
115.0014022724181046
 30
0.0
  0
VERTEX
  5
9CC0
  8
0
 10
372.4979219975252249
 20
115.0592538798589004
 30
0.0
  0
VERTEX
  5
9CC1
  8
0
 10
372.5276531752670053
 20
115.1169265985060974
 30
0.0
  0
VERTEX
  5
9CC2
  8
0
 10
372.5609215152114757
 20
115.1742016003775007
 30
0.0
  0
VERTEX
  5
9CC3
  8
0
 10
372.5787981841937153
 20
115.202620813564593
 30
0.0
  0
VERTEX
  5
9CC4
  8
0
 10
372.597454349993825
 20
115.2308575957047054
 30
0.0
  0
VERTEX
  5
9CC5
  8
0
 10
372.6369873959670826
 20
115.2867288014786027
 30
0.0
  0
VERTEX
  5
9CC6
  8
0
 10
372.6802551739241949
 20
115.3429217041233983
 30
0.0
  0
VERTEX
  5
9CC7
  8
0
 10
372.7276414894220125
 20
115.3997946285550995
 30
0.0
  0
VERTEX
  5
9CC8
  8
0
 10
372.7791195281517957
 20
115.4571432851959969
 30
0.0
  0
VERTEX
  5
9CC9
  8
0
 10
372.8346346882356102
 20
115.5147653393923974
 30
0.0
  0
VERTEX
  5
9CCA
  8
0
 10
372.8638824310738755
 20
115.5436169471933994
 30
0.0
  0
VERTEX
  5
9CCB
  8
0
 10
372.8941084088617117
 20
115.572463535887394
 30
0.0
  0
VERTEX
  5
9CCC
  8
0
 10
372.9574387164669247
 20
115.6300450169756004
 30
0.0
  0
VERTEX
  5
9CCD
  8
0
 10
373.0244964254372917
 20
115.687317457347504
 30
0.0
  0
VERTEX
  5
9CCE
  8
0
 10
373.0593762303643075
 20
115.7157787778761957
 30
0.0
  0
VERTEX
  5
9CCF
  8
0
 10
373.0679083680549866
 20
115.7225872032625063
 30
0.0
  0
VERTEX
  5
9CD0
  8
0
 10
373.0851447805104044
 20
115.7360428635096952
 30
0.0
  0
VERTEX
  5
9CD1
  8
0
 10
373.1026105201730729
 20
115.7492846768499959
 30
0.0
  0
VERTEX
  5
9CD2
  8
0
 10
373.1114293140158225
 20
115.7558257966810942
 30
0.0
  0
VERTEX
  5
9CD3
  8
0
 10
373.1203053498506961
 20
115.7623139433903958
 30
0.0
  0
VERTEX
  5
9CD4
  8
0
 10
373.1382290218137996
 20
115.7751319770570007
 30
0.0
  0
VERTEX
  5
9CD5
  8
0
 10
373.1563812794850037
 20
115.7877401061856943
 30
0.0
  0
VERTEX
  5
9CD6
  8
0
 10
373.1747618591562059
 20
115.8001396740216933
 30
0.0
  0
VERTEX
  5
9CD7
  8
0
 10
373.1933704917245791
 20
115.8123320391215998
 30
0.0
  0
VERTEX
  5
9CD8
  8
0
 10
373.2122069044344244
 20
115.8243185756629998
 30
0.0
  0
VERTEX
  5
9CD9
  8
0
 10
373.2217104425347998
 20
115.8302350919813932
 30
0.0
  0
VERTEX
  5
9CDA
  8
0
 10
373.2312708226129985
 20
115.8361006736606953
 30
0.0
  0
VERTEX
  5
9CDB
  8
0
 10
373.2505619713887768
 20
115.8476797390907933
 30
0.0
  0
VERTEX
  5
9CDC
  8
0
 10
373.2700800773779974
 20
115.8590571939260059
 30
0.0
  0
VERTEX
  5
9CDD
  8
0
 10
373.2898248703236277
 20
115.8702344760837946
 30
0.0
  0
VERTEX
  5
9CDE
  8
0
 10
373.3097960846761225
 20
115.8812130392923052
 30
0.0
  0
VERTEX
  5
9CDF
  8
0
 10
373.329993461097672
 20
115.8919943528744056
 30
0.0
  0
VERTEX
  5
9CE0
  8
0
 10
373.3401768810900876
 20
115.8973115044139064
 30
0.0
  0
VERTEX
  5
9CE1
  8
0
 10
373.3504167478768068
 20
115.9025799014600011
 30
0.0
  0
VERTEX
  5
9CE2
  8
0
 10
373.3710657022364785
 20
115.9129711846239985
 30
0.0
  0
VERTEX
  5
9CE3
  8
0
 10
373.3919400915220876
 20
115.9231697164624961
 30
0.0
  0
VERTEX
  5
9CE4
  8
0
 10
373.4024617545871934
 20
115.9281971776424029
 30
0.0
  0
VERTEX
  5
9CE5
  8
0
 10
373.4130396942526886
 20
115.9331770251085061
 30
0.0
  0
VERTEX
  5
9CE6
  8
0
 10
373.4343643010199116
 20
115.9429946521936046
 30
0.0
  0
VERTEX
  5
9CE7
  8
0
 10
373.4559137152198787
 20
115.9526241522642067
 30
0.0
  0
VERTEX
  5
9CE8
  8
0
 10
373.4667726673093853
 20
115.9573688438433976
 30
0.0
  0
VERTEX
  5
9CE9
  8
0
 10
373.4776877536046982
 20
115.9620670921575964
 30
0.0
  0
VERTEX
  5
9CEA
  8
0
 10
373.4996862466358039
 20
115.9713250503452997
 30
0.0
  0
VERTEX
  5
9CEB
  8
0
 10
373.5219090386291896
 20
115.980399616250196
 30
0.0
  0
VERTEX
  5
9CEC
  8
0
 10
373.5443559876774202
 20
115.9892923895460939
 30
0.0
  0
VERTEX
  5
9CED
  8
0
 10
373.5670269653347191
 20
115.9980049794474013
 30
0.0
  0
VERTEX
  5
9CEE
  8
0
 10
373.5899218560576855
 20
116.0065390039934954
 30
0.0
  0
VERTEX
  5
9CEF
  8
0
 10
373.6014532360434259
 20
116.0107395621339066
 30
0.0
  0
VERTEX
  5
9CF0
  8
0
 10
373.613040556386693
 20
116.0148960893391035
 30
0.0
  0
VERTEX
  5
9CF1
  8
0
 10
373.6363829738613163
 20
116.0230778690552
 30
0.0
  0
VERTEX
  5
9CF2
  8
0
 10
373.6599490256592162
 20
116.0310859834490032
 30
0.0
  0
VERTEX
  5
9CF3
  8
0
 10
373.6837386369550131
 20
116.0389220789085982
 30
0.0
  0
VERTEX
  5
9CF4
  8
0
 10
373.7077176550931199
 20
116.0465770963608065
 30
0.0
  0
VERTEX
  5
9CF5
  8
0
 10
373.7318449122806783
 20
116.0540411745518981
 30
0.0
  0
VERTEX
  5
9CF6
  8
0
 10
373.7439632409635806
 20
116.0577025352770022
 30
0.0
  0
VERTEX
  5
9CF7
  8
0
 10
373.7561175704242942
 20
116.0613172716549997
 30
0.0
  0
VERTEX
  5
9CF8
  8
0
 10
373.7805328299436951
 20
116.0684083509368065
 30
0.0
  0
VERTEX
  5
9CF9
  8
0
 10
373.8050878814299267
 20
116.0753173645454979
 30
0.0
  0
VERTEX
  5
9CFA
  8
0
 10
373.8297799067386222
 20
116.0820472532753058
 30
0.0
  0
VERTEX
  5
9CFB
  8
0
 10
373.8546060800749729
 20
116.0886009462729049
 30
0.0
  0
VERTEX
  5
9CFC
  8
0
 10
373.8795635690648851
 20
116.0949813606938932
 30
0.0
  0
VERTEX
  5
9CFD
  8
0
 10
373.8920906702730917
 20
116.0981074966744018
 30
0.0
  0
VERTEX
  5
9CFE
  8
0
 10
373.9046495358060156
 20
116.1011914013079007
 30
0.0
  0
VERTEX
  5
9CFF
  8
0
 10
373.9298611378945907
 20
116.1072339600547991
 30
0.0
  0
VERTEX
  5
9D00
  8
0
 10
373.9551955294206209
 20
116.1131119155553932
 30
0.0
  0
VERTEX
  5
9D01
  8
0
 10
373.9806498619273043
 20
116.1188281325795941
 30
0.0
  0
VERTEX
  5
9D02
  8
0
 10
374.0062212853295023
 20
116.1243854614717037
 30
0.0
  0
VERTEX
  5
9D03
  8
0
 10
374.0319069487846946
 20
116.1297867375382964
 30
0.0
  0
VERTEX
  5
9D04
  8
0
 10
374.0447917296397122
 20
116.1324297375240064
 30
0.0
  0
VERTEX
  5
9D05
  8
0
 10
374.0577040015128887
 20
116.135034780397902
 30
0.0
  0
VERTEX
  5
9D06
  8
0
 10
374.083609593560027
 20
116.1401323932988987
 30
0.0
  0
VERTEX
  5
9D07
  8
0
 10
374.109620876499207
 20
116.1450823624017943
 30
0.0
  0
VERTEX
  5
9D08
  8
0
 10
374.1357350040661913
 20
116.1498874560348042
 30
0.0
  0
VERTEX
  5
9D09
  8
0
 10
374.1619491327242031
 20
116.1545504239174988
 30
0.0
  0
VERTEX
  5
9D0A
  8
0
 10
374.188260422153121
 20
116.1590739963620962
 30
0.0
  0
VERTEX
  5
9D0B
  8
0
 10
374.2014516155387014
 20
116.1612843570078013
 30
0.0
  0
VERTEX
  5
9D0C
  8
0
 10
374.2146660356593202
 20
116.1634608834463052
 30
0.0
  0
VERTEX
  5
9D0D
  8
0
 10
374.241163140502124
 20
116.1677137741643975
 30
0.0
  0
VERTEX
  5
9D0E
  8
0
 10
374.2677489081311819
 20
116.1718353355579012
 30
0.0
  0
VERTEX
  5
9D0F
  8
0
 10
374.281074157752812
 20
116.173847694986506
 30
0.0
  0
VERTEX
  5
9D10
  8
0
 10
374.2944205143340923
 20
116.1758282118233012
 30
0.0
  0
VERTEX
  5
9D11
  8
0
 10
374.3211751392863107
 20
116.1796950234001997
 30
0.0
  0
VERTEX
  5
9D12
  8
0
 10
374.3480099675028896
 20
116.1834383660442995
 30
0.0
  0
VERTEX
  5
9D13
  8
0
 10
374.3614565791478981
 20
116.1852645407072941
 30
0.0
  0
VERTEX
  5
9D14
  8
0
 10
374.3749221876872753
 20
116.1870608098774937
 30
0.0
  0
VERTEX
  5
9D15
  8
0
 10
374.4019089924731816
 20
116.1905648984236024
 30
0.0
  0
VERTEX
  5
9D16
  8
0
 10
374.4289675780566995
 20
116.1939531476259049
 30
0.0
  0
VERTEX
  5
9D17
  8
0
 10
374.4560951437155722
 20
116.197228044848103
 30
0.0
  0
VERTEX
  5
9D18
  8
0
 10
374.4832768184461997
 20
116.200390669059999
 30
0.0
  0
VERTEX
  5
9D19
  8
0
 10
374.5104771206706005
 20
116.2034400029524051
 30
0.0
  0
VERTEX
  5
9D1A
  8
0
 10
374.524082512029679
 20
116.2049230122668035
 30
0.0
  0
VERTEX
  5
9D1B
  8
0
 10
374.5376908201570245
 20
116.2063787256128933
 30
0.0
  0
VERTEX
  5
9D1C
  8
0
 10
374.5649144598169755
 20
116.209209671576005
 30
0.0
  0
VERTEX
  5
9D1D
  8
0
 10
374.5921445910718717
 20
116.2119356213536037
 30
0.0
  0
VERTEX
  5
9D1E
  8
0
 10
374.6193777733337811
 20
116.2145593010305049
 30
0.0
  0
VERTEX
  5
9D1F
  8
0
 10
374.6466105735203769
 20
116.2170833818537972
 30
0.0
  0
VERTEX
  5
9D20
  8
0
 10
374.6738395656050216
 20
116.219510479813394
 30
0.0
  0
VERTEX
  5
9D21
  8
0
 10
374.6874515648020179
 20
116.2206884625007035
 30
0.0
  0
VERTEX
  5
9D22
  8
0
 10
374.7010613302014121
 20
116.2218431552104931
 30
0.0
  0
VERTEX
  5
9D23
  8
0
 10
374.7282724541844914
 20
116.2240839122170968
 30
0.0
  0
VERTEX
  5
9D24
  8
0
 10
374.7554695303476819
 20
116.2262351984213069
 30
0.0
  0
VERTEX
  5
9D25
  8
0
 10
374.7826491570934877
 20
116.2282994043604987
 30
0.0
  0
VERTEX
  5
9D26
  8
0
 10
374.8098079381613275
 20
116.2302788630378956
 30
0.0
  0
VERTEX
  5
9D27
  8
0
 10
374.8369424823875988
 20
116.232175849426298
 30
0.0
  0
VERTEX
  5
9D28
  8
0
 10
374.8504996072890094
 20
116.2330941104468991
 30
0.0
  0
VERTEX
  5
9D29
  8
0
 10
374.8640494034996209
 20
116.2339925799532949
 30
0.0
  0
VERTEX
  5
9D2A
  8
0
 10
374.8911253199397038
 20
116.235731211971995
 30
0.0
  0
VERTEX
  5
9D2B
  8
0
 10
374.9181668547190043
 20
116.2373938432115068
 30
0.0
  0
VERTEX
  5
9D2C
  8
0
 10
374.9451706352991778
 20
116.2389825112103949
 30
0.0
  0
VERTEX
  5
9D2D
  8
0
 10
374.9721332934980182
 20
116.2404991927325995
 30
0.0
  0
VERTEX
  5
9D2E
  8
0
 10
374.999051465418006
 20
116.241945803159993
 30
0.0
  0
VERTEX
  5
9D2F
  8
0
 10
375.0124928189637217
 20
116.2426434133328996
 30
0.0
  0
VERTEX
  5
9D30
  8
0
 10
375.0259217913936141
 20
116.2433241958689933
 30
0.0
  0
VERTEX
  5
9D31
  8
0
 10
375.0527409159549279
 20
116.2446361615834007
 30
0.0
  0
VERTEX
  5
9D32
  8
0
 10
375.0795054878037718
 20
116.245883427707895
 30
0.0
  0
VERTEX
  5
9D33
  8
0
 10
375.1062121597984174
 20
116.2470676576374018
 30
0.0
  0
VERTEX
  5
9D34
  8
0
 10
375.1328575889424997
 20
116.2481904500454988
 30
0.0
  0
VERTEX
  5
9D35
  8
0
 10
375.1594333039814728
 20
116.249253138355499
 30
0.0
  0
VERTEX
  5
9D36
  8
0
 10
375.1726875191042154
 20
116.2497621699422012
 30
0.0
  0
VERTEX
  5
9D37
  8
0
 10
375.1859182654438882
 20
116.2502565691052041
 30
0.0
  0
VERTEX
  5
9D38
  8
0
 10
375.2123077389214814
 20
116.2512022318320959
 30
0.0
  0
VERTEX
  5
9D39
  8
0
 10
375.2385985027053152
 20
116.2520916031228069
 30
0.0
  0
VERTEX
  5
9D3A
  8
0
 10
375.2517058633756051
 20
116.2525156204440009
 30
0.0
  0
VERTEX
  5
9D3B
  8
0
 10
375.2647873412660147
 20
116.2529260846960995
 30
0.0
  0
VERTEX
  5
9D3C
  8
0
 10
375.2908710449759724
 20
116.2537070033019972
 30
0.0
  0
VERTEX
  5
9D3D
  8
0
 10
375.3168464098645813
 20
116.2544356106050003
 30
0.0
  0
VERTEX
  5
9D3E
  8
0
 10
375.3297924655042266
 20
116.2547806680993006
 30
0.0
  0
VERTEX
  5
9D3F
  8
0
 10
375.3427102374063224
 20
116.2551130830502046
 30
0.0
  0
VERTEX
  5
9D40
  8
0
 10
375.3684593343375013
 20
116.2557405217102939
 30
0.0
  0
VERTEX
  5
9D41
  8
0
 10
375.3940905125003269
 20
116.2563189521186047
 30
0.0
  0
VERTEX
  5
9D42
  8
0
 10
375.4196005887101251
 20
116.256849324083106
 30
0.0
  0
VERTEX
  5
9D43
  8
0
 10
375.4449863846426183
 20
116.2573325114852025
 30
0.0
  0
VERTEX
  5
9D44
  8
0
 10
375.4702447267388834
 20
116.2577693120604039
 30
0.0
  0
VERTEX
  5
9D45
  8
0
 10
375.4828251121439848
 20
116.2579705457018946
 30
0.0
  0
VERTEX
  5
9D46
  8
0
 10
375.4953724461241791
 20
116.2581604471641015
 30
0.0
  0
VERTEX
  5
9D47
  8
0
 10
375.5203663785375738
 20
116.2585065615185016
 30
0.0
  0
VERTEX
  5
9D48
  8
0
 10
375.5452233642677129
 20
116.2588082229437987
 30
0.0
  0
VERTEX
  5
9D49
  8
0
 10
375.5699402480934168
 20
116.2590659220719971
 30
0.0
  0
VERTEX
  5
9D4A
  8
0
 10
375.5945138792224043
 20
116.2592800720417046
 30
0.0
  0
VERTEX
  5
9D4B
  8
0
 10
375.6189411112270022
 20
116.2594510081768959
 30
0.0
  0
VERTEX
  5
9D4C
  8
0
 10
375.6310988345531996
 20
116.259520354426698
 30
0.0
  0
VERTEX
  5
9D4D
  8
0
 10
375.643216458867812
 20
116.2595789773273935
 30
0.0
  0
VERTEX
  5
9D4E
  8
0
 10
375.667324718763723
 20
116.259664138381396
 30
0.0
  0
VERTEX
  5
9D4F
  8
0
 10
375.6912613036790276
 20
116.2597066663019945
 30
0.0
  0
VERTEX
  5
9D50
  8
0
 10
375.7031643352985952
 20
116.2597119792299054
 30
0.0
  0
SEQEND
  5
9D51
  8
0
  0
LINE
  5
4625
  8
0
 10
372.4044708697057899
 20
114.6895373314485056
 30
0.0
 11
372.4044708697064721
 21
101.2945456694174027
 31
0.0
  0
ARC
  5
5CF2
  8
0
 10
324.7397987835399817
 20
112.2945456694154984
 30
0.0
 40
4.000000000000143
 50
82.4330119218509765
 51
90.0
  0
POLYLINE
  5
5CF3
  8
0
 66
     1
 10
0.0
 20
0.0
 30
0.0
  0
VERTEX
  5
9D52
  8
0
 10
343.7976326922923818
 20
116.2425826289887993
 30
0.0
  0
VERTEX
  5
9D53
  8
0
 10
343.8276950367609857
 20
116.2409964298870051
 30
0.0
  0
VERTEX
  5
9D54
  8
0
 10
343.8879842953886055
 20
116.2375613016859006
 30
0.0
  0
VERTEX
  5
9D55
  8
0
 10
343.9484616738316731
 20
116.2337577582713948
 30
0.0
  0
VERTEX
  5
9D56
  8
0
 10
343.9787591427768803
 20
116.2317106853278972
 30
0.0
  0
SEQEND
  5
9D57
  8
0
  0
POLYLINE
  5
5CF4
  8
0
 66
     1
 10
0.0
 20
0.0
 30
0.0
  0
VERTEX
  5
9D58
  8
0
 10
344.3484150293809876
 20
116.1977516810966051
 30
0.0
  0
VERTEX
  5
9D59
  8
0
 10
344.4089916787067978
 20
116.190314784318403
 30
0.0
  0
VERTEX
  5
9D5A
  8
0
 10
344.5290284925090987
 20
116.1736737735117941
 30
0.0
  0
VERTEX
  5
9D5B
  8
0
 10
344.647362988192981
 20
116.1544856372947976
 30
0.0
  0
VERTEX
  5
9D5C
  8
0
 10
344.7058133484900964
 20
116.1438623506750929
 30
0.0
  0
SEQEND
  5
9D5D
  8
0
  0
LINE
  5
5CF5
  8
0
 10
343.1057774041144057
 20
116.2597119792299054
 30
0.0
 11
325.2665398352236821
 21
116.2597119792279017
 31
0.0
  0
POLYLINE
  5
5CF6
  8
0
 66
     1
 10
0.0
 20
0.0
 30
0.0
  0
VERTEX
  5
9D5E
  8
0
 10
346.404470869707211
 20
114.6895373314485056
 30
0.0
  0
VERTEX
  5
9D5F
  8
0
 10
346.4038977838587812
 20
114.7169355865084981
 30
0.0
  0
VERTEX
  5
9D60
  8
0
 10
346.3993306402250028
 20
114.7724967185753968
 30
0.0
  0
VERTEX
  5
9D61
  8
0
 10
346.3902543715665843
 20
114.8289219618608996
 30
0.0
  0
VERTEX
  5
9D62
  8
0
 10
346.3840505408937247
 20
114.8574006348962939
 30
0.0
  0
VERTEX
  5
9D63
  8
0
 10
346.376753646819509
 20
114.8860220007237984
 30
0.0
  0
VERTEX
  5
9D64
  8
0
 10
346.3589445466253096
 20
114.9435867492504002
 30
0.0
  0
VERTEX
  5
9D65
  8
0
 10
346.3369741504675972
 20
115.0014022724181046
 30
0.0
  0
VERTEX
  5
9D66
  8
0
 10
346.3110197418878897
 20
115.0592538798589004
 30
0.0
  0
VERTEX
  5
9D67
  8
0
 10
346.2812885641461094
 20
115.1169265985060974
 30
0.0
  0
VERTEX
  5
9D68
  8
0
 10
346.2480202242015821
 20
115.1742016003775007
 30
0.0
  0
VERTEX
  5
9D69
  8
0
 10
346.2301435552192856
 20
115.202620813564593
 30
0.0
  0
VERTEX
  5
9D6A
  8
0
 10
346.2114873894192897
 20
115.2308575957047054
 30
0.0
  0
VERTEX
  5
9D6B
  8
0
 10
346.1719543434459183
 20
115.2867288014786027
 30
0.0
  0
VERTEX
  5
9D6C
  8
0
 10
346.1286865654888061
 20
115.3429217041233983
 30
0.0
  0
VERTEX
  5
9D6D
  8
0
 10
346.0813002499909885
 20
115.3997946285550995
 30
0.0
  0
VERTEX
  5
9D6E
  8
0
 10
346.0298222112613189
 20
115.4571432851959969
 30
0.0
  0
VERTEX
  5
9D6F
  8
0
 10
345.9743070511775045
 20
115.5147653393923974
 30
0.0
  0
VERTEX
  5
9D70
  8
0
 10
345.9450593083391823
 20
115.5436169471933994
 30
0.0
  0
VERTEX
  5
9D71
  8
0
 10
345.9148333305514029
 20
115.572463535887394
 30
0.0
  0
VERTEX
  5
9D72
  8
0
 10
345.85150302294619
 20
115.6300450169756004
 30
0.0
  0
VERTEX
  5
9D73
  8
0
 10
345.784445313975823
 20
115.687317457347504
 30
0.0
  0
VERTEX
  5
9D74
  8
0
 10
345.7495655090488071
 20
115.7157787778761957
 30
0.0
  0
VERTEX
  5
9D75
  8
0
 10
345.7410333713581281
 20
115.7225872032625063
 30
0.0
  0
VERTEX
  5
9D76
  8
0
 10
345.7237969589025965
 20
115.7360428635096952
 30
0.0
  0
VERTEX
  5
9D77
  8
0
 10
345.706331219239928
 20
115.7492846768499959
 30
0.0
  0
VERTEX
  5
9D78
  8
0
 10
345.6975124253971785
 20
115.7558257966810942
 30
0.0
  0
VERTEX
  5
9D79
  8
0
 10
345.6886363895624186
 20
115.7623139433903958
 30
0.0
  0
VERTEX
  5
9D7A
  8
0
 10
345.6707127175993151
 20
115.7751319770570007
 30
0.0
  0
VERTEX
  5
9D7B
  8
0
 10
345.6525604599279973
 20
115.7877401061856943
 30
0.0
  0
VERTEX
  5
9D7C
  8
0
 10
345.6341798802569087
 20
115.8001396740216933
 30
0.0
  0
VERTEX
  5
9D7D
  8
0
 10
345.6155712476884219
 20
115.8123320391215998
 30
0.0
  0
VERTEX
  5
9D7E
  8
0
 10
345.5967348349786903
 20
115.8243185756629998
 30
0.0
  0
VERTEX
  5
9D7F
  8
0
 10
345.5872312968783149
 20
115.8302350919813932
 30
0.0
  0
VERTEX
  5
9D80
  8
0
 10
345.5776709168001162
 20
115.8361006736606953
 30
0.0
  0
VERTEX
  5
9D81
  8
0
 10
345.5583797680242242
 20
115.8476797390907933
 30
0.0
  0
VERTEX
  5
9D82
  8
0
 10
345.5388616620350035
 20
115.8590571939260059
 30
0.0
  0
VERTEX
  5
9D83
  8
0
 10
345.5191168690893733
 20
115.8702344760837946
 30
0.0
  0
VERTEX
  5
9D84
  8
0
 10
345.4991456547368784
 20
115.8812130392923052
 30
0.0
  0
VERTEX
  5
9D85
  8
0
 10
345.4789482783152721
 20
115.8919943528744056
 30
0.0
  0
VERTEX
  5
9D86
  8
0
 10
345.4687648583230271
 20
115.8973115044139064
 30
0.0
  0
VERTEX
  5
9D87
  8
0
 10
345.4585249915361942
 20
115.9025799014600011
 30
0.0
  0
VERTEX
  5
9D88
  8
0
 10
345.4378760371765793
 20
115.9129711846239985
 30
0.0
  0
VERTEX
  5
9D89
  8
0
 10
345.417001647891027
 20
115.9231697164624961
 30
0.0
  0
VERTEX
  5
9D8A
  8
0
 10
345.4064799848258076
 20
115.9281971776424029
 30
0.0
  0
VERTEX
  5
9D8B
  8
0
 10
345.395902045160426
 20
115.9331770251085061
 30
0.0
  0
VERTEX
  5
9D8C
  8
0
 10
345.374577438393203
 20
115.9429946521936046
 30
0.0
  0
VERTEX
  5
9D8D
  8
0
 10
345.3530280241931223
 20
115.9526241522642067
 30
0.0
  0
VERTEX
  5
9D8E
  8
0
 10
345.3421690721036157
 20
115.9573688438433976
 30
0.0
  0
VERTEX
  5
9D8F
  8
0
 10
345.3312539858084165
 20
115.9620670921575964
 30
0.0
  0
VERTEX
  5
9D90
  8
0
 10
345.3092554927773108
 20
115.9713250503452997
 30
0.0
  0
VERTEX
  5
9D91
  8
0
 10
345.2870327007838114
 20
115.980399616250196
 30
0.0
  0
VERTEX
  5
9D92
  8
0
 10
345.2645857517356944
 20
115.9892923895460939
 30
0.0
  0
VERTEX
  5
9D93
  8
0
 10
345.2419147740783956
 20
115.9980049794474013
 30
0.0
  0
VERTEX
  5
9D94
  8
0
 10
345.2190198833553723
 20
116.0065390039934954
 30
0.0
  0
VERTEX
  5
9D95
  8
0
 10
345.207488503369575
 20
116.0107395621339066
 30
0.0
  0
VERTEX
  5
9D96
  8
0
 10
345.195901183026308
 20
116.0148960893391035
 30
0.0
  0
VERTEX
  5
9D97
  8
0
 10
345.1725587655517984
 20
116.0230778690552
 30
0.0
  0
VERTEX
  5
9D98
  8
0
 10
345.1489927137537848
 20
116.0310859834490032
 30
0.0
  0
VERTEX
  5
9D99
  8
0
 10
345.1252031024579878
 20
116.0389220789085982
 30
0.0
  0
VERTEX
  5
9D9A
  8
0
 10
345.1012240843199947
 20
116.0465770963608065
 30
0.0
  0
VERTEX
  5
9D9B
  8
0
 10
345.0770968271323227
 20
116.0540411745518981
 30
0.0
  0
VERTEX
  5
9D9C
  8
0
 10
345.0649784984494772
 20
116.0577025352770022
 30
0.0
  0
VERTEX
  5
9D9D
  8
0
 10
345.0528241689888205
 20
116.0613172716549997
 30
0.0
  0
VERTEX
  5
9D9E
  8
0
 10
345.0284089094694195
 20
116.0684083509368065
 30
0.0
  0
VERTEX
  5
9D9F
  8
0
 10
345.0038538579831879
 20
116.0753173645454979
 30
0.0
  0
VERTEX
  5
9DA0
  8
0
 10
344.9791618326743787
 20
116.0820472532753058
 30
0.0
  0
VERTEX
  5
9DA1
  8
0
 10
344.954335659338085
 20
116.0886009462729049
 30
0.0
  0
VERTEX
  5
9DA2
  8
0
 10
344.9293781703481727
 20
116.0949813606938932
 30
0.0
  0
VERTEX
  5
9DA3
  8
0
 10
344.9168510691400229
 20
116.0981074966744018
 30
0.0
  0
VERTEX
  5
9DA4
  8
0
 10
344.9042922036069854
 20
116.1011914013079007
 30
0.0
  0
VERTEX
  5
9DA5
  8
0
 10
344.879080601518524
 20
116.1072339600547991
 30
0.0
  0
VERTEX
  5
9DA6
  8
0
 10
344.85374620999238
 20
116.1131119155553932
 30
0.0
  0
VERTEX
  5
9DA7
  8
0
 10
344.8282918774858103
 20
116.1188281325795941
 30
0.0
  0
VERTEX
  5
9DA8
  8
0
 10
344.8027204540834987
 20
116.1243854614717037
 30
0.0
  0
VERTEX
  5
9DA9
  8
0
 10
344.7770347906284201
 20
116.1297867375382964
 30
0.0
  0
VERTEX
  5
9DAA
  8
0
 10
344.7641500097734024
 20
116.1324297375240064
 30
0.0
  0
VERTEX
  5
9DAB
  8
0
 10
344.751237737900226
 20
116.135034780397902
 30
0.0
  0
VERTEX
  5
9DAC
  8
0
 10
344.725332145852974
 20
116.1401323932988987
 30
0.0
  0
VERTEX
  5
9DAD
  8
0
 10
344.6993208629137939
 20
116.1450823624017943
 30
0.0
  0
VERTEX
  5
9DAE
  8
0
 10
344.6732067353469233
 20
116.1498874560348042
 30
0.0
  0
VERTEX
  5
9DAF
  8
0
 10
344.6469926066887979
 20
116.1545504239174988
 30
0.0
  0
VERTEX
  5
9DB0
  8
0
 10
344.6206813172599936
 20
116.1590739963620962
 30
0.0
  0
VERTEX
  5
9DB1
  8
0
 10
344.6074901238742996
 20
116.1612843570078013
 30
0.0
  0
VERTEX
  5
9DB2
  8
0
 10
344.5942757037537945
 20
116.1634608834463052
 30
0.0
  0
VERTEX
  5
9DB3
  8
0
 10
344.5677785989109907
 20
116.1677137741643975
 30
0.0
  0
VERTEX
  5
9DB4
  8
0
 10
344.5411928312818191
 20
116.1718353355579012
 30
0.0
  0
VERTEX
  5
9DB5
  8
0
 10
344.5278675816603027
 20
116.173847694986506
 30
0.0
  0
VERTEX
  5
9DB6
  8
0
 10
344.5145212250789086
 20
116.1758282118233012
 30
0.0
  0
VERTEX
  5
9DB7
  8
0
 10
344.4877666001266903
 20
116.1796950234001997
 30
0.0
  0
VERTEX
  5
9DB8
  8
0
 10
344.4609317719102251
 20
116.1834383660442995
 30
0.0
  0
VERTEX
  5
9DB9
  8
0
 10
344.4474851602651029
 20
116.1852645407072941
 30
0.0
  0
VERTEX
  5
9DBA
  8
0
 10
344.4340195517257825
 20
116.1870608098774937
 30
0.0
  0
VERTEX
  5
9DBB
  8
0
 10
344.4070327469398762
 20
116.1905648984236024
 30
0.0
  0
VERTEX
  5
9DBC
  8
0
 10
344.3799741613564152
 20
116.1939531476259049
 30
0.0
  0
VERTEX
  5
9DBD
  8
0
 10
344.3528465956973719
 20
116.197228044848103
 30
0.0
  0
VERTEX
  5
9DBE
  8
0
 10
344.3256649209668012
 20
116.200390669059999
 30
0.0
  0
VERTEX
  5
9DBF
  8
0
 10
344.2984646187425142
 20
116.2034400029524051
 30
0.0
  0
VERTEX
  5
9DC0
  8
0
 10
344.2848592273833219
 20
116.2049230122668035
 30
0.0
  0
VERTEX
  5
9DC1
  8
0
 10
344.2712509192560901
 20
116.2063787256128933
 30
0.0
  0
VERTEX
  5
9DC2
  8
0
 10
344.2440272795960254
 20
116.209209671576005
 30
0.0
  0
VERTEX
  5
9DC3
  8
0
 10
344.2167971483410724
 20
116.2119356213536037
 30
0.0
  0
VERTEX
  5
9DC4
  8
0
 10
344.1895639660792767
 20
116.2145593010305049
 30
0.0
  0
VERTEX
  5
9DC5
  8
0
 10
344.1623311658926241
 20
116.2170833818537972
 30
0.0
  0
VERTEX
  5
9DC6
  8
0
 10
344.1351021738079794
 20
116.219510479813394
 30
0.0
  0
VERTEX
  5
9DC7
  8
0
 10
344.1214901746110968
 20
116.2206884625007035
 30
0.0
  0
VERTEX
  5
9DC8
  8
0
 10
344.1078804092117025
 20
116.2218431552104931
 30
0.0
  0
VERTEX
  5
9DC9
  8
0
 10
344.0806692852285096
 20
116.2240839122170968
 30
0.0
  0
VERTEX
  5
9DCA
  8
0
 10
344.0534722090653759
 20
116.2262351984213069
 30
0.0
  0
VERTEX
  5
9DCB
  8
0
 10
344.0262925823196269
 20
116.2282994043604987
 30
0.0
  0
VERTEX
  5
9DCC
  8
0
 10
343.9991338012517872
 20
116.2302788630378956
 30
0.0
  0
VERTEX
  5
9DCD
  8
0
 10
343.9719992570255158
 20
116.232175849426298
 30
0.0
  0
VERTEX
  5
9DCE
  8
0
 10
343.9584421321241052
 20
116.2330941104468991
 30
0.0
  0
VERTEX
  5
9DCF
  8
0
 10
343.9448923359133801
 20
116.2339925799532949
 30
0.0
  0
VERTEX
  5
9DD0
  8
0
 10
343.9178164194734109
 20
116.235731211971995
 30
0.0
  0
VERTEX
  5
9DD1
  8
0
 10
343.8907748846941104
 20
116.2373938432115068
 30
0.0
  0
VERTEX
  5
9DD2
  8
0
 10
343.86377110411388
 20
116.2389825112103949
 30
0.0
  0
VERTEX
  5
9DD3
  8
0
 10
343.8368084459149827
 20
116.2404991927325995
 30
0.0
  0
VERTEX
  5
9DD4
  8
0
 10
343.8098902739949949
 20
116.241945803159993
 30
0.0
  0
VERTEX
  5
9DD5
  8
0
 10
343.796448920449393
 20
116.2426434133328996
 30
0.0
  0
VERTEX
  5
9DD6
  8
0
 10
343.7830199480195006
 20
116.2433241958689933
 30
0.0
  0
VERTEX
  5
9DD7
  8
0
 10
343.756200823458073
 20
116.2446361615834007
 30
0.0
  0
VERTEX
  5
9DD8
  8
0
 10
343.729436251609286
 20
116.245883427707895
 30
0.0
  0
VERTEX
  5
9DD9
  8
0
 10
343.7027295796146973
 20
116.2470676576374018
 30
0.0
  0
VERTEX
  5
9DDA
  8
0
 10
343.6760841504705013
 20
116.2481904500454988
 30
0.0
  0
VERTEX
  5
9DDB
  8
0
 10
343.649508435431585
 20
116.249253138355499
 30
0.0
  0
VERTEX
  5
9DDC
  8
0
 10
343.6362542203088992
 20
116.2497621699422012
 30
0.0
  0
VERTEX
  5
9DDD
  8
0
 10
343.6230234739692264
 20
116.2502565691052041
 30
0.0
  0
VERTEX
  5
9DDE
  8
0
 10
343.5966340004915764
 20
116.2512022318320959
 30
0.0
  0
VERTEX
  5
9DDF
  8
0
 10
343.5703432367077994
 20
116.2520916031228069
 30
0.0
  0
VERTEX
  5
9DE0
  8
0
 10
343.5572358760375096
 20
116.2525156204440009
 30
0.0
  0
VERTEX
  5
9DE1
  8
0
 10
343.5441543981469863
 20
116.2529260846960995
 30
0.0
  0
VERTEX
  5
9DE2
  8
0
 10
343.5180706944369717
 20
116.2537070033019972
 30
0.0
  0
VERTEX
  5
9DE3
  8
0
 10
343.4920953295484196
 20
116.2544356106050003
 30
0.0
  0
VERTEX
  5
9DE4
  8
0
 10
343.4791492739088881
 20
116.2547806680993006
 30
0.0
  0
VERTEX
  5
9DE5
  8
0
 10
343.4662315020066785
 20
116.2551130830502046
 30
0.0
  0
VERTEX
  5
9DE6
  8
0
 10
343.4404824050756133
 20
116.2557405217102939
 30
0.0
  0
VERTEX
  5
9DE7
  8
0
 10
343.4148512269127878
 20
116.2563189521186047
 30
0.0
  0
VERTEX
  5
9DE8
  8
0
 10
343.3893411507029896
 20
116.256849324083106
 30
0.0
  0
VERTEX
  5
9DE9
  8
0
 10
343.3639553547704963
 20
116.2573325114852025
 30
0.0
  0
VERTEX
  5
9DEA
  8
0
 10
343.3386970126741744
 20
116.2577693120604039
 30
0.0
  0
VERTEX
  5
9DEB
  8
0
 10
343.3261166272690161
 20
116.2579705457018946
 30
0.0
  0
VERTEX
  5
9DEC
  8
0
 10
343.3135692932888787
 20
116.2581604471641015
 30
0.0
  0
VERTEX
  5
9DED
  8
0
 10
343.288575360875484
 20
116.2585065615185016
 30
0.0
  0
VERTEX
  5
9DEE
  8
0
 10
343.2637183751452881
 20
116.2588082229437987
 30
0.0
  0
VERTEX
  5
9DEF
  8
0
 10
343.2390014913195841
 20
116.2590659220719971
 30
0.0
  0
VERTEX
  5
9DF0
  8
0
 10
343.2144278601905967
 20
116.2592800720417046
 30
0.0
  0
VERTEX
  5
9DF1
  8
0
 10
343.1900006281861124
 20
116.2594510081768959
 30
0.0
  0
VERTEX
  5
9DF2
  8
0
 10
343.1778429048599151
 20
116.259520354426698
 30
0.0
  0
VERTEX
  5
9DF3
  8
0
 10
343.1657252805453027
 20
116.2595789773273935
 30
0.0
  0
VERTEX
  5
9DF4
  8
0
 10
343.1416170206493916
 20
116.259664138381396
 30
0.0
  0
VERTEX
  5
9DF5
  8
0
 10
343.117680435734087
 20
116.2597066663019945
 30
0.0
  0
VERTEX
  5
9DF6
  8
0
 10
343.1057774041144057
 20
116.2597119792299054
 30
0.0
  0
SEQEND
  5
9DF7
  8
0
  0
LINE
  5
5CF7
  8
0
 10
346.404470869707211
 20
114.6895373314485056
 30
0.0
 11
346.4044708697065857
 21
101.2945456694174027
 31
0.0
  0
LINE
  5
5D3F
  8
2
 10
368.4044708697065857
 20
99.4945456694155155
 30
0.0
 11
368.4044708697065857
 21
115.2945456694154984
 31
0.0
  0
LINE
  5
5D43
  8
2
 10
369.6544708697064721
 20
119.2945456694153989
 30
0.0
 11
369.6544708697064721
 21
116.2945456694154984
 31
0.0
  0
LINE
  5
5D44
  8
2
 10
349.1544708697064721
 20
119.2945456694153989
 30
0.0
 11
349.1544708697064721
 21
116.2945456694154984
 31
0.0
  0
LINE
  5
5D75
  8
2
 10
369.6544708697064721
 20
119.2945456694153989
 30
0.0
 11
349.1544708697064721
 21
119.2945456694153989
 31
0.0
  0
LINE
  5
5D7D
  8
2
 10
367.4044708697064721
 20
115.2945456694154984
 30
0.0
 11
368.4044708697065857
 21
115.2945456694154984
 31
0.0
  0
LINE
  5
5D7F
  8
2
 10
367.4044708697065857
 20
116.2945456694154984
 30
0.0
 11
367.4044708697064721
 21
115.2945456694154984
 31
0.0
  0
LINE
  5
5D81
  8
2
 10
350.4044708697064721
 20
99.4945456694155155
 30
0.0
 11
350.4044708697064721
 21
115.2945456694154984
 31
0.0
  0
LINE
  5
5D82
  8
2
 10
351.4044708697064721
 20
115.2945456694154984
 30
0.0
 11
350.4044708697064721
 21
115.2945456694154984
 31
0.0
  0
LINE
  5
5D83
  8
2
 10
351.4044708697064721
 20
116.2945456694154984
 30
0.0
 11
351.4044708697064721
 21
115.2945456694154984
 31
0.0
  0
LINE
  5
5D84
  8
2
 10
369.6544708697064721
 20
116.2945456694154984
 30
0.0
 11
349.1544708697064721
 21
116.2945456694154984
 31
0.0
  0
CIRCLE
  5
8A66
  8
0
 10
204.4054837647240106
 20
314.4281480277218748
 30
0.0
 40
9.0
  0
LINE
  5
8A67
  8
1
 10
188.42178558972779
 20
314.4281480277218748
 30
0.0
 11
220.389181939720288
 21
314.4281480277218748
 31
0.0
  0
CIRCLE
  5
8A68
  8
0
 10
204.4054837647240106
 20
277.4281480277218748
 30
0.0
 40
49.5
  0
CIRCLE
  5
8A69
  8
0
 10
204.4054837647240106
 20
277.4281480277218748
 30
0.0
 40
46.1790180745012577
  0
ARC
  5
8A6A
  8
0
 10
204.4054837647240106
 20
277.8629169202598064
 30
0.0
 40
36.6484626047255375
 50
104.1216139541465964
 51
75.8783860458534321
  0
POLYLINE
  5
8A6C
  8
0
 66
     1
 10
0.0
 20
0.0
 30
0.0
  0
VERTEX
  5
9DF8
  8
0
 10
221.4541772303169864
 20
307.00415834742779
 30
0.0
  0
VERTEX
  5
9DF9
  8
0
 10
221.4362694065007986
 20
307.0143695913718034
 30
0.0
  0
VERTEX
  5
9DFA
  8
0
 10
221.4000114524627065
 20
307.0343723489297076
 30
0.0
  0
VERTEX
  5
9DFB
  8
0
 10
221.3631802076903057
 20
307.0537938592901241
 30
0.0
  0
VERTEX
  5
9DFC
  8
0
 10
221.3445559999211127
 20
307.0632787782183755
 30
0.0
  0
VERTEX
  5
9DFD
  8
0
 10
221.3257962608433047
 20
307.0726090746737782
 30
0.0
  0
VERTEX
  5
9DFE
  8
0
 10
221.2878810715641009
 20
307.0907940207994784
 30
0.0
  0
VERTEX
  5
9DFF
  8
0
 10
221.249456858536405
 20
307.1083258615544196
 30
0.0
  0
VERTEX
  5
9E00
  8
0
 10
221.210546483123693
 20
307.1251829527565178
 30
0.0
  0
VERTEX
  5
9E01
  8
0
 10
221.1711733283059118
 20
307.1413448851520798
 30
0.0
  0
VERTEX
  5
9E02
  8
0
 10
221.1313611726723138
 20
307.15679251665739
 30
0.0
  0
VERTEX
  5
9E03
  8
0
 10
221.1112979763713895
 20
307.164242839655401
 30
0.0
  0
VERTEX
  5
9E04
  8
0
 10
221.0911340592977865
 20
307.1715079937426935
 30
0.0
  0
VERTEX
  5
9E05
  8
0
 10
221.0505161593966079
 20
307.1854747617351791
 30
0.0
  0
VERTEX
  5
9E06
  8
0
 10
221.0095316760464073
 20
307.1986775496189921
 30
0.0
  0
VERTEX
  5
9E07
  8
0
 10
220.9682051738481903
 20
307.2111022238356099
 30
0.0
  0
VERTEX
  5
9E08
  8
0
 10
220.9265619281258921
 20
307.2227356836344256
 30
0.0
  0
VERTEX
  5
9E09
  8
0
 10
220.8846278589095959
 20
307.2335659069977964
 30
0.0
  0
VERTEX
  5
9E0A
  8
0
 10
220.8635600138007078
 20
307.2386763559217115
 30
0.0
  0
VERTEX
  5
9E0B
  8
0
 10
220.8424294170702922
 20
307.2435820018250752
 30
0.0
  0
VERTEX
  5
9E0C
  8
0
 10
220.7999934687420875
 20
307.2527742462307856
 30
0.0
  0
VERTEX
  5
9E0D
  8
0
 10
220.7573471779168983
 20
307.2611341181304283
 30
0.0
  0
VERTEX
  5
9E0E
  8
0
 10
220.7359536949288952
 20
307.2649995841946975
 30
0.0
  0
VERTEX
  5
9E0F
  8
0
 10
220.7145178870819962
 20
307.2686543142090727
 30
0.0
  0
VERTEX
  5
9E10
  8
0
 10
220.6715329957737879
 20
307.275328758300077
 30
0.0
  0
VERTEX
  5
9E11
  8
0
 10
220.6284198369413048
 20
307.2811525991074859
 30
0.0
  0
VERTEX
  5
9E12
  8
0
 10
220.6068236496037116
 20
307.2837443591855049
 30
0.0
  0
VERTEX
  5
9E13
  8
0
 10
220.5852044064899076
 20
307.2861223173142093
 30
0.0
  0
VERTEX
  5
9E14
  8
0
 10
220.5419030510477114
 20
307.2902362833858092
 30
0.0
  0
VERTEX
  5
9E15
  8
0
 10
220.4985404082746925
 20
307.2934926184935875
 30
0.0
  0
VERTEX
  5
9E16
  8
0
 10
220.4551441516427985
 20
307.2958902523999996
 30
0.0
  0
VERTEX
  5
9E17
  8
0
 10
220.4117423009602987
 20
307.2974292871587068
 30
0.0
  0
VERTEX
  5
9E18
  8
0
 10
220.3683631020886082
 20
307.2981110284640067
 30
0.0
  0
VERTEX
  5
9E19
  8
0
 10
220.3466908561719038
 20
307.2981311564645921
 30
0.0
  0
VERTEX
  5
9E1A
  8
0
 10
220.3250349068669038
 20
307.2979380060556878
 30
0.0
  0
VERTEX
  5
9E1B
  8
0
 10
220.2817860531644101
 20
307.2969139833431882
 30
0.0
  0
VERTEX
  5
9E1C
  8
0
 10
220.2386447449314915
 20
307.2950439563271061
 30
0.0
  0
VERTEX
  5
9E1D
  8
0
 10
220.1956389320982908
 20
307.2923341418323844
 30
0.0
  0
VERTEX
  5
9E1E
  8
0
 10
220.1527961901412027
 20
307.2887919549770004
 30
0.0
  0
VERTEX
  5
9E1F
  8
0
 10
220.1101436175144102
 20
307.2844259777912725
 30
0.0
  0
VERTEX
  5
9E20
  8
0
 10
220.088897035139297
 20
307.2819370685671174
 30
0.0
  0
VERTEX
  5
9E21
  8
0
 10
220.0677080897447979
 20
307.2792459660150826
 30
0.0
  0
VERTEX
  5
9E22
  8
0
 10
220.0255167032524071
 20
307.2732629179055266
 30
0.0
  0
VERTEX
  5
9E23
  8
0
 10
219.9835967272213111
 20
307.2664891145906267
 30
0.0
  0
VERTEX
  5
9E24
  8
0
 10
219.9419754692596882
 20
307.2589381417006962
 30
0.0
  0
VERTEX
  5
9E25
  8
0
 10
219.9006801440939967
 20
307.2506248991662119
 30
0.0
  0
VERTEX
  5
9E26
  8
0
 10
219.8597377452890953
 20
307.2415655994900021
 30
0.0
  0
VERTEX
  5
9E27
  8
0
 10
219.8394072373685901
 20
307.2367616005611808
 30
0.0
  0
VERTEX
  5
9E28
  8
0
 10
219.8191749198352056
 20
307.2317777547203832
 30
0.0
  0
VERTEX
  5
9E29
  8
0
 10
219.7790178453543888
 20
307.2212801522343284
 30
0.0
  0
VERTEX
  5
9E2A
  8
0
 10
219.7392921095934923
 20
307.2100928193314076
 30
0.0
  0
VERTEX
  5
9E2B
  8
0
 10
219.7000009263933009
 20
307.1982302143741208
 30
0.0
  0
VERTEX
  5
9E2C
  8
0
 10
219.6608282747633041
 20
307.1856002246868798
 30
0.0
  0
VERTEX
  5
9E2D
  8
0
 10
219.6216869355448864
 20
307.1721646908687262
 30
0.0
  0
VERTEX
  5
9E2E
  8
0
 10
219.6021378869581042
 20
307.1651441293491871
 30
0.0
  0
VERTEX
  5
9E2F
  8
0
 10
219.5826085038561075
 20
307.1579214901951786
 30
0.0
  0
VERTEX
  5
9E30
  8
0
 10
219.5436244007395885
 20
307.142869827281686
 30
0.0
  0
VERTEX
  5
9E31
  8
0
 10
219.5047657553539011
 20
307.1270101991863726
 30
0.0
  0
VERTEX
  5
9E32
  8
0
 10
219.4660632922210937
 20
307.1103443506515873
 30
0.0
  0
VERTEX
  5
9E33
  8
0
 10
219.4275472231884123
 20
307.0928752194272988
 30
0.0
  0
VERTEX
  5
9E34
  8
0
 10
219.3892471438855125
 20
307.0746068715649244
 30
0.0
  0
VERTEX
  5
9E35
  8
0
 10
219.3701871560290897
 20
307.0651745523356908
 30
0.0
  0
VERTEX
  5
9E36
  8
0
 10
219.3511919345708918
 20
307.0555444265224878
 30
0.0
  0
VERTEX
  5
9E37
  8
0
 10
219.3134096653805045
 20
307.0356939719040952
 30
0.0
  0
VERTEX
  5
9E38
  8
0
 10
219.2759275168612874
 20
307.0150624736839973
 30
0.0
  0
VERTEX
  5
9E39
  8
0
 10
219.2573072769262978
 20
307.0044562588919916
 30
0.0
  0
VERTEX
  5
9E3A
  8
0
 10
219.2387719745350125
 20
306.9936578359540249
 30
0.0
  0
VERTEX
  5
9E3B
  8
0
 10
219.2019692285622057
 20
306.9714891176619176
 30
0.0
  0
VERTEX
  5
9E3C
  8
0
 10
219.1655451518932125
 20
306.9485665452406238
 30
0.0
  0
VERTEX
  5
9E3D
  8
0
 10
219.1474830861045859
 20
306.936826068132973
 30
0.0
  0
VERTEX
  5
9E3E
  8
0
 10
219.1295251910767945
 20
306.9249014688929265
 30
0.0
  0
VERTEX
  5
9E3F
  8
0
 10
219.0939342634667071
 20
306.9005063108693889
 30
0.0
  0
VERTEX
  5
9E40
  8
0
 10
219.0587966607085946
 20
306.8753945058597878
 30
0.0
  0
VERTEX
  5
9E41
  8
0
 10
219.0241359583068004
 20
306.8495804334854142
 30
0.0
  0
VERTEX
  5
9E42
  8
0
 10
218.9899749311300923
 20
306.8230793428361949
 30
0.0
  0
VERTEX
  5
9E43
  8
0
 10
218.9563354747731125
 20
306.7959072689415052
 30
0.0
  0
VERTEX
  5
9E44
  8
0
 10
218.9397179195640888
 20
306.7820748167242755
 30
0.0
  0
VERTEX
  5
9E45
  8
0
 10
218.9232385003572006
 20
306.768080913240226
 30
0.0
  0
VERTEX
  5
9E46
  8
0
 10
218.8906981201785129
 20
306.7396124090251988
 30
0.0
  0
VERTEX
  5
9E47
  8
0
 10
218.8587296505361053
 20
306.7105156596390998
 30
0.0
  0
VERTEX
  5
9E48
  8
0
 10
218.8273524098358962
 20
306.6808093242045175
 30
0.0
  0
VERTEX
  5
9E49
  8
0
 10
218.7965851492571971
 20
306.6505130883405172
 30
0.0
  0
VERTEX
  5
9E4A
  8
0
 10
218.7664459523402911
 20
306.6196476045566897
 30
0.0
  0
VERTEX
  5
9E4B
  8
0
 10
218.7516173232961876
 20
306.6040080968006123
 30
0.0
  0
VERTEX
  5
9E4C
  8
0
 10
218.7369521421109084
 20
306.5882344259176762
 30
0.0
  0
VERTEX
  5
9E4D
  8
0
 10
218.7081201955581093
 20
306.5562959330209765
 30
0.0
  0
VERTEX
  5
9E4E
  8
0
 10
218.679965665298397
 20
306.5238552542567732
 30
0.0
  0
VERTEX
  5
9E4F
  8
0
 10
218.652503108298589
 20
306.4909361792441018
 30
0.0
  0
VERTEX
  5
9E50
  8
0
 10
218.6257460215653907
 20
306.4575630652728933
 30
0.0
  0
VERTEX
  5
9E51
  8
0
 10
218.5997067855068963
 20
306.4237607374994923
 30
0.0
  0
VERTEX
  5
9E52
  8
0
 10
218.5869599284172011
 20
306.406706499321615
 30
0.0
  0
VERTEX
  5
9E53
  8
0
 10
218.5743967096717881
 20
306.3895545134874965
 30
0.0
  0
VERTEX
  5
9E54
  8
0
 10
218.5498263175493037
 20
306.3549705864649013
 30
0.0
  0
VERTEX
  5
9E55
  8
0
 10
218.5260053809477938
 20
306.320036138417322
 30
0.0
  0
VERTEX
  5
9E56
  8
0
 10
218.5029428177163027
 20
306.2847792686853836
 30
0.0
  0
VERTEX
  5
9E57
  8
0
 10
218.4806465965727114
 20
306.2492289134489738
 30
0.0
  0
VERTEX
  5
9E58
  8
0
 10
218.4591236515699961
 20
306.2134147597795959
 30
0.0
  0
VERTEX
  5
9E59
  8
0
 10
218.4486540226710076
 20
306.1954182186984212
 30
0.0
  0
VERTEX
  5
9E5A
  8
0
 10
218.4383798059587036
 20
306.177367154304477
 30
0.0
  0
VERTEX
  5
9E5B
  8
0
 10
218.4184197052157117
 20
306.1411170063943814
 30
0.0
  0
VERTEX
  5
9E5C
  8
0
 10
218.399246759043308
 20
306.1046956856567931
 30
0.0
  0
VERTEX
  5
9E5D
  8
0
 10
218.3808630921693918
 20
306.0681349134017069
 30
0.0
  0
VERTEX
  5
9E5E
  8
0
 10
218.3631828990006056
 20
306.0312817628746984
 30
0.0
  0
VERTEX
  5
9E5F
  8
0
 10
218.3460764391967075
 20
305.993850799249401
 30
0.0
  0
VERTEX
  5
9E60
  8
0
 10
218.3377461684648893
 20
305.974924065791015
 30
0.0
  0
VERTEX
  5
9E61
  8
0
 10
218.3295690371938065
 20
305.9558605193874996
 30
0.0
  0
VERTEX
  5
9E62
  8
0
 10
218.3136871971059918
 20
305.9173353836278011
 30
0.0
  0
VERTEX
  5
9E63
  8
0
 10
218.2984560682895108
 20
305.8783006724200959
 30
0.0
  0
VERTEX
  5
9E64
  8
0
 10
218.2910919950273865
 20
305.8586003184929041
 30
0.0
  0
VERTEX
  5
9E65
  8
0
 10
218.2838993882041905
 20
305.8387823562035237
 30
0.0
  0
VERTEX
  5
9E66
  8
0
 10
218.2700394375096096
 20
305.7988069601943835
 30
0.0
  0
VERTEX
  5
9E67
  8
0
 10
218.2568970073409957
 20
305.758401423545024
 30
0.0
  0
VERTEX
  5
9E68
  8
0
 10
218.2506009471090067
 20
305.7380458481213168
 30
0.0
  0
VERTEX
  5
9E69
  8
0
 10
218.2444913788833958
 20
305.7175929524029243
 30
0.0
  0
VERTEX
  5
9E6A
  8
0
 10
218.2328403155349008
 20
305.6764088665386794
 30
0.0
  0
VERTEX
  5
9E6B
  8
0
 10
218.2219600904946901
 20
305.6348765283760827
 30
0.0
  0
VERTEX
  5
9E6C
  8
0
 10
218.211865635033007
 20
305.5930237771169118
 30
0.0
  0
VERTEX
  5
9E6D
  8
0
 10
218.2025705913486888
 20
305.5508791865181024
 30
0.0
  0
VERTEX
  5
9E6E
  8
0
 10
218.1940872598790975
 20
305.5084719530215125
 30
0.0
  0
VERTEX
  5
9E6F
  8
0
 10
218.1901534516672996
 20
305.4871791066307765
 30
0.0
  0
VERTEX
  5
9E70
  8
0
 10
218.1864265533722005
 20
305.4658317627115025
 30
0.0
  0
VERTEX
  5
9E71
  8
0
 10
218.1795979632883871
 20
305.4229886566233176
 30
0.0
  0
VERTEX
  5
9E72
  8
0
 10
218.1736095383830047
 20
305.3799728939795273
 30
0.0
  0
VERTEX
  5
9E73
  8
0
 10
218.1684678754390916
 20
305.3368148129404176
 30
0.0
  0
VERTEX
  5
9E74
  8
0
 10
218.1641781222596137
 20
305.2935446884852126
 30
0.0
  0
VERTEX
  5
9E75
  8
0
 10
218.1607439007862013
 20
305.2501912539489126
 30
0.0
  0
VERTEX
  5
9E76
  8
0
 10
218.1593482102256019
 20
305.2284891527140758
 30
0.0
  0
VERTEX
  5
9E77
  8
0
 10
218.1581671206000124
 20
305.2067745329204058
 30
0.0
  0
VERTEX
  5
9E78
  8
0
 10
218.1564493644505944
 20
305.1633231588547233
 30
0.0
  0
VERTEX
  5
9E79
  8
0
 10
218.1555909783122047
 20
305.119868035096772
 30
0.0
  0
VERTEX
  5
9E7A
  8
0
 10
218.1554837647240959
 20
305.0981487281803197
 30
0.0
  0
SEQEND
  5
9E7B
  8
0
  0
ARC
  5
8A6D
  8
0
 10
204.4054837647240106
 20
277.4281480277218748
 30
0.0
 40
34.1379310344827616
 50
299.9607206757153222
 51
60.0392795589197874
  0
POLYLINE
  5
8A6E
  8
0
 66
     1
 10
0.0
 20
0.0
 30
0.0
  0
VERTEX
  5
9E7C
  8
0
 10
218.1554837647240959
 20
249.7581473272632024
 30
0.0
  0
VERTEX
  5
9E7D
  8
0
 10
218.1555909783122047
 20
249.7364280203470059
 30
0.0
  0
VERTEX
  5
9E7E
  8
0
 10
218.1564493644505944
 20
249.6929728965889126
 30
0.0
  0
VERTEX
  5
9E7F
  8
0
 10
218.1581671206000124
 20
249.6495215225232869
 30
0.0
  0
VERTEX
  5
9E80
  8
0
 10
218.1593482102256019
 20
249.6278069027295032
 30
0.0
  0
VERTEX
  5
9E81
  8
0
 10
218.1607439007862013
 20
249.6061048014948085
 30
0.0
  0
VERTEX
  5
9E82
  8
0
 10
218.1641781222596137
 20
249.5627513669583948
 30
0.0
  0
VERTEX
  5
9E83
  8
0
 10
218.1684678754390916
 20
249.5194812425029909
 30
0.0
  0
VERTEX
  5
9E84
  8
0
 10
218.1736095383830047
 20
249.4763231614643928
 30
0.0
  0
VERTEX
  5
9E85
  8
0
 10
218.1795979632883871
 20
249.4333073988200908
 30
0.0
  0
VERTEX
  5
9E86
  8
0
 10
218.1864265533722005
 20
249.3904642927321902
 30
0.0
  0
VERTEX
  5
9E87
  8
0
 10
218.1901534516672996
 20
249.3691169488126036
 30
0.0
  0
VERTEX
  5
9E88
  8
0
 10
218.1940872598790975
 20
249.3478241024224076
 30
0.0
  0
VERTEX
  5
9E89
  8
0
 10
218.2025705913486888
 20
249.3054168689255903
 30
0.0
  0
VERTEX
  5
9E8A
  8
0
 10
218.211865635033007
 20
249.2632722783266104
 30
0.0
  0
VERTEX
  5
9E8B
  8
0
 10
218.2219600904946901
 20
249.2214195270676953
 30
0.0
  0
VERTEX
  5
9E8C
  8
0
 10
218.2328403155349008
 20
249.1798871889050986
 30
0.0
  0
VERTEX
  5
9E8D
  8
0
 10
218.2444913788833958
 20
249.1387031030409105
 30
0.0
  0
VERTEX
  5
9E8E
  8
0
 10
218.2506009471090067
 20
249.1182502073224043
 30
0.0
  0
VERTEX
  5
9E8F
  8
0
 10
218.2568970073409957
 20
249.0978946318986118
 30
0.0
  0
VERTEX
  5
9E90
  8
0
 10
218.2700394375096096
 20
249.0574890952495082
 30
0.0
  0
VERTEX
  5
9E91
  8
0
 10
218.2838993882041905
 20
249.0175136992403111
 30
0.0
  0
VERTEX
  5
9E92
  8
0
 10
218.2910919950273865
 20
248.9976957369509876
 30
0.0
  0
VERTEX
  5
9E93
  8
0
 10
218.2984560682895108
 20
248.9779953830235968
 30
0.0
  0
VERTEX
  5
9E94
  8
0
 10
218.3136871971059918
 20
248.9389606718160906
 30
0.0
  0
VERTEX
  5
9E95
  8
0
 10
218.3295690371938065
 20
248.9004355360561078
 30
0.0
  0
VERTEX
  5
9E96
  8
0
 10
218.3377461684648893
 20
248.8813719896525924
 30
0.0
  0
VERTEX
  5
9E97
  8
0
 10
218.3460764391967075
 20
248.8624452561944906
 30
0.0
  0
VERTEX
  5
9E98
  8
0
 10
218.3631828990006056
 20
248.825014292569108
 30
0.0
  0
VERTEX
  5
9E99
  8
0
 10
218.3808630921693918
 20
248.7881611420422132
 30
0.0
  0
VERTEX
  5
9E9A
  8
0
 10
218.399246759043308
 20
248.7516003697867859
 30
0.0
  0
VERTEX
  5
9E9B
  8
0
 10
218.4184197052157117
 20
248.7151790490489986
 30
0.0
  0
VERTEX
  5
9E9C
  8
0
 10
218.4383798059587036
 20
248.678928901139102
 30
0.0
  0
VERTEX
  5
9E9D
  8
0
 10
218.4486540226710076
 20
248.6608778367449872
 30
0.0
  0
VERTEX
  5
9E9E
  8
0
 10
218.4591236515701951
 20
248.6428812956642957
 30
0.0
  0
VERTEX
  5
9E9F
  8
0
 10
218.4806465965727114
 20
248.6070671419946052
 30
0.0
  0
VERTEX
  5
9EA0
  8
0
 10
218.5029428177163027
 20
248.5715167867579964
 30
0.0
  0
VERTEX
  5
9EA1
  8
0
 10
218.5260053809477938
 20
248.5362599170263138
 30
0.0
  0
VERTEX
  5
9EA2
  8
0
 10
218.5498263175493037
 20
248.5013254689785072
 30
0.0
  0
VERTEX
  5
9EA3
  8
0
 10
218.5743967096717881
 20
248.466741541955912
 30
0.0
  0
VERTEX
  5
9EA4
  8
0
 10
218.5869599284172011
 20
248.4495895561217935
 30
0.0
  0
VERTEX
  5
9EA5
  8
0
 10
218.5997067855068963
 20
248.4325353179443994
 30
0.0
  0
VERTEX
  5
9EA6
  8
0
 10
218.6257460215653907
 20
248.3987329901707994
 30
0.0
  0
VERTEX
  5
9EA7
  8
0
 10
218.652503108298589
 20
248.3653598761995056
 30
0.0
  0
VERTEX
  5
9EA8
  8
0
 10
218.679965665298397
 20
248.3324408011868911
 30
0.0
  0
VERTEX
  5
9EA9
  8
0
 10
218.7081201955581093
 20
248.3000001224226025
 30
0.0
  0
VERTEX
  5
9EAA
  8
0
 10
218.7369521421109084
 20
248.2680616295259028
 30
0.0
  0
VERTEX
  5
9EAB
  8
0
 10
218.7516173232961876
 20
248.2522879586431941
 30
0.0
  0
VERTEX
  5
9EAC
  8
0
 10
218.7664459523402911
 20
248.2366484508868893
 30
0.0
  0
VERTEX
  5
9EAD
  8
0
 10
218.7965851492571971
 20
248.2057829671030902
 30
0.0
  0
VERTEX
  5
9EAE
  8
0
 10
218.8273524098358962
 20
248.175486731238891
 30
0.0
  0
VERTEX
  5
9EAF
  8
0
 10
218.8587296505361053
 20
248.1457803958047066
 30
0.0
  0
VERTEX
  5
9EB0
  8
0
 10
218.8906981201785129
 20
248.1166836464182097
 30
0.0
  0
VERTEX
  5
9EB1
  8
0
 10
218.9232385003572006
 20
248.0882151422034951
 30
0.0
  0
VERTEX
  5
9EB2
  8
0
 10
218.9397179195640888
 20
248.0742212387195877
 30
0.0
  0
VERTEX
  5
9EB3
  8
0
 10
218.9563354747731125
 20
248.0603887865021022
 30
0.0
  0
VERTEX
  5
9EB4
  8
0
 10
218.9899749311300923
 20
248.0332167126076968
 30
0.0
  0
VERTEX
  5
9EB5
  8
0
 10
219.0241359583068004
 20
248.0067156219579942
 30
0.0
  0
VERTEX
  5
9EB6
  8
0
 10
219.0587966607085946
 20
247.9809015495835922
 30
0.0
  0
VERTEX
  5
9EB7
  8
0
 10
219.0939342634667071
 20
247.9557897445739911
 30
0.0
  0
VERTEX
  5
9EB8
  8
0
 10
219.1295251910767092
 20
247.9313945865507094
 30
0.0
  0
VERTEX
  5
9EB9
  8
0
 10
219.1474830861045859
 20
247.9194699873106913
 30
0.0
  0
VERTEX
  5
9EBA
  8
0
 10
219.1655451518932125
 20
247.9077295102030121
 30
0.0
  0
VERTEX
  5
9EBB
  8
0
 10
219.2019692285622057
 20
247.8848069377814909
 30
0.0
  0
VERTEX
  5
9EBC
  8
0
 10
219.2387719745350125
 20
247.8626382194896962
 30
0.0
  0
VERTEX
  5
9EBD
  8
0
 10
219.2573072769262126
 20
247.8518397965513884
 30
0.0
  0
VERTEX
  5
9EBE
  8
0
 10
219.2759275168612874
 20
247.8412335817598944
 30
0.0
  0
VERTEX
  5
9EBF
  8
0
 10
219.3134096653805045
 20
247.8206020835393133
 30
0.0
  0
VERTEX
  5
9EC0
  8
0
 10
219.3511919345708918
 20
247.8007516289214038
 30
0.0
  0
VERTEX
  5
9EC1
  8
0
 10
219.3701871560290897
 20
247.7911215031078029
 30
0.0
  0
VERTEX
  5
9EC2
  8
0
 10
219.3892471438855125
 20
247.7816891838789104
 30
0.0
  0
VERTEX
  5
9EC3
  8
0
 10
219.4275472231884123
 20
247.7634208360161097
 30
0.0
  0
VERTEX
  5
9EC4
  8
0
 10
219.4660632922210937
 20
247.7459517047919917
 30
0.0
  0
VERTEX
  5
9EC5
  8
0
 10
219.5047657553537874
 20
247.7292858562570075
 30
0.0
  0
VERTEX
  5
9EC6
  8
0
 10
219.5436244007393896
 20
247.7134262281616941
 30
0.0
  0
VERTEX
  5
9EC7
  8
0
 10
219.5826085038561075
 20
247.6983745652484004
 30
0.0
  0
VERTEX
  5
9EC8
  8
0
 10
219.6021378869581042
 20
247.6911519260943919
 30
0.0
  0
VERTEX
  5
9EC9
  8
0
 10
219.6216869355448864
 20
247.6841313645747107
 30
0.0
  0
VERTEX
  5
9ECA
  8
0
 10
219.6608282747633041
 20
247.6706958307566993
 30
0.0
  0
VERTEX
  5
9ECB
  8
0
 10
219.7000009263933009
 20
247.6580658410694866
 30
0.0
  0
VERTEX
  5
9ECC
  8
0
 10
219.7392921095934923
 20
247.6462032361125125
 30
0.0
  0
VERTEX
  5
9ECD
  8
0
 10
219.7790178453543888
 20
247.6350159032093927
 30
0.0
  0
VERTEX
  5
9ECE
  8
0
 10
219.8191749198352056
 20
247.6245183007231958
 30
0.0
  0
VERTEX
  5
9ECF
  8
0
 10
219.8394072373685901
 20
247.6195344548825119
 30
0.0
  0
VERTEX
  5
9ED0
  8
0
 10
219.8597377452890953
 20
247.6147304559536906
 30
0.0
  0
VERTEX
  5
9ED1
  8
0
 10
219.9006801440939967
 20
247.6056711562775092
 30
0.0
  0
VERTEX
  5
9ED2
  8
0
 10
219.9419754692596882
 20
247.5973579137427123
 30
0.0
  0
VERTEX
  5
9ED3
  8
0
 10
219.9835967272213111
 20
247.5898069408532933
 30
0.0
  0
VERTEX
  5
9ED4
  8
0
 10
220.0255167032524071
 20
247.5830331375381093
 30
0.0
  0
VERTEX
  5
9ED5
  8
0
 10
220.0677080897447979
 20
247.5770500894284964
 30
0.0
  0
VERTEX
  5
9ED6
  8
0
 10
220.088897035139297
 20
247.5743589868762911
 30
0.0
  0
VERTEX
  5
9ED7
  8
0
 10
220.1101436175144102
 20
247.5718700776521075
 30
0.0
  0
VERTEX
  5
9ED8
  8
0
 10
220.1527961901412027
 20
247.5675041004666923
 30
0.0
  0
VERTEX
  5
9ED9
  8
0
 10
220.1956389320982908
 20
247.5639619136115073
 30
0.0
  0
VERTEX
  5
9EDA
  8
0
 10
220.2386447449314915
 20
247.5612520991163024
 30
0.0
  0
VERTEX
  5
9EDB
  8
0
 10
220.2817860531644101
 20
247.5593820721007035
 30
0.0
  0
VERTEX
  5
9EDC
  8
0
 10
220.3250349068669038
 20
247.5583580493878912
 30
0.0
  0
VERTEX
  5
9EDD
  8
0
 10
220.3466908561719038
 20
247.5581648989789869
 30
0.0
  0
VERTEX
  5
9EDE
  8
0
 10
220.3683631020886082
 20
247.558185026979686
 30
0.0
  0
VERTEX
  5
9EDF
  8
0
 10
220.4117423009602987
 20
247.5588667682847017
 30
0.0
  0
VERTEX
  5
9EE0
  8
0
 10
220.4551441516427985
 20
247.5604058030436931
 30
0.0
  0
VERTEX
  5
9EE1
  8
0
 10
220.4985404082746925
 20
247.5628034369497925
 30
0.0
  0
VERTEX
  5
9EE2
  8
0
 10
220.5419030510477114
 20
247.566059772057713
 30
0.0
  0
VERTEX
  5
9EE3
  8
0
 10
220.5852044064897939
 20
247.5701737381295118
 30
0.0
  0
VERTEX
  5
9EE4
  8
0
 10
220.6068236496037116
 20
247.5725516962581025
 30
0.0
  0
VERTEX
  5
9EE5
  8
0
 10
220.6284198369411058
 20
247.5751434563360931
 30
0.0
  0
VERTEX
  5
9EE6
  8
0
 10
220.6715329957737879
 20
247.5809672971433031
 30
0.0
  0
VERTEX
  5
9EE7
  8
0
 10
220.7145178870819962
 20
247.5876417412343073
 30
0.0
  0
VERTEX
  5
9EE8
  8
0
 10
220.7359536949288952
 20
247.5912964712489952
 30
0.0
  0
VERTEX
  5
9EE9
  8
0
 10
220.7573471779168983
 20
247.5951619373132928
 30
0.0
  0
VERTEX
  5
9EEA
  8
0
 10
220.7999934687420875
 20
247.6035218092129924
 30
0.0
  0
VERTEX
  5
9EEB
  8
0
 10
220.8424294170702922
 20
247.6127140536187881
 30
0.0
  0
VERTEX
  5
9EEC
  8
0
 10
220.8635600138007078
 20
247.6176196995216969
 30
0.0
  0
VERTEX
  5
9EED
  8
0
 10
220.8846278589095959
 20
247.622730148445811
 30
0.0
  0
VERTEX
  5
9EEE
  8
0
 10
220.9265619281258921
 20
247.6335603718090113
 30
0.0
  0
VERTEX
  5
9EEF
  8
0
 10
220.9682051738481903
 20
247.6451938316083101
 30
0.0
  0
VERTEX
  5
9EF0
  8
0
 10
221.0095316760462936
 20
247.657618505824388
 30
0.0
  0
VERTEX
  5
9EF1
  8
0
 10
221.050516159405305
 20
247.6708212937114126
 30
0.0
  0
VERTEX
  5
9EF2
  8
0
 10
221.0911340629336905
 20
247.6847880629908047
 30
0.0
  0
VERTEX
  5
9EF3
  8
0
 10
221.1112979840065975
 20
247.6920532185812078
 30
0.0
  0
VERTEX
  5
9EF4
  8
0
 10
221.1313611855244119
 20
247.699503543629902
 30
0.0
  0
VERTEX
  5
9EF5
  8
0
 10
221.1711733545286052
 20
247.7149511807602948
 30
0.0
  0
VERTEX
  5
9EF6
  8
0
 10
221.2105465254495016
 20
247.7311131205412096
 30
0.0
  0
VERTEX
  5
9EF7
  8
0
 10
221.2494569182993018
 20
247.7479702204672094
 30
0.0
  0
VERTEX
  5
9EF8
  8
0
 10
221.2878811487350106
 20
247.7655020707537972
 30
0.0
  0
VERTEX
  5
9EF9
  8
0
 10
221.3257963540731055
 20
247.783687026586108
 30
0.0
  0
VERTEX
  5
9EFA
  8
0
 10
221.3445561002766055
 20
247.7930173277351003
 30
0.0
  0
VERTEX
  5
9EFB
  8
0
 10
221.3631803143638024
 20
247.8025022511197903
 30
0.0
  0
VERTEX
  5
9EFC
  8
0
 10
221.4000115687595951
 20
247.8219237692522938
 30
0.0
  0
VERTEX
  5
9EFD
  8
0
 10
221.4362695274651003
 20
247.8419265322982881
 30
0.0
  0
VERTEX
  5
9EFE
  8
0
 10
221.4541773514224872
 20
247.8521377778255044
 30
0.0
  0
SEQEND
  5
9EFF
  8
0
  0
POLYLINE
  5
8A70
  8
0
 66
     1
 10
0.0
 20
0.0
 30
0.0
  0
VERTEX
  5
9F00
  8
0
 10
187.3567899797002099
 20
247.8521378921473968
 30
0.0
  0
VERTEX
  5
9F01
  8
0
 10
187.3746978038890063
 20
247.8419266440270121
 30
0.0
  0
VERTEX
  5
9F02
  8
0
 10
187.410955770237905
 20
247.8219238719939881
 30
0.0
  0
VERTEX
  5
9F03
  8
0
 10
187.4477870403931092
 20
247.8025023411337884
 30
0.0
  0
VERTEX
  5
9F04
  8
0
 10
187.466411264827002
 20
247.793017410451796
 30
0.0
  0
VERTEX
  5
9F05
  8
0
 10
187.4851710226994044
 20
247.7836871016156124
 30
0.0
  0
VERTEX
  5
9F06
  8
0
 10
187.5230862543361923
 20
247.7655021298880058
 30
0.0
  0
VERTEX
  5
9F07
  8
0
 10
187.5615105132793872
 20
247.7479702639921868
 30
0.0
  0
VERTEX
  5
9F08
  8
0
 10
187.6004209346851894
 20
247.7311131497799011
 30
0.0
  0
VERTEX
  5
9F09
  8
0
 10
187.6397941319766005
 20
247.7149511979042131
 30
0.0
  0
VERTEX
  5
9F0A
  8
0
 10
187.6796063228767935
 20
247.6995035515620884
 30
0.0
  0
VERTEX
  5
9F0B
  8
0
 10
187.6996695329380032
 20
247.6920532231553125
 30
0.0
  0
VERTEX
  5
9F0C
  8
0
 10
187.7198334605600962
 20
247.6847880651035894
 30
0.0
  0
VERTEX
  5
9F0D
  8
0
 10
187.7604513700281927
 20
247.6708212937161022
 30
0.0
  0
VERTEX
  5
9F0E
  8
0
 10
187.8014358534018129
 20
247.657618505824388
 30
0.0
  0
VERTEX
  5
9F0F
  8
0
 10
187.8427623556000015
 20
247.6451938316083101
 30
0.0
  0
VERTEX
  5
9F10
  8
0
 10
187.8844056013222996
 20
247.6335603718090113
 30
0.0
  0
VERTEX
  5
9F11
  8
0
 10
187.9263396705385105
 20
247.622730148445811
 30
0.0
  0
VERTEX
  5
9F12
  8
0
 10
187.9474075156475124
 20
247.6176196995216969
 30
0.0
  0
VERTEX
  5
9F13
  8
0
 10
187.9685381123777859
 20
247.6127140536187881
 30
0.0
  0
VERTEX
  5
9F14
  8
0
 10
188.0109740607061042
 20
247.6035218092129924
 30
0.0
  0
VERTEX
  5
9F15
  8
0
 10
188.0536203515312081
 20
247.5951619373132928
 30
0.0
  0
VERTEX
  5
9F16
  8
0
 10
188.0750138345194102
 20
247.5912964712489952
 30
0.0
  0
VERTEX
  5
9F17
  8
0
 10
188.0964496423661956
 20
247.5876417412343073
 30
0.0
  0
VERTEX
  5
9F18
  8
0
 10
188.1394345336744038
 20
247.5809672971433031
 30
0.0
  0
VERTEX
  5
9F19
  8
0
 10
188.1825476925070006
 20
247.5751434563360931
 30
0.0
  0
VERTEX
  5
9F1A
  8
0
 10
188.2041438798445085
 20
247.5725516962581025
 30
0.0
  0
VERTEX
  5
9F1B
  8
0
 10
188.2257631229583978
 20
247.5701737381295118
 30
0.0
  0
VERTEX
  5
9F1C
  8
0
 10
188.2690644784005087
 20
247.566059772057713
 30
0.0
  0
VERTEX
  5
9F1D
  8
0
 10
188.312427121173414
 20
247.5628034369497925
 30
0.0
  0
VERTEX
  5
9F1E
  8
0
 10
188.3558233778053079
 20
247.5604058030436931
 30
0.0
  0
VERTEX
  5
9F1F
  8
0
 10
188.399225228487893
 20
247.5588667682847017
 30
0.0
  0
VERTEX
  5
9F20
  8
0
 10
188.4426044273596972
 20
247.558185026979686
 30
0.0
  0
VERTEX
  5
9F21
  8
0
 10
188.464276673276288
 20
247.5581648989789869
 30
0.0
  0
VERTEX
  5
9F22
  8
0
 10
188.4859326225812026
 20
247.5583580493878912
 30
0.0
  0
VERTEX
  5
9F23
  8
0
 10
188.5291814762838101
 20
247.5593820721007035
 30
0.0
  0
VERTEX
  5
9F24
  8
0
 10
188.5723227845165866
 20
247.5612520991163024
 30
0.0
  0
VERTEX
  5
9F25
  8
0
 10
188.615328597349901
 20
247.5639619136115073
 30
0.0
  0
VERTEX
  5
9F26
  8
0
 10
188.658171339306989
 20
247.5675041004666923
 30
0.0
  0
VERTEX
  5
9F27
  8
0
 10
188.7008239119338953
 20
247.5718700776521075
 30
0.0
  0
VERTEX
  5
9F28
  8
0
 10
188.7220704943088947
 20
247.5743589868762911
 30
0.0
  0
VERTEX
  5
9F29
  8
0
 10
188.7432594397035075
 20
247.5770500894284964
 30
0.0
  0
VERTEX
  5
9F2A
  8
0
 10
188.7854508261958131
 20
247.5830331375381093
 30
0.0
  0
VERTEX
  5
9F2B
  8
0
 10
188.8273708022269091
 20
247.5898069408532933
 30
0.0
  0
VERTEX
  5
9F2C
  8
0
 10
188.8689920601883898
 20
247.5973579137427123
 30
0.0
  0
VERTEX
  5
9F2D
  8
0
 10
188.9102873853541951
 20
247.6056711562775092
 30
0.0
  0
VERTEX
  5
9F2E
  8
0
 10
188.9512297841592101
 20
247.6147304559536906
 30
0.0
  0
VERTEX
  5
9F2F
  8
0
 10
188.9715602920796016
 20
247.6195344548825119
 30
0.0
  0
VERTEX
  5
9F30
  8
0
 10
188.9917926096129008
 20
247.6245183007231958
 30
0.0
  0
VERTEX
  5
9F31
  8
0
 10
189.0319496840938882
 20
247.6350159032093927
 30
0.0
  0
VERTEX
  5
9F32
  8
0
 10
189.0716754198546141
 20
247.6462032361125125
 30
0.0
  0
VERTEX
  5
9F33
  8
0
 10
189.1109666030548055
 20
247.6580658410694866
 30
0.0
  0
VERTEX
  5
9F34
  8
0
 10
189.1501392546848024
 20
247.6706958307566993
 30
0.0
  0
VERTEX
  5
9F35
  8
0
 10
189.1892805939033053
 20
247.6841313645747107
 30
0.0
  0
VERTEX
  5
9F36
  8
0
 10
189.2088296424900875
 20
247.6911519260943919
 30
0.0
  0
VERTEX
  5
9F37
  8
0
 10
189.2283590255919989
 20
247.6983745652484004
 30
0.0
  0
VERTEX
  5
9F38
  8
0
 10
189.2673431287086885
 20
247.7134262281616941
 30
0.0
  0
VERTEX
  5
9F39
  8
0
 10
189.3062017740942906
 20
247.7292858562570075
 30
0.0
  0
VERTEX
  5
9F3A
  8
0
 10
189.3449042372270981
 20
247.7459517047919917
 30
0.0
  0
VERTEX
  5
9F3B
  8
0
 10
189.3834203062596941
 20
247.7634208360161097
 30
0.0
  0
VERTEX
  5
9F3C
  8
0
 10
189.4217203855625939
 20
247.7816891838789104
 30
0.0
  0
VERTEX
  5
9F3D
  8
0
 10
189.440780373419102
 20
247.7911215031078029
 30
0.0
  0
VERTEX
  5
9F3E
  8
0
 10
189.4597755948771862
 20
247.8007516289214038
 30
0.0
  0
VERTEX
  5
9F3F
  8
0
 10
189.4975578640676872
 20
247.8206020835393133
 30
0.0
  0
VERTEX
  5
9F40
  8
0
 10
189.5350400125869044
 20
247.8412335817598944
 30
0.0
  0
VERTEX
  5
9F41
  8
0
 10
189.5536602525218939
 20
247.8518397965513884
 30
0.0
  0
VERTEX
  5
9F42
  8
0
 10
189.5721955549132076
 20
247.8626382194896962
 30
0.0
  0
VERTEX
  5
9F43
  8
0
 10
189.6089983008859861
 20
247.8848069377814909
 30
0.0
  0
VERTEX
  5
9F44
  8
0
 10
189.645422377554894
 20
247.9077295102030121
 30
0.0
  0
VERTEX
  5
9F45
  8
0
 10
189.6634844433434921
 20
247.9194699873106913
 30
0.0
  0
VERTEX
  5
9F46
  8
0
 10
189.6814423383713972
 20
247.9313945865507094
 30
0.0
  0
VERTEX
  5
9F47
  8
0
 10
189.7170332659815131
 20
247.9557897445739911
 30
0.0
  0
VERTEX
  5
9F48
  8
0
 10
189.7521708687395119
 20
247.9809015495835922
 30
0.0
  0
VERTEX
  5
9F49
  8
0
 10
189.7868315711413061
 20
248.0067156219579942
 30
0.0
  0
VERTEX
  5
9F4A
  8
0
 10
189.8209925983180995
 20
248.0332167126076968
 30
0.0
  0
VERTEX
  5
9F4B
  8
0
 10
189.8546320546751076
 20
248.0603887865021022
 30
0.0
  0
VERTEX
  5
9F4C
  8
0
 10
189.8712496098841029
 20
248.0742212387195877
 30
0.0
  0
VERTEX
  5
9F4D
  8
0
 10
189.8877290290909912
 20
248.0882151422034951
 30
0.0
  0
VERTEX
  5
9F4E
  8
0
 10
189.9202694092697072
 20
248.1166836464182097
 30
0.0
  0
VERTEX
  5
9F4F
  8
0
 10
189.9522378789120864
 20
248.1457803958047066
 30
0.0
  0
VERTEX
  5
9F50
  8
0
 10
189.9836151196122955
 20
248.175486731238891
 30
0.0
  0
VERTEX
  5
9F51
  8
0
 10
190.0143823801909093
 20
248.2057829671030902
 30
0.0
  0
VERTEX
  5
9F52
  8
0
 10
190.0445215771079006
 20
248.2366484508868893
 30
0.0
  0
VERTEX
  5
9F53
  8
0
 10
190.0593502061520894
 20
248.2522879586429951
 30
0.0
  0
VERTEX
  5
9F54
  8
0
 10
190.074015387337198
 20
248.2680616295259028
 30
0.0
  0
VERTEX
  5
9F55
  8
0
 10
190.1028473338901961
 20
248.3000001224226025
 30
0.0
  0
VERTEX
  5
9F56
  8
0
 10
190.1310018641497095
 20
248.3324408011868911
 30
0.0
  0
VERTEX
  5
9F57
  8
0
 10
190.1584644211496027
 20
248.3653598761995056
 30
0.0
  0
VERTEX
  5
9F58
  8
0
 10
190.1852215078826873
 20
248.3987329901707994
 30
0.0
  0
VERTEX
  5
9F59
  8
0
 10
190.2112607439412955
 20
248.4325353179443994
 30
0.0
  0
VERTEX
  5
9F5A
  8
0
 10
190.2240076010309053
 20
248.4495895561217935
 30
0.0
  0
VERTEX
  5
9F5B
  8
0
 10
190.2365708197764036
 20
248.466741541955912
 30
0.0
  0
VERTEX
  5
9F5C
  8
0
 10
190.2611412118988881
 20
248.5013254689785072
 30
0.0
  0
VERTEX
  5
9F5D
  8
0
 10
190.2849621485003127
 20
248.5362599170263138
 30
0.0
  0
VERTEX
  5
9F5E
  8
0
 10
190.3080247117318038
 20
248.5715167867579964
 30
0.0
  0
VERTEX
  5
9F5F
  8
0
 10
190.3303209328753951
 20
248.6070671419946052
 30
0.0
  0
VERTEX
  5
9F60
  8
0
 10
190.3518438778781103
 20
248.6428812956642957
 30
0.0
  0
VERTEX
  5
9F61
  8
0
 10
190.3623135067770988
 20
248.6608778367449872
 30
0.0
  0
VERTEX
  5
9F62
  8
0
 10
190.3725877234894028
 20
248.678928901139102
 30
0.0
  0
VERTEX
  5
9F63
  8
0
 10
190.3925478242323948
 20
248.7151790490489986
 30
0.0
  0
VERTEX
  5
9F64
  8
0
 10
190.4117207704049122
 20
248.7516003697867859
 30
0.0
  0
VERTEX
  5
9F65
  8
0
 10
190.4301044372786862
 20
248.7881611420422132
 30
0.0
  0
VERTEX
  5
9F66
  8
0
 10
190.4477846304475861
 20
248.825014292569108
 30
0.0
  0
VERTEX
  5
9F67
  8
0
 10
190.4648910902515127
 20
248.8624452561944906
 30
0.0
  0
VERTEX
  5
9F68
  8
0
 10
190.4732213609833025
 20
248.8813719896525924
 30
0.0
  0
VERTEX
  5
9F69
  8
0
 10
190.4813984922543
 20
248.9004355360561078
 30
0.0
  0
VERTEX
  5
9F6A
  8
0
 10
190.4972803323420862
 20
248.9389606718160906
 30
0.0
  0
VERTEX
  5
9F6B
  8
0
 10
190.5125114611585957
 20
248.9779953830235968
 30
0.0
  0
VERTEX
  5
9F6C
  8
0
 10
190.5198755344206916
 20
248.9976957369509876
 30
0.0
  0
VERTEX
  5
9F6D
  8
0
 10
190.5270681412440013
 20
249.0175136992403111
 30
0.0
  0
VERTEX
  5
9F6E
  8
0
 10
190.5409280919386106
 20
249.0574890952495082
 30
0.0
  0
VERTEX
  5
9F6F
  8
0
 10
190.5540705221071107
 20
249.0978946318984129
 30
0.0
  0
VERTEX
  5
9F70
  8
0
 10
190.5603665823390998
 20
249.1182502073224043
 30
0.0
  0
VERTEX
  5
9F71
  8
0
 10
190.5664761505647107
 20
249.1387031030409105
 30
0.0
  0
VERTEX
  5
9F72
  8
0
 10
190.5781272139132057
 20
249.1798871889050986
 30
0.0
  0
VERTEX
  5
9F73
  8
0
 10
190.5890074389533879
 20
249.2214195270676953
 30
0.0
  0
VERTEX
  5
9F74
  8
0
 10
190.5991018944150142
 20
249.2632722783266104
 30
0.0
  0
VERTEX
  5
9F75
  8
0
 10
190.6083969380995029
 20
249.3054168689255903
 30
0.0
  0
VERTEX
  5
9F76
  8
0
 10
190.616880269569009
 20
249.3478241024224076
 30
0.0
  0
VERTEX
  5
9F77
  8
0
 10
190.6208140777808921
 20
249.3691169488126036
 30
0.0
  0
VERTEX
  5
9F78
  8
0
 10
190.6245409760761049
 20
249.3904642927321902
 30
0.0
  0
VERTEX
  5
9F79
  8
0
 10
190.631369566159691
 20
249.4333073988200908
 30
0.0
  0
VERTEX
  5
9F7A
  8
0
 10
190.637357991065187
 20
249.4763231614643928
 30
0.0
  0
VERTEX
  5
9F7B
  8
0
 10
190.6424996540091001
 20
249.5194812425029909
 30
0.0
  0
VERTEX
  5
9F7C
  8
0
 10
190.6467894071884928
 20
249.5627513669583948
 30
0.0
  0
VERTEX
  5
9F7D
  8
0
 10
190.6502236286619052
 20
249.6061048014948085
 30
0.0
  0
VERTEX
  5
9F7E
  8
0
 10
190.6516193192225899
 20
249.6278069027295032
 30
0.0
  0
VERTEX
  5
9F7F
  8
0
 10
190.6528004088482078
 20
249.6495215225232869
 30
0.0
  0
VERTEX
  5
9F80
  8
0
 10
190.6545181649975973
 20
249.6929728965889126
 30
0.0
  0
VERTEX
  5
9F81
  8
0
 10
190.6553765511359018
 20
249.7364280203470059
 30
0.0
  0
VERTEX
  5
9F82
  8
0
 10
190.6554837647240959
 20
249.7581473272632024
 30
0.0
  0
SEQEND
  5
9F83
  8
0
  0
POLYLINE
  5
8A72
  8
0
 66
     1
 10
0.0
 20
0.0
 30
0.0
  0
VERTEX
  5
9F84
  8
0
 10
190.6554837647240959
 20
305.0981487281803197
 30
0.0
  0
VERTEX
  5
9F85
  8
0
 10
190.6553765511359018
 20
305.119868035096772
 30
0.0
  0
VERTEX
  5
9F86
  8
0
 10
190.6545181649975973
 20
305.1633231588547233
 30
0.0
  0
VERTEX
  5
9F87
  8
0
 10
190.6528004088482078
 20
305.2067745329204058
 30
0.0
  0
VERTEX
  5
9F88
  8
0
 10
190.6516193192225899
 20
305.2284891527140758
 30
0.0
  0
VERTEX
  5
9F89
  8
0
 10
190.6502236286619052
 20
305.2501912539489126
 30
0.0
  0
VERTEX
  5
9F8A
  8
0
 10
190.6467894071884928
 20
305.2935446884852126
 30
0.0
  0
VERTEX
  5
9F8B
  8
0
 10
190.6424996540091001
 20
305.3368148129404176
 30
0.0
  0
VERTEX
  5
9F8C
  8
0
 10
190.637357991065187
 20
305.3799728939795273
 30
0.0
  0
VERTEX
  5
9F8D
  8
0
 10
190.631369566159691
 20
305.4229886566233176
 30
0.0
  0
VERTEX
  5
9F8E
  8
0
 10
190.6245409760761049
 20
305.4658317627115025
 30
0.0
  0
VERTEX
  5
9F8F
  8
0
 10
190.6208140777808921
 20
305.4871791066307765
 30
0.0
  0
VERTEX
  5
9F90
  8
0
 10
190.616880269569009
 20
305.5084719530215125
 30
0.0
  0
VERTEX
  5
9F91
  8
0
 10
190.6083969380995029
 20
305.5508791865181024
 30
0.0
  0
VERTEX
  5
9F92
  8
0
 10
190.5991018944150142
 20
305.5930237771169118
 30
0.0
  0
VERTEX
  5
9F93
  8
0
 10
190.5890074389533879
 20
305.6348765283760827
 30
0.0
  0
VERTEX
  5
9F94
  8
0
 10
190.5781272139132057
 20
305.6764088665386794
 30
0.0
  0
VERTEX
  5
9F95
  8
0
 10
190.5664761505647107
 20
305.7175929524029243
 30
0.0
  0
VERTEX
  5
9F96
  8
0
 10
190.5603665823390998
 20
305.7380458481213168
 30
0.0
  0
VERTEX
  5
9F97
  8
0
 10
190.5540705221071107
 20
305.758401423545024
 30
0.0
  0
VERTEX
  5
9F98
  8
0
 10
190.5409280919386106
 20
305.7988069601940992
 30
0.0
  0
VERTEX
  5
9F99
  8
0
 10
190.5270681412440013
 20
305.8387823562035237
 30
0.0
  0
VERTEX
  5
9F9A
  8
0
 10
190.5198755344206916
 20
305.8586003184926767
 30
0.0
  0
VERTEX
  5
9F9B
  8
0
 10
190.5125114611585957
 20
305.8783006724200959
 30
0.0
  0
VERTEX
  5
9F9C
  8
0
 10
190.4972803323420862
 20
305.9173353836278011
 30
0.0
  0
VERTEX
  5
9F9D
  8
0
 10
190.4813984922543
 20
305.9558605193874996
 30
0.0
  0
VERTEX
  5
9F9E
  8
0
 10
190.4732213609833025
 20
305.9749240657907876
 30
0.0
  0
VERTEX
  5
9F9F
  8
0
 10
190.4648910902515127
 20
305.9938507992491168
 30
0.0
  0
VERTEX
  5
9FA0
  8
0
 10
190.4477846304475861
 20
306.0312817628746984
 30
0.0
  0
VERTEX
  5
9FA1
  8
0
 10
190.4301044372786862
 20
306.0681349134017069
 30
0.0
  0
VERTEX
  5
9FA2
  8
0
 10
190.4117207704049122
 20
306.1046956856567931
 30
0.0
  0
VERTEX
  5
9FA3
  8
0
 10
190.3925478242323948
 20
306.1411170063943814
 30
0.0
  0
VERTEX
  5
9FA4
  8
0
 10
190.3725877234894028
 20
306.177367154304477
 30
0.0
  0
VERTEX
  5
9FA5
  8
0
 10
190.3623135067770988
 20
306.1954182186984212
 30
0.0
  0
VERTEX
  5
9FA6
  8
0
 10
190.3518438778781103
 20
306.2134147597795959
 30
0.0
  0
VERTEX
  5
9FA7
  8
0
 10
190.3303209328753951
 20
306.2492289134489738
 30
0.0
  0
VERTEX
  5
9FA8
  8
0
 10
190.3080247117318038
 20
306.2847792686853836
 30
0.0
  0
VERTEX
  5
9FA9
  8
0
 10
190.2849621485003127
 20
306.320036138417322
 30
0.0
  0
VERTEX
  5
9FAA
  8
0
 10
190.2611412118988881
 20
306.3549705864649013
 30
0.0
  0
VERTEX
  5
9FAB
  8
0
 10
190.2365708197764036
 20
306.3895545134874965
 30
0.0
  0
VERTEX
  5
9FAC
  8
0
 10
190.2240076010309053
 20
306.406706499321615
 30
0.0
  0
VERTEX
  5
9FAD
  8
0
 10
190.2112607439412955
 20
306.4237607374994923
 30
0.0
  0
VERTEX
  5
9FAE
  8
0
 10
190.1852215078826873
 20
306.457563065272609
 30
0.0
  0
VERTEX
  5
9FAF
  8
0
 10
190.1584644211496027
 20
306.4909361792441018
 30
0.0
  0
VERTEX
  5
9FB0
  8
0
 10
190.1310018641497095
 20
306.5238552542567732
 30
0.0
  0
VERTEX
  5
9FB1
  8
0
 10
190.1028473338901961
 20
306.5562959330209765
 30
0.0
  0
VERTEX
  5
9FB2
  8
0
 10
190.074015387337198
 20
306.5882344259176762
 30
0.0
  0
VERTEX
  5
9FB3
  8
0
 10
190.0593502061520894
 20
306.6040080968006123
 30
0.0
  0
VERTEX
  5
9FB4
  8
0
 10
190.0445215771077869
 20
306.6196476045566897
 30
0.0
  0
VERTEX
  5
9FB5
  8
0
 10
190.0143823801909093
 20
306.6505130883405172
 30
0.0
  0
VERTEX
  5
9FB6
  8
0
 10
189.9836151196122955
 20
306.6808093242045175
 30
0.0
  0
VERTEX
  5
9FB7
  8
0
 10
189.9522378789120012
 20
306.7105156596390998
 30
0.0
  0
VERTEX
  5
9FB8
  8
0
 10
189.9202694092697072
 20
306.7396124090251988
 30
0.0
  0
VERTEX
  5
9FB9
  8
0
 10
189.8877290290909912
 20
306.768080913240226
 30
0.0
  0
VERTEX
  5
9FBA
  8
0
 10
189.8712496098841029
 20
306.7820748167242755
 30
0.0
  0
VERTEX
  5
9FBB
  8
0
 10
189.8546320546751076
 20
306.7959072689415052
 30
0.0
  0
VERTEX
  5
9FBC
  8
0
 10
189.8209925983180995
 20
306.8230793428361949
 30
0.0
  0
VERTEX
  5
9FBD
  8
0
 10
189.7868315711413061
 20
306.8495804334854142
 30
0.0
  0
VERTEX
  5
9FBE
  8
0
 10
189.7521708687395119
 20
306.8753945058597878
 30
0.0
  0
VERTEX
  5
9FBF
  8
0
 10
189.7170332659815131
 20
306.9005063108693889
 30
0.0
  0
VERTEX
  5
9FC0
  8
0
 10
189.6814423383713972
 20
306.9249014688926991
 30
0.0
  0
VERTEX
  5
9FC1
  8
0
 10
189.6634844433434921
 20
306.936826068132973
 30
0.0
  0
VERTEX
  5
9FC2
  8
0
 10
189.645422377554894
 20
306.9485665452406238
 30
0.0
  0
VERTEX
  5
9FC3
  8
0
 10
189.6089983008859861
 20
306.9714891176619176
 30
0.0
  0
VERTEX
  5
9FC4
  8
0
 10
189.5721955549130939
 20
306.9936578359540249
 30
0.0
  0
VERTEX
  5
9FC5
  8
0
 10
189.5536602525218939
 20
307.0044562588919916
 30
0.0
  0
VERTEX
  5
9FC6
  8
0
 10
189.5350400125867907
 20
307.0150624736839973
 30
0.0
  0
VERTEX
  5
9FC7
  8
0
 10
189.4975578640676872
 20
307.0356939719040952
 30
0.0
  0
VERTEX
  5
9FC8
  8
0
 10
189.4597755948771862
 20
307.0555444265224878
 30
0.0
  0
VERTEX
  5
9FC9
  8
0
 10
189.440780373419102
 20
307.0651745523356908
 30
0.0
  0
VERTEX
  5
9FCA
  8
0
 10
189.4217203855625939
 20
307.0746068715649244
 30
0.0
  0
VERTEX
  5
9FCB
  8
0
 10
189.3834203062596941
 20
307.0928752194272988
 30
0.0
  0
VERTEX
  5
9FCC
  8
0
 10
189.3449042372270981
 20
307.1103443506515873
 30
0.0
  0
VERTEX
  5
9FCD
  8
0
 10
189.3062017740942906
 20
307.1270101991863726
 30
0.0
  0
VERTEX
  5
9FCE
  8
0
 10
189.2673431287086885
 20
307.142869827281686
 30
0.0
  0
VERTEX
  5
9FCF
  8
0
 10
189.2283590255919989
 20
307.1579214901951786
 30
0.0
  0
VERTEX
  5
9FD0
  8
0
 10
189.2088296424900875
 20
307.1651441293491871
 30
0.0
  0
VERTEX
  5
9FD1
  8
0
 10
189.1892805939033053
 20
307.1721646908687262
 30
0.0
  0
VERTEX
  5
9FD2
  8
0
 10
189.1501392546848024
 20
307.1856002246868798
 30
0.0
  0
VERTEX
  5
9FD3
  8
0
 10
189.1109666030548055
 20
307.1982302143741208
 30
0.0
  0
VERTEX
  5
9FD4
  8
0
 10
189.0716754198546141
 20
307.2100928193314076
 30
0.0
  0
VERTEX
  5
9FD5
  8
0
 10
189.0319496840938882
 20
307.2212801522343284
 30
0.0
  0
VERTEX
  5
9FD6
  8
0
 10
188.9917926096129008
 20
307.2317777547203832
 30
0.0
  0
VERTEX
  5
9FD7
  8
0
 10
188.9715602920796016
 20
307.2367616005611808
 30
0.0
  0
VERTEX
  5
9FD8
  8
0
 10
188.9512297841592101
 20
307.2415655994900021
 30
0.0
  0
VERTEX
  5
9FD9
  8
0
 10
188.9102873853541951
 20
307.2506248991662119
 30
0.0
  0
VERTEX
  5
9FDA
  8
0
 10
188.8689920601883898
 20
307.2589381417006962
 30
0.0
  0
VERTEX
  5
9FDB
  8
0
 10
188.8273708022269091
 20
307.2664891145906267
 30
0.0
  0
VERTEX
  5
9FDC
  8
0
 10
188.7854508261958131
 20
307.2732629179055266
 30
0.0
  0
VERTEX
  5
9FDD
  8
0
 10
188.7432594397033085
 20
307.2792459660150826
 30
0.0
  0
VERTEX
  5
9FDE
  8
0
 10
188.7220704943088947
 20
307.2819370685671174
 30
0.0
  0
VERTEX
  5
9FDF
  8
0
 10
188.7008239119338953
 20
307.2844259777912725
 30
0.0
  0
VERTEX
  5
9FE0
  8
0
 10
188.658171339306989
 20
307.288791954976773
 30
0.0
  0
VERTEX
  5
9FE1
  8
0
 10
188.615328597349901
 20
307.2923341418323844
 30
0.0
  0
VERTEX
  5
9FE2
  8
0
 10
188.5723227845165866
 20
307.2950439563271061
 30
0.0
  0
VERTEX
  5
9FE3
  8
0
 10
188.5291814762838101
 20
307.2969139833431882
 30
0.0
  0
VERTEX
  5
9FE4
  8
0
 10
188.4859326225812026
 20
307.2979380060556878
 30
0.0
  0
VERTEX
  5
9FE5
  8
0
 10
188.4642766732762027
 20
307.2981311564645921
 30
0.0
  0
VERTEX
  5
9FE6
  8
0
 10
188.4426044273596972
 20
307.2981110284640067
 30
0.0
  0
VERTEX
  5
9FE7
  8
0
 10
188.3992252284878077
 20
307.2974292871587068
 30
0.0
  0
VERTEX
  5
9FE8
  8
0
 10
188.3558233778053079
 20
307.2958902523999996
 30
0.0
  0
VERTEX
  5
9FE9
  8
0
 10
188.312427121173414
 20
307.2934926184935875
 30
0.0
  0
VERTEX
  5
9FEA
  8
0
 10
188.2690644784005087
 20
307.2902362833858092
 30
0.0
  0
VERTEX
  5
9FEB
  8
0
 10
188.2257631229583978
 20
307.2861223173142093
 30
0.0
  0
VERTEX
  5
9FEC
  8
0
 10
188.2041438798443949
 20
307.2837443591852775
 30
0.0
  0
VERTEX
  5
9FED
  8
0
 10
188.1825476925070006
 20
307.2811525991074859
 30
0.0
  0
VERTEX
  5
9FEE
  8
0
 10
188.1394345336744038
 20
307.275328758300077
 30
0.0
  0
VERTEX
  5
9FEF
  8
0
 10
188.0964496423661956
 20
307.2686543142090727
 30
0.0
  0
VERTEX
  5
9FF0
  8
0
 10
188.0750138345194102
 20
307.2649995841946975
 30
0.0
  0
VERTEX
  5
9FF1
  8
0
 10
188.0536203515312081
 20
307.2611341181304283
 30
0.0
  0
VERTEX
  5
9FF2
  8
0
 10
188.0109740607061042
 20
307.2527742462307856
 30
0.0
  0
VERTEX
  5
9FF3
  8
0
 10
187.9685381123777859
 20
307.243582001824791
 30
0.0
  0
VERTEX
  5
9FF4
  8
0
 10
187.9474075156475124
 20
307.2386763559217115
 30
0.0
  0
VERTEX
  5
9FF5
  8
0
 10
187.9263396705385105
 20
307.2335659069977964
 30
0.0
  0
VERTEX
  5
9FF6
  8
0
 10
187.8844056013221859
 20
307.2227356836344256
 30
0.0
  0
VERTEX
  5
9FF7
  8
0
 10
187.8427623555998878
 20
307.2111022238356099
 30
0.0
  0
VERTEX
  5
9FF8
  8
0
 10
187.8014358534018129
 20
307.1986775496189921
 30
0.0
  0
VERTEX
  5
9FF9
  8
0
 10
187.7604513700428015
 20
307.1854747617322801
 30
0.0
  0
VERTEX
  5
9FFA
  8
0
 10
187.7198334665143875
 20
307.1715079924525753
 30
0.0
  0
VERTEX
  5
9FFB
  8
0
 10
187.6996695454415089
 20
307.1642428368623996
 30
0.0
  0
VERTEX
  5
9FFC
  8
0
 10
187.6796063439236946
 20
307.1567925118137055
 30
0.0
  0
VERTEX
  5
9FFD
  8
0
 10
187.6397941749195866
 20
307.1413448746833978
 30
0.0
  0
VERTEX
  5
9FFE
  8
0
 10
187.6004210039988038
 20
307.1251829349022273
 30
0.0
  0
VERTEX
  5
9FFF
  8
0
 10
187.5615106111488046
 20
307.1083258349764264
 30
0.0
  0
VERTEX
  5
A000
  8
0
 10
187.5230863807130959
 20
307.0907939846899239
 30
0.0
  0
VERTEX
  5
A001
  8
0
 10
187.485171175375001
 20
307.0726090288578121
 30
0.0
  0
VERTEX
  5
A002
  8
0
 10
187.4664114291715862
 20
307.0632787277082798
 30
0.0
  0
VERTEX
  5
A003
  8
0
 10
187.4477872150843893
 20
307.0537938043237887
 30
0.0
  0
VERTEX
  5
A004
  8
0
 10
187.4109559606885966
 20
307.0343722861913989
 30
0.0
  0
VERTEX
  5
A005
  8
0
 10
187.3746980019830914
 20
307.0143695231454899
 30
0.0
  0
VERTEX
  5
A006
  8
0
 10
187.3567901780257898
 20
307.0041582776181031
 30
0.0
  0
SEQEND
  5
A007
  8
0
  0
ARC
  5
8A73
  8
0
 10
204.4054837647240106
 20
277.4281480277218748
 30
0.0
 40
34.1379310344827616
 50
119.9607206757151943
 51
240.0392789400900995
  0
LINE
  5
8A74
  8
1
 10
204.4054837647240959
 20
220.944449852725711
 30
0.0
 11
204.4054837647240106
 21
333.9118462027180954
 31
0.0
  0
LINE
  5
8A75
  8
1
 10
147.9217855897279037
 20
277.4281480277218748
 30
0.0
 11
260.8891819397204017
 21
277.4281480277218748
 31
0.0
  0
LINE
  5
8A83
  8
1
 10
204.4054837647240106
 20
92.3108474944192352
 30
0.0
 11
204.4054837647240106
 21
203.2782438444116906
 31
0.0
  0
LINE
  5
8A84
  8
2
 10
209.4054837647240959
 20
116.2945456694154984
 30
0.0
 11
209.4054837647240959
 21
99.29454566941547
 31
0.0
  0
LINE
  5
8A85
  8
2
 10
199.4054837647240106
 20
99.29454566941547
 30
0.0
 11
199.4054837647240106
 21
116.2945456694154984
 31
0.0
  0
LINE
  5
8A86
  8
0
 10
213.4054837647240959
 20
99.4945456694155155
 30
0.0
 11
213.4054837647240959
 21
99.29454566941547
 31
0.0
  0
LINE
  5
8A87
  8
0
 10
195.4054837647240106
 20
99.29454566941547
 30
0.0
 11
195.4054837647240106
 21
99.4945456694155155
 31
0.0
  0
ARC
  5
8A88
  8
0
 10
192.1554837647240106
 20
99.9945456694154728
 30
0.0
 40
0.4999999999999999
 50
180.0
 51
270.0
  0
ARC
  5
8A89
  8
0
 10
216.6554837647240106
 20
99.9945456694154728
 30
0.0
 40
0.4999999999999983
 50
270.0
 51
0.0
  0
LINE
  5
8A8A
  8
0
 10
217.1554837647240959
 20
101.2945456694153989
 30
0.0
 11
217.1554837647240959
 21
99.9945456694154728
 31
0.0
  0
LINE
  5
8A8B
  8
0
 10
191.6554837647240106
 20
99.9945456694154728
 30
0.0
 11
191.6554837647240106
 21
101.2945456694153989
 31
0.0
  0
ARC
  5
8A8C
  8
0
 10
161.5721504313908099
 20
122.9612123360821982
 30
0.0
 40
6.6666666666666918
 50
180.0
 51
270.0
  0
ARC
  5
8A8D
  8
0
 10
247.2388170980572966
 20
122.9612123360821982
 30
0.0
 40
6.6666666666666847
 50
270.0
 51
0.0
  0
LINE
  5
8A8E
  8
0
 10
253.9054837647240959
 20
126.9948290510009059
 30
0.0
 11
253.9054837647240959
 21
122.9612123360821982
 31
0.0
  0
LINE
  5
8A8F
  8
0
 10
154.9054837647240106
 20
122.9612123360821982
 30
0.0
 11
154.9054837647240106
 21
126.9948290510009059
 31
0.0
  0
ARC
  5
8A90
  8
0
 10
174.9054837647244938
 20
126.9948290510009059
 30
0.0
 40
20.0000000000004192
 50
165.0000000000055138
 51
180.0
  0
ARC
  5
8A91
  8
0
 10
233.905483764723698
 20
126.9948290510009059
 30
0.0
 40
20.0000000000003091
 50
0.0
 51
14.9999999999944507
  0
LINE
  5
8A92
  8
0
 10
252.5163534918033861
 20
134.8121837596204955
 30
0.0
 11
253.2240002905053871
 21
132.1712099530514877
 31
0.0
  0
LINE
  5
8A93
  8
0
 10
155.586967238942691
 20
132.1712099530514877
 30
0.0
 11
156.294614037644692
 21
134.8121837596204955
 31
0.0
  0
ARC
  5
8A94
  8
0
 10
158.2264656902227102
 20
134.2945456694154132
 30
0.0
 40
2.0000000000000031
 50
90.0
 51
165.0000000000055138
  0
ARC
  5
8A95
  8
0
 10
250.5845018392253962
 20
134.2945456694154132
 30
0.0
 40
2.0
 50
14.9999999999944507
 51
90.0
  0
ARC
  5
8A96
  8
0
 10
169.7408116785574919
 20
112.2945456694154984
 30
0.0
 40
4.000000000000143
 50
82.4330119218509765
 51
90.0
  0
LINE
  5
8A97
  8
0
 10
195.4054837647240106
 20
99.29454566941547
 30
0.0
 11
213.4054837647240959
 21
99.29454566941547
 31
0.0
  0
LINE
  5
8A98
  8
0
 10
192.1554837647240106
 20
99.4945456694154728
 30
0.0
 11
216.6554837647240106
 21
99.4945456694154728
 31
0.0
  0
LINE
  5
8A99
  8
0
 10
161.5721504313908099
 20
116.2945456694154984
 30
0.0
 11
247.2388170980572966
 21
116.2945456694154984
 31
0.0
  0
LINE
  5
8A9A
  8
0
 10
158.2264656902227102
 20
136.2945456694154984
 30
0.0
 11
250.5845018392253962
 21
136.2945456694154984
 31
0.0
  0
LINE
  5
8A9B
  8
0
 10
191.4054837647240959
 20
101.2945456694191932
 30
0.0
 11
217.4054837647240959
 21
101.2945456694155979
 31
0.0
  0
POLYLINE
  5
8A9C
  8
0
 66
     1
 10
0.0
 20
0.0
 30
0.0
  0
VERTEX
  5
A008
  8
0
 10
188.7986455873098919
 20
116.2425826289887993
 30
0.0
  0
VERTEX
  5
A009
  8
0
 10
188.8287079317786095
 20
116.2409964298870051
 30
0.0
  0
VERTEX
  5
A00A
  8
0
 10
188.8889971904060872
 20
116.2375613016859006
 30
0.0
  0
VERTEX
  5
A00B
  8
0
 10
188.9494745688492969
 20
116.2337577582713948
 30
0.0
  0
VERTEX
  5
A00C
  8
0
 10
188.9797720377943904
 20
116.2317106853278972
 30
0.0
  0
SEQEND
  5
A00D
  8
0
  0
POLYLINE
  5
8A9D
  8
0
 66
     1
 10
0.0
 20
0.0
 30
0.0
  0
VERTEX
  5
A00E
  8
0
 10
189.3494279243986114
 20
116.1977516810966051
 30
0.0
  0
VERTEX
  5
A00F
  8
0
 10
189.4100045737243079
 20
116.190314784318403
 30
0.0
  0
VERTEX
  5
A010
  8
0
 10
189.5300413875266088
 20
116.1736737735117941
 30
0.0
  0
VERTEX
  5
A011
  8
0
 10
189.6483758832104911
 20
116.1544856372947976
 30
0.0
  0
VERTEX
  5
A012
  8
0
 10
189.7068262435076065
 20
116.1438623506750929
 30
0.0
  0
SEQEND
  5
A013
  8
0
  0
LINE
  5
8A9E
  8
0
 10
188.1067902991318874
 20
116.2597119792299054
 30
0.0
 11
170.2675527302413059
 21
116.2597119792279017
 31
0.0
  0
POLYLINE
  5
8A9F
  8
0
 66
     1
 10
0.0
 20
0.0
 30
0.0
  0
VERTEX
  5
A014
  8
0
 10
191.4054837647246927
 20
114.6895373314485056
 30
0.0
  0
VERTEX
  5
A015
  8
0
 10
191.4049106788762913
 20
114.7169355865084981
 30
0.0
  0
VERTEX
  5
A016
  8
0
 10
191.4003435352425129
 20
114.7724967185753968
 30
0.0
  0
VERTEX
  5
A017
  8
0
 10
191.3912672665840944
 20
114.8289219618608996
 30
0.0
  0
VERTEX
  5
A018
  8
0
 10
191.3850634359112064
 20
114.8574006348962939
 30
0.0
  0
VERTEX
  5
A019
  8
0
 10
191.3777665418369907
 20
114.8860220007237984
 30
0.0
  0
VERTEX
  5
A01A
  8
0
 10
191.3599574416427913
 20
114.9435867492504002
 30
0.0
  0
VERTEX
  5
A01B
  8
0
 10
191.3379870454851073
 20
115.0014022724181046
 30
0.0
  0
VERTEX
  5
A01C
  8
0
 10
191.3120326369053998
 20
115.0592538798589004
 30
0.0
  0
VERTEX
  5
A01D
  8
0
 10
191.2823014591635911
 20
115.1169265985060974
 30
0.0
  0
VERTEX
  5
A01E
  8
0
 10
191.2490331192190922
 20
115.1742016003775007
 30
0.0
  0
VERTEX
  5
A01F
  8
0
 10
191.2311564502369094
 20
115.202620813564593
 30
0.0
  0
VERTEX
  5
A020
  8
0
 10
191.2125002844367998
 20
115.2308575957047054
 30
0.0
  0
VERTEX
  5
A021
  8
0
 10
191.1729672384634
 20
115.2867288014786027
 30
0.0
  0
VERTEX
  5
A022
  8
0
 10
191.1296994605062878
 20
115.3429217041233983
 30
0.0
  0
VERTEX
  5
A023
  8
0
 10
191.0823131450086123
 20
115.3997946285550995
 30
0.0
  0
VERTEX
  5
A024
  8
0
 10
191.0308351062788006
 20
115.4571432851959969
 30
0.0
  0
VERTEX
  5
A025
  8
0
 10
190.9753199461949862
 20
115.5147653393923974
 30
0.0
  0
VERTEX
  5
A026
  8
0
 10
190.9460722033566924
 20
115.5436169471933994
 30
0.0
  0
VERTEX
  5
A027
  8
0
 10
190.915846225568913
 20
115.572463535887394
 30
0.0
  0
VERTEX
  5
A028
  8
0
 10
190.8525159179637001
 20
115.6300450169756004
 30
0.0
  0
VERTEX
  5
A029
  8
0
 10
190.7854582089933047
 20
115.687317457347504
 30
0.0
  0
VERTEX
  5
A02A
  8
0
 10
190.7505784040662888
 20
115.7157787778761957
 30
0.0
  0
VERTEX
  5
A02B
  8
0
 10
190.7420462663756098
 20
115.7225872032625063
 30
0.0
  0
VERTEX
  5
A02C
  8
0
 10
190.7248098539201919
 20
115.7360428635096952
 30
0.0
  0
VERTEX
  5
A02D
  8
0
 10
190.707344114257495
 20
115.7492846768499959
 30
0.0
  0
VERTEX
  5
A02E
  8
0
 10
190.6985253204148023
 20
115.7558257966810942
 30
0.0
  0
VERTEX
  5
A02F
  8
0
 10
190.6896492845799003
 20
115.7623139433903958
 30
0.0
  0
VERTEX
  5
A030
  8
0
 10
190.6717256126167968
 20
115.7751319770570007
 30
0.0
  0
VERTEX
  5
A031
  8
0
 10
190.6535733549455927
 20
115.7877401061856943
 30
0.0
  0
VERTEX
  5
A032
  8
0
 10
190.6351927752743904
 20
115.8001396740216933
 30
0.0
  0
VERTEX
  5
A033
  8
0
 10
190.6165841427059036
 20
115.8123320391215998
 30
0.0
  0
VERTEX
  5
A034
  8
0
 10
190.5977477299962004
 20
115.8243185756629998
 30
0.0
  0
VERTEX
  5
A035
  8
0
 10
190.5882441918957966
 20
115.8302350919813932
 30
0.0
  0
VERTEX
  5
A036
  8
0
 10
190.5786838118175979
 20
115.8361006736606953
 30
0.0
  0
VERTEX
  5
A037
  8
0
 10
190.5593926630417059
 20
115.8476797390907933
 30
0.0
  0
VERTEX
  5
A038
  8
0
 10
190.5398745570525989
 20
115.8590571939260059
 30
0.0
  0
VERTEX
  5
A039
  8
0
 10
190.5201297641069118
 20
115.8702344760837946
 30
0.0
  0
VERTEX
  5
A03A
  8
0
 10
190.5001585497545022
 20
115.8812130392923052
 30
0.0
  0
VERTEX
  5
A03B
  8
0
 10
190.4799611733328959
 20
115.8919943528744056
 30
0.0
  0
VERTEX
  5
A03C
  8
0
 10
190.4697777533405088
 20
115.8973115044139064
 30
0.0
  0
VERTEX
  5
A03D
  8
0
 10
190.4595378865537896
 20
115.9025799014600011
 30
0.0
  0
VERTEX
  5
A03E
  8
0
 10
190.4388889321940894
 20
115.9129711846239985
 30
0.0
  0
VERTEX
  5
A03F
  8
0
 10
190.4180145429085087
 20
115.9231697164624961
 30
0.0
  0
VERTEX
  5
A040
  8
0
 10
190.407492879843403
 20
115.9281971776424029
 30
0.0
  0
VERTEX
  5
A041
  8
0
 10
190.3969149401779077
 20
115.9331770251085061
 30
0.0
  0
VERTEX
  5
A042
  8
0
 10
190.3755903334107131
 20
115.9429946521936046
 30
0.0
  0
VERTEX
  5
A043
  8
0
 10
190.354040919210604
 20
115.9526241522642067
 30
0.0
  0
VERTEX
  5
A044
  8
0
 10
190.3431819671210974
 20
115.9573688438433976
 30
0.0
  0
VERTEX
  5
A045
  8
0
 10
190.3322668808258982
 20
115.9620670921575964
 30
0.0
  0
VERTEX
  5
A046
  8
0
 10
190.3102683877947925
 20
115.9713250503452997
 30
0.0
  0
VERTEX
  5
A047
  8
0
 10
190.2880455958012931
 20
115.980399616250196
 30
0.0
  0
VERTEX
  5
A048
  8
0
 10
190.2655986467532045
 20
115.9892923895460939
 30
0.0
  0
VERTEX
  5
A049
  8
0
 10
190.2429276690959057
 20
115.9980049794474013
 30
0.0
  0
VERTEX
  5
A04A
  8
0
 10
190.2200327783729108
 20
116.0065390039934954
 30
0.0
  0
VERTEX
  5
A04B
  8
0
 10
190.2085013983871136
 20
116.0107395621339066
 30
0.0
  0
VERTEX
  5
A04C
  8
0
 10
190.1969140780437897
 20
116.0148960893391035
 30
0.0
  0
VERTEX
  5
A04D
  8
0
 10
190.1735716605693085
 20
116.0230778690552
 30
0.0
  0
VERTEX
  5
A04E
  8
0
 10
190.1500056087714086
 20
116.0310859834490032
 30
0.0
  0
VERTEX
  5
A04F
  8
0
 10
190.1262159974756116
 20
116.0389220789085982
 30
0.0
  0
VERTEX
  5
A050
  8
0
 10
190.1022369793373912
 20
116.0465770963608065
 30
0.0
  0
VERTEX
  5
A051
  8
0
 10
190.0781097221498044
 20
116.0540411745518981
 30
0.0
  0
VERTEX
  5
A052
  8
0
 10
190.0659913934669873
 20
116.0577025352770022
 30
0.0
  0
VERTEX
  5
A053
  8
0
 10
190.0538370640063022
 20
116.0613172716549997
 30
0.0
  0
VERTEX
  5
A054
  8
0
 10
190.0294218044869012
 20
116.0684083509368065
 30
0.0
  0
VERTEX
  5
A055
  8
0
 10
190.0048667530006981
 20
116.0753173645454979
 30
0.0
  0
VERTEX
  5
A056
  8
0
 10
189.9801747276918888
 20
116.0820472532753058
 30
0.0
  0
VERTEX
  5
A057
  8
0
 10
189.9553485543555951
 20
116.0886009462729049
 30
0.0
  0
VERTEX
  5
A058
  8
0
 10
189.9303910653657113
 20
116.0949813606938932
 30
0.0
  0
VERTEX
  5
A059
  8
0
 10
189.9178639641575046
 20
116.0981074966744018
 30
0.0
  0
VERTEX
  5
A05A
  8
0
 10
189.9053050986244955
 20
116.1011914013079007
 30
0.0
  0
VERTEX
  5
A05B
  8
0
 10
189.8800934965360057
 20
116.1072339600547991
 30
0.0
  0
VERTEX
  5
A05C
  8
0
 10
189.8547591050100039
 20
116.1131119155553932
 30
0.0
  0
VERTEX
  5
A05D
  8
0
 10
189.829304772503292
 20
116.1188281325795941
 30
0.0
  0
VERTEX
  5
A05E
  8
0
 10
189.8037333491010941
 20
116.1243854614717037
 30
0.0
  0
VERTEX
  5
A05F
  8
0
 10
189.7780476856459018
 20
116.1297867375382964
 30
0.0
  0
VERTEX
  5
A060
  8
0
 10
189.7651629047909125
 20
116.1324297375240064
 30
0.0
  0
VERTEX
  5
A061
  8
0
 10
189.7522506329177077
 20
116.135034780397902
 30
0.0
  0
VERTEX
  5
A062
  8
0
 10
189.7263450408705978
 20
116.1401323932988987
 30
0.0
  0
VERTEX
  5
A063
  8
0
 10
189.700333757931304
 20
116.1450823624017943
 30
0.0
  0
VERTEX
  5
A064
  8
0
 10
189.674219630364405
 20
116.1498874560348042
 30
0.0
  0
VERTEX
  5
A065
  8
0
 10
189.6480055017063933
 20
116.1545504239174988
 30
0.0
  0
VERTEX
  5
A066
  8
0
 10
189.6216942122775038
 20
116.1590739963620962
 30
0.0
  0
VERTEX
  5
A067
  8
0
 10
189.6085030188918097
 20
116.1612843570078013
 30
0.0
  0
VERTEX
  5
A068
  8
0
 10
189.5952885987713046
 20
116.1634608834463052
 30
0.0
  0
VERTEX
  5
A069
  8
0
 10
189.5687914939285008
 20
116.1677137741643975
 30
0.0
  0
VERTEX
  5
A06A
  8
0
 10
189.5422057262993007
 20
116.1718353355579012
 30
0.0
  0
VERTEX
  5
A06B
  8
0
 10
189.5288804766778128
 20
116.173847694986506
 30
0.0
  0
VERTEX
  5
A06C
  8
0
 10
189.515534120096504
 20
116.1758282118233012
 30
0.0
  0
VERTEX
  5
A06D
  8
0
 10
189.4887794951443141
 20
116.1796950234001997
 30
0.0
  0
VERTEX
  5
A06E
  8
0
 10
189.4619446669277067
 20
116.1834383660442995
 30
0.0
  0
VERTEX
  5
A06F
  8
0
 10
189.4484980552826983
 20
116.1852645407072941
 30
0.0
  0
VERTEX
  5
A070
  8
0
 10
189.4350324467432927
 20
116.1870608098774937
 30
0.0
  0
VERTEX
  5
A071
  8
0
 10
189.4080456419573864
 20
116.1905648984236024
 30
0.0
  0
VERTEX
  5
A072
  8
0
 10
189.3809870563738968
 20
116.1939531476259049
 30
0.0
  0
VERTEX
  5
A073
  8
0
 10
189.3538594907149104
 20
116.197228044848103
 30
0.0
  0
VERTEX
  5
A074
  8
0
 10
189.3266778159843113
 20
116.200390669059999
 30
0.0
  0
VERTEX
  5
A075
  8
0
 10
189.2994775137599959
 20
116.2034400029524051
 30
0.0
  0
VERTEX
  5
A076
  8
0
 10
189.2858721224008036
 20
116.2049230122668035
 30
0.0
  0
VERTEX
  5
A077
  8
0
 10
189.2722638142736002
 20
116.2063787256128933
 30
0.0
  0
VERTEX
  5
A078
  8
0
 10
189.2450401746135071
 20
116.209209671576005
 30
0.0
  0
VERTEX
  5
A079
  8
0
 10
189.217810043358611
 20
116.2119356213536037
 30
0.0
  0
VERTEX
  5
A07A
  8
0
 10
189.1905768610967868
 20
116.2145593010305049
 30
0.0
  0
VERTEX
  5
A07B
  8
0
 10
189.1633440609101058
 20
116.2170833818537972
 30
0.0
  0
VERTEX
  5
A07C
  8
0
 10
189.1361150688256032
 20
116.219510479813394
 30
0.0
  0
VERTEX
  5
A07D
  8
0
 10
189.1225030696286069
 20
116.2206884625007035
 30
0.0
  0
VERTEX
  5
A07E
  8
0
 10
189.1088933042292126
 20
116.2218431552104931
 30
0.0
  0
VERTEX
  5
A07F
  8
0
 10
189.0816821802459913
 20
116.2240839122170968
 30
0.0
  0
VERTEX
  5
A080
  8
0
 10
189.054485104082886
 20
116.2262351984213069
 30
0.0
  0
VERTEX
  5
A081
  8
0
 10
189.0273054773371086
 20
116.2282994043604987
 30
0.0
  0
VERTEX
  5
A082
  8
0
 10
189.0001466962692973
 20
116.2302788630378956
 30
0.0
  0
VERTEX
  5
A083
  8
0
 10
188.9730121520429975
 20
116.232175849426298
 30
0.0
  0
VERTEX
  5
A084
  8
0
 10
188.9594550271415869
 20
116.2330941104468991
 30
0.0
  0
VERTEX
  5
A085
  8
0
 10
188.9459052309310039
 20
116.2339925799532949
 30
0.0
  0
VERTEX
  5
A086
  8
0
 10
188.9188293144908926
 20
116.235731211971995
 30
0.0
  0
VERTEX
  5
A087
  8
0
 10
188.8917877797115921
 20
116.2373938432115068
 30
0.0
  0
VERTEX
  5
A088
  8
0
 10
188.8647839991313901
 20
116.2389825112103949
 30
0.0
  0
VERTEX
  5
A089
  8
0
 10
188.8378213409326065
 20
116.2404991927325995
 30
0.0
  0
VERTEX
  5
A08A
  8
0
 10
188.8109031690125903
 20
116.241945803159993
 30
0.0
  0
VERTEX
  5
A08B
  8
0
 10
188.7974618154669031
 20
116.2426434133328996
 30
0.0
  0
VERTEX
  5
A08C
  8
0
 10
188.7840328430370107
 20
116.2433241958689933
 30
0.0
  0
VERTEX
  5
A08D
  8
0
 10
188.7572137184756116
 20
116.2446361615834007
 30
0.0
  0
VERTEX
  5
A08E
  8
0
 10
188.7304491466267962
 20
116.245883427707895
 30
0.0
  0
VERTEX
  5
A08F
  8
0
 10
188.7037424746322074
 20
116.2470676576374018
 30
0.0
  0
VERTEX
  5
A090
  8
0
 10
188.6770970454880114
 20
116.2481904500454988
 30
0.0
  0
VERTEX
  5
A091
  8
0
 10
188.6505213304490951
 20
116.249253138355499
 30
0.0
  0
VERTEX
  5
A092
  8
0
 10
188.6372671153264093
 20
116.2497621699422012
 30
0.0
  0
VERTEX
  5
A093
  8
0
 10
188.6240363689867081
 20
116.2502565691052041
 30
0.0
  0
VERTEX
  5
A094
  8
0
 10
188.5976468955090866
 20
116.2512022318320959
 30
0.0
  0
VERTEX
  5
A095
  8
0
 10
188.5713561317253095
 20
116.2520916031228069
 30
0.0
  0
VERTEX
  5
A096
  8
0
 10
188.5582487710549913
 20
116.2525156204440009
 30
0.0
  0
VERTEX
  5
A097
  8
0
 10
188.5451672931646101
 20
116.2529260846960995
 30
0.0
  0
VERTEX
  5
A098
  8
0
 10
188.5190835894545103
 20
116.2537070033019972
 30
0.0
  0
VERTEX
  5
A099
  8
0
 10
188.4931082245659013
 20
116.2544356106050003
 30
0.0
  0
VERTEX
  5
A09A
  8
0
 10
188.4801621689263982
 20
116.2547806680993006
 30
0.0
  0
VERTEX
  5
A09B
  8
0
 10
188.4672443970241886
 20
116.2551130830502046
 30
0.0
  0
VERTEX
  5
A09C
  8
0
 10
188.441495300093095
 20
116.2557405217102939
 30
0.0
  0
VERTEX
  5
A09D
  8
0
 10
188.4158641219302979
 20
116.2563189521186047
 30
0.0
  0
VERTEX
  5
A09E
  8
0
 10
188.3903540457204997
 20
116.256849324083106
 30
0.0
  0
VERTEX
  5
A09F
  8
0
 10
188.3649682497880065
 20
116.2573325114852025
 30
0.0
  0
VERTEX
  5
A0A0
  8
0
 10
188.3397099076917129
 20
116.2577693120604039
 30
0.0
  0
VERTEX
  5
A0A1
  8
0
 10
188.3271295222864978
 20
116.2579705457018946
 30
0.0
  0
VERTEX
  5
A0A2
  8
0
 10
188.3145821883063888
 20
116.2581604471641015
 30
0.0
  0
VERTEX
  5
A0A3
  8
0
 10
188.2895882558929941
 20
116.2585065615185016
 30
0.0
  0
VERTEX
  5
A0A4
  8
0
 10
188.2647312701627982
 20
116.2588082229437987
 30
0.0
  0
VERTEX
  5
A0A5
  8
0
 10
188.2400143863370943
 20
116.2590659220719971
 30
0.0
  0
VERTEX
  5
A0A6
  8
0
 10
188.2154407552081921
 20
116.2592800720417046
 30
0.0
  0
VERTEX
  5
A0A7
  8
0
 10
188.1910135232035941
 20
116.2594510081768959
 30
0.0
  0
VERTEX
  5
A0A8
  8
0
 10
188.1788557998773967
 20
116.259520354426698
 30
0.0
  0
VERTEX
  5
A0A9
  8
0
 10
188.1667381755628128
 20
116.2595789773273935
 30
0.0
  0
VERTEX
  5
A0AA
  8
0
 10
188.1426299156669018
 20
116.259664138381396
 30
0.0
  0
VERTEX
  5
A0AB
  8
0
 10
188.1186933307515972
 20
116.2597066663019945
 30
0.0
  0
VERTEX
  5
A0AC
  8
0
 10
188.1067902991318874
 20
116.2597119792299054
 30
0.0
  0
SEQEND
  5
A0AD
  8
0
  0
LINE
  5
8AAE
  8
1
 10
48.1722881789984285
 20
314.4281480277217042
 30
0.0
 11
128.1397681862133027
 21
314.4281480277217042
 31
0.0
  0
LINE
  5
8AAF
  8
0
 10
24.3560700112173016
 20
268.4281480277217042
 30
0.0
 11
24.1560700112172491
 21
268.4281480277217042
 31
0.0
  0
LINE
  5
8AB0
  8
0
 10
24.1560700112172491
 20
286.4281480277217042
 30
0.0
 11
24.3560700112173016
 21
286.4281480277217042
 31
0.0
  0
ARC
  5
8AB5
  8
0
 10
47.822736677883988
 20
320.2614813610550186
 30
0.0
 40
6.6666666666666918
 50
90.0
 51
180.0
  0
ARC
  5
8AB6
  8
0
 10
47.822736677883988
 20
234.5948146943883899
 30
0.0
 40
6.6666666666666847
 50
180.0
 51
270.0
  0
LINE
  5
8AB7
  8
0
 10
51.8563533928027027
 20
227.9281480277217042
 30
0.0
 11
47.822736677883988
 21
227.9281480277217042
 31
0.0
  0
LINE
  5
8AB8
  8
0
 10
47.822736677883988
 20
326.9281480277217042
 30
0.0
 11
51.8563533928027027
 21
326.9281480277217042
 31
0.0
  0
ARC
  5
8AB9
  8
0
 10
51.8563533928027027
 20
306.9281480277211926
 30
0.0
 40
20.0000000000004192
 50
75.0000000000055422
 51
90.0
  0
ARC
  5
8ABA
  8
0
 10
51.8563533928027027
 20
247.9281480277221874
 30
0.0
 40
20.0000000000003091
 50
270.0
 51
284.9999999999944862
  0
LINE
  5
8ABB
  8
0
 10
59.6737081014223421
 20
229.317278300642414
 30
0.0
 11
57.0327342948530713
 21
228.6096315019404983
 31
0.0
  0
LINE
  5
8ABC
  8
0
 10
57.0327342948530713
 20
326.2466645535030807
 30
0.0
 11
59.6737081014223421
 21
325.5390177548011934
 31
0.0
  0
ARC
  5
8ABD
  8
0
 10
59.1560700112172526
 20
323.6071661022230046
 30
0.0
 40
2.0000000000000031
 50
0.000000000000007
 51
75.0000000000055422
  0
ARC
  5
8ABE
  8
0
 10
59.1560700112172526
 20
231.2491299532204039
 30
0.0
 40
2.0
 50
284.9999999999944862
 51
0.000000000000007
  0
LINE
  5
8ABF
  8
0
 10
41.1560700112172526
 20
243.8805289801028948
 30
0.0
 11
26.1560700112191888
 21
264.6781480277217042
 31
0.0
  0
LINE
  5
8AC0
  8
0
 10
26.1560700112191888
 20
290.1781480277217042
 30
0.0
 11
41.1560700112172526
 21
310.9757670753406273
 31
0.0
  0
LINE
  5
8AC1
  8
0
 10
24.1560700112172491
 20
286.4281480277217042
 30
0.0
 11
24.1560700112172491
 21
268.4281480277217042
 31
0.0
  0
LINE
  5
8AC3
  8
0
 10
41.1560700112172526
 20
320.2614813610550186
 30
0.0
 11
41.1560700112172526
 21
234.5948146943883899
 31
0.0
  0
LINE
  5
8AC4
  8
0
 10
61.1560700112172526
 20
323.6071661022230046
 30
0.0
 11
61.1560700112172526
 21
231.2491299532204039
 31
0.0
  0
LINE
  5
8AC5
  8
0
 10
26.1560700112191888
 20
290.1781480277217042
 30
0.0
 11
26.1560700112191888
 21
264.6781480277217042
 31
0.0
  0
POLYLINE
  5
8AC6
  8
0
 66
     1
 10
0.0
 20
0.0
 30
0.0
  0
VERTEX
  5
A0AE
  8
0
 10
41.1560700112172526
 20
308.0944087746316882
 30
0.0
  0
VERTEX
  5
A0AF
  8
0
 10
37.8441748427369475
 20
301.9116999770495795
 30
0.0
  0
VERTEX
  5
A0B0
  8
0
 10
35.2225245038493995
 20
296.7962041234475805
 30
0.0
  0
VERTEX
  5
A0B1
  8
0
 10
33.3366395910661595
 20
292.820366532287494
 30
0.0
  0
VERTEX
  5
A0B2
  8
0
 10
32.5922048984830326
 20
291.1286177625300979
 30
0.0
  0
VERTEX
  5
A0B3
  8
0
 10
31.9528198827279084
 20
289.587168100098495
 30
0.0
  0
VERTEX
  5
A0B4
  8
0
 10
30.9327094684133499
 20
286.8546224367584045
 30
0.0
  0
VERTEX
  5
A0B5
  8
0
 10
30.1905690064584213
 20
284.464586139053722
 30
0.0
  0
VERTEX
  5
A0B6
  8
0
 10
29.8634819766666588
 20
283.1834021438039031
 30
0.0
  0
VERTEX
  5
A0B7
  8
0
 10
29.7828542433235306
 20
282.8293262291884957
 30
0.0
  0
VERTEX
  5
A0B8
  8
0
 10
29.7076505411748713
 20
282.4798981680480097
 30
0.0
  0
VERTEX
  5
A0B9
  8
0
 10
29.672041130346539
 20
282.3068189303976965
 30
0.0
  0
VERTEX
  5
A0BA
  8
0
 10
29.6377392095123504
 20
282.1347735094869904
 30
0.0
  0
VERTEX
  5
A0BB
  8
0
 10
29.5729993613881597
 20
281.7936205356454025
 30
0.0
  0
VERTEX
  5
A0BC
  8
0
 10
29.5133203411514913
 20
281.4561191126621225
 30
0.0
  0
VERTEX
  5
A0BD
  8
0
 10
29.4586012357808613
 20
281.1219596150255029
 30
0.0
  0
VERTEX
  5
A0BE
  8
0
 10
29.4087504358610694
 20
280.7908419153440036
 30
0.0
  0
VERTEX
  5
A0BF
  8
0
 10
29.3636852425431698
 20
280.462474432302713
 30
0.0
  0
VERTEX
  5
A0C0
  8
0
 10
29.3429237544200987
 20
280.2992330171169897
 30
0.0
  0
VERTEX
  5
A0C1
  8
0
 10
29.3233315172624316
 20
280.1365732301782145
 30
0.0
  0
VERTEX
  5
A0C2
  8
0
 10
29.2876233713923284
 20
279.8128611638497887
 30
0.0
  0
VERTEX
  5
A0C3
  8
0
 10
29.2565028933629492
 20
279.4910670637000862
 30
0.0
  0
VERTEX
  5
A0C4
  8
0
 10
29.2299199111087091
 20
279.170924955216492
 30
0.0
  0
VERTEX
  5
A0C5
  8
0
 10
29.2078317880013891
 20
278.8521733084506877
 30
0.0
  0
VERTEX
  5
A0C6
  8
0
 10
29.1902032507068689
 20
278.5345543127920109
 30
0.0
  0
VERTEX
  5
A0C7
  8
0
 10
29.1830522817845086
 20
278.3760898366527954
 30
0.0
  0
VERTEX
  5
A0C8
  8
0
 10
29.17700624765871
 20
278.2178131727592927
 30
0.0
  0
VERTEX
  5
A0C9
  8
0
 10
29.1682198370829191
 20
277.9016974207191879
 30
0.0
  0
VERTEX
  5
A0CA
  8
0
 10
29.1638301037353393
 20
277.5859562426055049
 30
0.0
  0
VERTEX
  5
A0CB
  8
0
 10
29.1632815496800504
 20
277.4281480277217042
 30
0.0
  0
VERTEX
  5
A0CC
  8
0
 10
29.1638301037353393
 20
277.2703398128381878
 30
0.0
  0
VERTEX
  5
A0CD
  8
0
 10
29.1682198370829191
 20
276.9545986347245048
 30
0.0
  0
VERTEX
  5
A0CE
  8
0
 10
29.17700624765871
 20
276.6384828826844
 30
0.0
  0
VERTEX
  5
A0CF
  8
0
 10
29.1830522817845086
 20
276.4802062187908973
 30
0.0
  0
VERTEX
  5
A0D0
  8
0
 10
29.1902032507068689
 20
276.3217417426513975
 30
0.0
  0
VERTEX
  5
A0D1
  8
0
 10
29.2078317880013891
 20
276.004122746993005
 30
0.0
  0
VERTEX
  5
A0D2
  8
0
 10
29.2299199111087091
 20
275.685371100227087
 30
0.0
  0
VERTEX
  5
A0D3
  8
0
 10
29.2565028933629492
 20
275.3652289917434928
 30
0.0
  0
VERTEX
  5
A0D4
  8
0
 10
29.2876233713923284
 20
275.043434891593904
 30
0.0
  0
VERTEX
  5
A0D5
  8
0
 10
29.3233315172624316
 20
274.7197228252654213
 30
0.0
  0
VERTEX
  5
A0D6
  8
0
 10
29.3429237544200987
 20
274.5570630383265893
 30
0.0
  0
VERTEX
  5
A0D7
  8
0
 10
29.3636852425431698
 20
274.3938216231409797
 30
0.0
  0
VERTEX
  5
A0D8
  8
0
 10
29.4087504358610694
 20
274.0654541400994049
 30
0.0
  0
VERTEX
  5
A0D9
  8
0
 10
29.4586012357808613
 20
273.7343364404181898
 30
0.0
  0
VERTEX
  5
A0DA
  8
0
 10
29.5133203411514913
 20
273.400176942781286
 30
0.0
  0
VERTEX
  5
A0DB
  8
0
 10
29.5729993613881597
 20
273.0626755197982902
 30
0.0
  0
VERTEX
  5
A0DC
  8
0
 10
29.6377392095123504
 20
272.7215225459565886
 30
0.0
  0
VERTEX
  5
A0DD
  8
0
 10
29.672041130346539
 20
272.5494771250458825
 30
0.0
  0
VERTEX
  5
A0DE
  8
0
 10
29.7076505411748713
 20
272.376397887395683
 30
0.0
  0
VERTEX
  5
A0DF
  8
0
 10
29.7828542433235306
 20
272.0269698262550833
 30
0.0
  0
VERTEX
  5
A0E0
  8
0
 10
29.8634819766666588
 20
271.6728939116397896
 30
0.0
  0
VERTEX
  5
A0E1
  8
0
 10
30.1905690064584213
 20
270.3917099163899138
 30
0.0
  0
VERTEX
  5
A0E2
  8
0
 10
30.9327094684133499
 20
268.0016736186850039
 30
0.0
  0
VERTEX
  5
A0E3
  8
0
 10
31.9528198827279084
 20
265.2691279553450272
 30
0.0
  0
VERTEX
  5
A0E4
  8
0
 10
32.5922048984830326
 20
263.7276782929134811
 30
0.0
  0
VERTEX
  5
A0E5
  8
0
 10
33.3366395910661595
 20
262.035929523156085
 30
0.0
  0
VERTEX
  5
A0E6
  8
0
 10
35.2225245038493995
 20
258.060091931995828
 30
0.0
  0
VERTEX
  5
A0E7
  8
0
 10
37.8441748427369475
 20
252.9445960783938006
 30
0.0
  0
VERTEX
  5
A0E8
  8
0
 10
41.1560700112172526
 20
246.7618872808116919
 30
0.0
  0
SEQEND
  5
A0E9
  8
0
  0
LINE
  5
8AC7
  8
1
 10
68.1397681862133595
 20
277.4281480277217042
 30
0.0
 11
17.1723718362211386
 21
277.4281480277217042
 31
0.0
  0
LINE
  5
8AC9
  8
0
 10
191.4054837647246927
 20
114.6895373314485056
 30
0.0
 11
191.4054837647240959
 21
101.2945456694174027
 31
0.0
  0
ARC
  5
8ACB
  8
0
 10
239.0701558508905862
 20
112.2945456694154984
 30
0.0
 40
4.000000000000143
 50
90.0
 51
97.5669880781490235
  0
POLYLINE
  5
8ACC
  8
0
 66
     1
 10
0.0
 20
0.0
 30
0.0
  0
VERTEX
  5
A0EA
  8
0
 10
220.0123219421381862
 20
116.2425826289887993
 30
0.0
  0
VERTEX
  5
A0EB
  8
0
 10
219.9822595976696107
 20
116.2409964298870051
 30
0.0
  0
VERTEX
  5
A0EC
  8
0
 10
219.9219703390419909
 20
116.2375613016859006
 30
0.0
  0
VERTEX
  5
A0ED
  8
0
 10
219.8614929605988948
 20
116.2337577582713948
 30
0.0
  0
VERTEX
  5
A0EE
  8
0
 10
219.8311954916536877
 20
116.2317106853278972
 30
0.0
  0
SEQEND
  5
A0EF
  8
0
  0
POLYLINE
  5
8ACD
  8
0
 66
     1
 10
0.0
 20
0.0
 30
0.0
  0
VERTEX
  5
A0F0
  8
0
 10
219.4615396050496088
 20
116.1977516810966051
 30
0.0
  0
VERTEX
  5
A0F1
  8
0
 10
219.4009629557237986
 20
116.190314784318403
 30
0.0
  0
VERTEX
  5
A0F2
  8
0
 10
219.2809261419216114
 20
116.1736737735117941
 30
0.0
  0
VERTEX
  5
A0F3
  8
0
 10
219.1625916462375869
 20
116.1544856372947976
 30
0.0
  0
VERTEX
  5
A0F4
  8
0
 10
219.1041412859405
 20
116.1438623506750929
 30
0.0
  0
SEQEND
  5
A0F5
  8
0
  0
LINE
  5
8ACE
  8
0
 10
220.7041772303161906
 20
116.2597119792299054
 30
0.0
 11
238.5434147992068006
 21
116.2597119792279017
 31
0.0
  0
POLYLINE
  5
8ACF
  8
0
 66
     1
 10
0.0
 20
0.0
 30
0.0
  0
VERTEX
  5
A0F6
  8
0
 10
217.4054837647234137
 20
114.6895373314485056
 30
0.0
  0
VERTEX
  5
A0F7
  8
0
 10
217.4060568505717015
 20
114.7169355865084981
 30
0.0
  0
VERTEX
  5
A0F8
  8
0
 10
217.4106239942055936
 20
114.7724967185753968
 30
0.0
  0
VERTEX
  5
A0F9
  8
0
 10
217.4197002628640121
 20
114.8289219618608996
 30
0.0
  0
VERTEX
  5
A0FA
  8
0
 10
217.4259040935369001
 20
114.8574006348962939
 30
0.0
  0
VERTEX
  5
A0FB
  8
0
 10
217.4332009876112011
 20
114.8860220007237984
 30
0.0
  0
VERTEX
  5
A0FC
  8
0
 10
217.4510100878054004
 20
114.9435867492504002
 30
0.0
  0
VERTEX
  5
A0FD
  8
0
 10
217.4729804839631129
 20
115.0014022724181046
 30
0.0
  0
VERTEX
  5
A0FE
  8
0
 10
217.4989348925427066
 20
115.0592538798589004
 30
0.0
  0
VERTEX
  5
A0FF
  8
0
 10
217.5286660702846007
 20
115.1169265985060974
 30
0.0
  0
VERTEX
  5
A100
  8
0
 10
217.5619344102289858
 20
115.1742016003775007
 30
0.0
  0
VERTEX
  5
A101
  8
0
 10
217.5798110792113107
 20
115.202620813564593
 30
0.0
  0
VERTEX
  5
A102
  8
0
 10
217.5984672450113067
 20
115.2308575957047054
 30
0.0
  0
VERTEX
  5
A103
  8
0
 10
217.6380002909847065
 20
115.2867288014786027
 30
0.0
  0
VERTEX
  5
A104
  8
0
 10
217.6812680689417903
 20
115.3429217041233983
 30
0.0
  0
VERTEX
  5
A105
  8
0
 10
217.7286543844394942
 20
115.3997946285550995
 30
0.0
  0
VERTEX
  5
A106
  8
0
 10
217.7801324231693911
 20
115.4571432851959969
 30
0.0
  0
VERTEX
  5
A107
  8
0
 10
217.8356475832532055
 20
115.5147653393923974
 30
0.0
  0
VERTEX
  5
A108
  8
0
 10
217.8648953260914141
 20
115.5436169471933994
 30
0.0
  0
VERTEX
  5
A109
  8
0
 10
217.8951213038791934
 20
115.572463535887394
 30
0.0
  0
VERTEX
  5
A10A
  8
0
 10
217.9584516114844064
 20
115.6300450169756004
 30
0.0
  0
VERTEX
  5
A10B
  8
0
 10
218.0255093204548018
 20
115.687317457347504
 30
0.0
  0
VERTEX
  5
A10C
  8
0
 10
218.0603891253817892
 20
115.7157787778761957
 30
0.0
  0
VERTEX
  5
A10D
  8
0
 10
218.0689212630724967
 20
115.7225872032625063
 30
0.0
  0
VERTEX
  5
A10E
  8
0
 10
218.0861576755279998
 20
115.7360428635096952
 30
0.0
  0
VERTEX
  5
A10F
  8
0
 10
218.1036234151906967
 20
115.7492846768499959
 30
0.0
  0
VERTEX
  5
A110
  8
0
 10
218.1124422090333894
 20
115.7558257966810942
 30
0.0
  0
VERTEX
  5
A111
  8
0
 10
218.1213182448682062
 20
115.7623139433903958
 30
0.0
  0
VERTEX
  5
A112
  8
0
 10
218.139241916831395
 20
115.7751319770570007
 30
0.0
  0
VERTEX
  5
A113
  8
0
 10
218.1573941745025138
 20
115.7877401061856943
 30
0.0
  0
VERTEX
  5
A114
  8
0
 10
218.1757747541738013
 20
115.8001396740216933
 30
0.0
  0
VERTEX
  5
A115
  8
0
 10
218.1943833867422029
 20
115.8123320391215998
 30
0.0
  0
VERTEX
  5
A116
  8
0
 10
218.2132197994519913
 20
115.8243185756629998
 30
0.0
  0
VERTEX
  5
A117
  8
0
 10
218.2227233375523099
 20
115.8302350919813932
 30
0.0
  0
VERTEX
  5
A118
  8
0
 10
218.2322837176305086
 20
115.8361006736606953
 30
0.0
  0
VERTEX
  5
A119
  8
0
 10
218.2515748664064006
 20
115.8476797390907933
 30
0.0
  0
VERTEX
  5
A11A
  8
0
 10
218.2710929723955076
 20
115.8590571939260059
 30
0.0
  0
VERTEX
  5
A11B
  8
0
 10
218.2908377653411094
 20
115.8702344760837946
 30
0.0
  0
VERTEX
  5
A11C
  8
0
 10
218.3108089796936895
 20
115.8812130392923052
 30
0.0
  0
VERTEX
  5
A11D
  8
0
 10
218.3310063561152958
 20
115.8919943528744056
 30
0.0
  0
VERTEX
  5
A11E
  8
0
 10
218.3411897761075977
 20
115.8973115044139064
 30
0.0
  0
VERTEX
  5
A11F
  8
0
 10
218.3514296428942885
 20
115.9025799014600011
 30
0.0
  0
VERTEX
  5
A120
  8
0
 10
218.3720785972539886
 20
115.9129711846239985
 30
0.0
  0
VERTEX
  5
A121
  8
0
 10
218.3929529865395978
 20
115.9231697164624961
 30
0.0
  0
VERTEX
  5
A122
  8
0
 10
218.4034746496047035
 20
115.9281971776424029
 30
0.0
  0
VERTEX
  5
A123
  8
0
 10
218.4140525892701987
 20
115.9331770251085061
 30
0.0
  0
VERTEX
  5
A124
  8
0
 10
218.4353771960373933
 20
115.9429946521936046
 30
0.0
  0
VERTEX
  5
A125
  8
0
 10
218.4569266102375025
 20
115.9526241522642067
 30
0.0
  0
VERTEX
  5
A126
  8
0
 10
218.4677855623270091
 20
115.9573688438433976
 30
0.0
  0
VERTEX
  5
A127
  8
0
 10
218.4787006486222083
 20
115.9620670921575964
 30
0.0
  0
VERTEX
  5
A128
  8
0
 10
218.500699141653314
 20
115.9713250503452997
 30
0.0
  0
VERTEX
  5
A129
  8
0
 10
218.5229219336468134
 20
115.980399616250196
 30
0.0
  0
VERTEX
  5
A12A
  8
0
 10
218.5453688826949019
 20
115.9892923895460939
 30
0.0
  0
VERTEX
  5
A12B
  8
0
 10
218.5680398603522008
 20
115.9980049794474013
 30
0.0
  0
VERTEX
  5
A12C
  8
0
 10
218.5909347510751957
 20
116.0065390039934954
 30
0.0
  0
VERTEX
  5
A12D
  8
0
 10
218.6024661310609929
 20
116.0107395621339066
 30
0.0
  0
VERTEX
  5
A12E
  8
0
 10
218.6140534514042884
 20
116.0148960893391035
 30
0.0
  0
VERTEX
  5
A12F
  8
0
 10
218.637395868878798
 20
116.0230778690552
 30
0.0
  0
VERTEX
  5
A130
  8
0
 10
218.6609619206766979
 20
116.0310859834490032
 30
0.0
  0
VERTEX
  5
A131
  8
0
 10
218.6847515319726085
 20
116.0389220789085982
 30
0.0
  0
VERTEX
  5
A132
  8
0
 10
218.7087305501106869
 20
116.0465770963608065
 30
0.0
  0
VERTEX
  5
A133
  8
0
 10
218.7328578072983021
 20
116.0540411745518981
 30
0.0
  0
VERTEX
  5
A134
  8
0
 10
218.7449761359810907
 20
116.0577025352770022
 30
0.0
  0
VERTEX
  5
A135
  8
0
 10
218.7571304654418043
 20
116.0613172716549997
 30
0.0
  0
VERTEX
  5
A136
  8
0
 10
218.7815457249612052
 20
116.0684083509368065
 30
0.0
  0
VERTEX
  5
A137
  8
0
 10
218.8061007764474937
 20
116.0753173645454979
 30
0.0
  0
VERTEX
  5
A138
  8
0
 10
218.8307928017561039
 20
116.0820472532753058
 30
0.0
  0
VERTEX
  5
A139
  8
0
 10
218.8556189750925114
 20
116.0886009462729049
 30
0.0
  0
VERTEX
  5
A13A
  8
0
 10
218.8805764640823952
 20
116.0949813606938932
 30
0.0
  0
VERTEX
  5
A13B
  8
0
 10
218.8931035652906019
 20
116.0981074966744018
 30
0.0
  0
VERTEX
  5
A13C
  8
0
 10
218.905662430823611
 20
116.1011914013079007
 30
0.0
  0
VERTEX
  5
A13D
  8
0
 10
218.9308740329121008
 20
116.1072339600547991
 30
0.0
  0
VERTEX
  5
A13E
  8
0
 10
218.9562084244381879
 20
116.1131119155553932
 30
0.0
  0
VERTEX
  5
A13F
  8
0
 10
218.981662756944786
 20
116.1188281325795941
 30
0.0
  0
VERTEX
  5
A140
  8
0
 10
219.0072341803470977
 20
116.1243854614717037
 30
0.0
  0
VERTEX
  5
A141
  8
0
 10
219.0329198438022047
 20
116.1297867375382964
 30
0.0
  0
VERTEX
  5
A142
  8
0
 10
219.0458046246571939
 20
116.1324297375240064
 30
0.0
  0
VERTEX
  5
A143
  8
0
 10
219.0587168965303988
 20
116.135034780397902
 30
0.0
  0
VERTEX
  5
A144
  8
0
 10
219.0846224885775939
 20
116.1401323932988987
 30
0.0
  0
VERTEX
  5
A145
  8
0
 10
219.1106337715166887
 20
116.1450823624017943
 30
0.0
  0
VERTEX
  5
A146
  8
0
 10
219.1367478990837014
 20
116.1498874560348042
 30
0.0
  0
VERTEX
  5
A147
  8
0
 10
219.1629620277417132
 20
116.1545504239174988
 30
0.0
  0
VERTEX
  5
A148
  8
0
 10
219.189273317170688
 20
116.1590739963620962
 30
0.0
  0
VERTEX
  5
A149
  8
0
 10
219.2024645105562968
 20
116.1612843570078013
 30
0.0
  0
VERTEX
  5
A14A
  8
0
 10
219.2156789306768871
 20
116.1634608834463052
 30
0.0
  0
VERTEX
  5
A14B
  8
0
 10
219.2421760355196056
 20
116.1677137741643975
 30
0.0
  0
VERTEX
  5
A14C
  8
0
 10
219.2687618031488057
 20
116.1718353355579012
 30
0.0
  0
VERTEX
  5
A14D
  8
0
 10
219.2820870527702937
 20
116.173847694986506
 30
0.0
  0
VERTEX
  5
A14E
  8
0
 10
219.2954334093516024
 20
116.1758282118233012
 30
0.0
  0
VERTEX
  5
A14F
  8
0
 10
219.3221880343037924
 20
116.1796950234001997
 30
0.0
  0
VERTEX
  5
A150
  8
0
 10
219.3490228625203997
 20
116.1834383660442995
 30
0.0
  0
VERTEX
  5
A151
  8
0
 10
219.3624694741654082
 20
116.1852645407072941
 30
0.0
  0
VERTEX
  5
A152
  8
0
 10
219.3759350827048138
 20
116.1870608098774937
 30
0.0
  0
VERTEX
  5
A153
  8
0
 10
219.4029218874906917
 20
116.1905648984236024
 30
0.0
  0
VERTEX
  5
A154
  8
0
 10
219.4299804730742096
 20
116.1939531476259049
 30
0.0
  0
VERTEX
  5
A155
  8
0
 10
219.4571080387331961
 20
116.197228044848103
 30
0.0
  0
VERTEX
  5
A156
  8
0
 10
219.4842897134637951
 20
116.200390669059999
 30
0.0
  0
VERTEX
  5
A157
  8
0
 10
219.5114900156881106
 20
116.2034400029524051
 30
0.0
  0
VERTEX
  5
A158
  8
0
 10
219.5250954070473028
 20
116.2049230122668035
 30
0.0
  0
VERTEX
  5
A159
  8
0
 10
219.5387037151745062
 20
116.2063787256128933
 30
0.0
  0
VERTEX
  5
A15A
  8
0
 10
219.5659273548345993
 20
116.209209671576005
 30
0.0
  0
VERTEX
  5
A15B
  8
0
 10
219.5931574860894955
 20
116.2119356213536037
 30
0.0
  0
VERTEX
  5
A15C
  8
0
 10
219.6203906683512912
 20
116.2145593010305049
 30
0.0
  0
VERTEX
  5
A15D
  8
0
 10
219.6476234685380007
 20
116.2170833818537972
 30
0.0
  0
VERTEX
  5
A15E
  8
0
 10
219.6748524606225033
 20
116.219510479813394
 30
0.0
  0
VERTEX
  5
A15F
  8
0
 10
219.6884644598194996
 20
116.2206884625007035
 30
0.0
  0
VERTEX
  5
A160
  8
0
 10
219.7020742252188938
 20
116.2218431552104931
 30
0.0
  0
VERTEX
  5
A161
  8
0
 10
219.7292853492020868
 20
116.2240839122170968
 30
0.0
  0
VERTEX
  5
A162
  8
0
 10
219.7564824253651921
 20
116.2262351984213069
 30
0.0
  0
VERTEX
  5
A163
  8
0
 10
219.7836620521109978
 20
116.2282994043604987
 30
0.0
  0
VERTEX
  5
A164
  8
0
 10
219.8108208331788092
 20
116.2302788630378956
 30
0.0
  0
VERTEX
  5
A165
  8
0
 10
219.8379553774051942
 20
116.232175849426298
 30
0.0
  0
VERTEX
  5
A166
  8
0
 10
219.8515125023064911
 20
116.2330941104468991
 30
0.0
  0
VERTEX
  5
A167
  8
0
 10
219.8650622985171879
 20
116.2339925799532949
 30
0.0
  0
VERTEX
  5
A168
  8
0
 10
219.8921382149572139
 20
116.235731211971995
 30
0.0
  0
VERTEX
  5
A169
  8
0
 10
219.919179749736486
 20
116.2373938432115068
 30
0.0
  0
VERTEX
  5
A16A
  8
0
 10
219.9461835303166879
 20
116.2389825112103949
 30
0.0
  0
VERTEX
  5
A16B
  8
0
 10
219.9731461885156136
 20
116.2404991927325995
 30
0.0
  0
VERTEX
  5
A16C
  8
0
 10
220.0000643604354877
 20
116.241945803159993
 30
0.0
  0
VERTEX
  5
A16D
  8
0
 10
220.0135057139812034
 20
116.2426434133328996
 30
0.0
  0
VERTEX
  5
A16E
  8
0
 10
220.0269346864110958
 20
116.2433241958689933
 30
0.0
  0
VERTEX
  5
A16F
  8
0
 10
220.0537538109724096
 20
116.2446361615834007
 30
0.0
  0
VERTEX
  5
A170
  8
0
 10
220.0805183828213103
 20
116.245883427707895
 30
0.0
  0
VERTEX
  5
A171
  8
0
 10
220.1072250548158991
 20
116.2470676576374018
 30
0.0
  0
VERTEX
  5
A172
  8
0
 10
220.133870483960095
 20
116.2481904500454988
 30
0.0
  0
VERTEX
  5
A173
  8
0
 10
220.1604461989990114
 20
116.249253138355499
 30
0.0
  0
VERTEX
  5
A174
  8
0
 10
220.1737004141218108
 20
116.2497621699422012
 30
0.0
  0
VERTEX
  5
A175
  8
0
 10
220.1869311604613983
 20
116.2502565691052041
 30
0.0
  0
VERTEX
  5
A176
  8
0
 10
220.2133206339389915
 20
116.2512022318320959
 30
0.0
  0
VERTEX
  5
A177
  8
0
 10
220.2396113977227969
 20
116.2520916031228069
 30
0.0
  0
VERTEX
  5
A178
  8
0
 10
220.2527187583930868
 20
116.2525156204440009
 30
0.0
  0
VERTEX
  5
A179
  8
0
 10
220.26580023628361
 20
116.2529260846960995
 30
0.0
  0
VERTEX
  5
A17A
  8
0
 10
220.2918839399935962
 20
116.2537070033019972
 30
0.0
  0
VERTEX
  5
A17B
  8
0
 10
220.3178593048822052
 20
116.2544356106050003
 30
0.0
  0
VERTEX
  5
A17C
  8
0
 10
220.3308053605217083
 20
116.2547806680993006
 30
0.0
  0
VERTEX
  5
A17D
  8
0
 10
220.3437231324238041
 20
116.2551130830502046
 30
0.0
  0
VERTEX
  5
A17E
  8
0
 10
220.3694722293550115
 20
116.2557405217102939
 30
0.0
  0
VERTEX
  5
A17F
  8
0
 10
220.3951034075178086
 20
116.2563189521186047
 30
0.0
  0
VERTEX
  5
A180
  8
0
 10
220.4206134837276068
 20
116.256849324083106
 30
0.0
  0
VERTEX
  5
A181
  8
0
 10
220.4459992796601
 20
116.2573325114852025
 30
0.0
  0
VERTEX
  5
A182
  8
0
 10
220.4712576217563935
 20
116.2577693120604039
 30
0.0
  0
VERTEX
  5
A183
  8
0
 10
220.4838380071616086
 20
116.2579705457018946
 30
0.0
  0
VERTEX
  5
A184
  8
0
 10
220.4963853411416892
 20
116.2581604471641015
 30
0.0
  0
VERTEX
  5
A185
  8
0
 10
220.5213792735551124
 20
116.2585065615185016
 30
0.0
  0
VERTEX
  5
A186
  8
0
 10
220.5462362592851946
 20
116.2588082229437987
 30
0.0
  0
VERTEX
  5
A187
  8
0
 10
220.5709531431108985
 20
116.2590659220719971
 30
0.0
  0
VERTEX
  5
A188
  8
0
 10
220.5955267742399997
 20
116.2592800720417046
 30
0.0
  0
VERTEX
  5
A189
  8
0
 10
220.6199540062445124
 20
116.2594510081768959
 30
0.0
  0
VERTEX
  5
A18A
  8
0
 10
220.6321117295707097
 20
116.259520354426698
 30
0.0
  0
VERTEX
  5
A18B
  8
0
 10
220.6442293538852937
 20
116.2595789773273935
 30
0.0
  0
VERTEX
  5
A18C
  8
0
 10
220.6683376137812047
 20
116.259664138381396
 30
0.0
  0
VERTEX
  5
A18D
  8
0
 10
220.6922741986965093
 20
116.2597066663019945
 30
0.0
  0
VERTEX
  5
A18E
  8
0
 10
220.7041772303161906
 20
116.2597119792299054
 30
0.0
  0
SEQEND
  5
A18F
  8
0
  0
LINE
  5
8AD0
  8
0
 10
217.4054837647234137
 20
114.6895373314485056
 30
0.0
 11
217.4054837647240106
 21
101.2945456694174027
 31
0.0
  0
LINE
  5
8AD1
  8
2
 10
195.4054837647240106
 20
99.4945456694155155
 30
0.0
 11
195.4054837647240106
 21
115.2945456694154984
 31
0.0
  0
LINE
  5
8AD2
  8
2
 10
194.1554837647240106
 20
119.2945456694153989
 30
0.0
 11
194.1554837647240106
 21
116.2945456694154984
 31
0.0
  0
LINE
  5
8AD3
  8
2
 10
214.6554837647240106
 20
119.2945456694153989
 30
0.0
 11
214.6554837647240106
 21
116.2945456694154984
 31
0.0
  0
LINE
  5
8AD4
  8
2
 10
194.1554837647240106
 20
119.2945456694153989
 30
0.0
 11
214.6554837647240106
 21
119.2945456694153989
 31
0.0
  0
LINE
  5
8AD5
  8
2
 10
196.4054837647240106
 20
115.2945456694154984
 30
0.0
 11
195.4054837647240106
 21
115.2945456694154984
 31
0.0
  0
LINE
  5
8AD6
  8
2
 10
196.4054837647240106
 20
116.2945456694154984
 30
0.0
 11
196.4054837647240106
 21
115.2945456694154984
 31
0.0
  0
LINE
  5
8AD7
  8
2
 10
213.4054837647240959
 20
99.4945456694155155
 30
0.0
 11
213.4054837647240959
 21
115.2945456694154984
 31
0.0
  0
LINE
  5
8AD8
  8
2
 10
212.4054837647240959
 20
115.2945456694154984
 30
0.0
 11
213.4054837647240959
 21
115.2945456694154984
 31
0.0
  0
LINE
  5
8AD9
  8
2
 10
212.4054837647240959
 20
116.2945456694154984
 30
0.0
 11
212.4054837647240959
 21
115.2945456694154984
 31
0.0
  0
LINE
  5
8ADA
  8
2
 10
194.1554837647240959
 20
116.2945456694154984
 30
0.0
 11
214.6554837647240106
 21
116.2945456694154984
 31
0.0
  0
LINE
  5
8ADB
  8
2
 10
41.1560700112172526
 20
272.4281480277217042
 30
0.0
 11
24.1560700112172491
 21
272.4281480277217042
 31
0.0
  0
LINE
  5
8ADC
  8
2
 10
24.1560700112172491
 20
282.4281480277217042
 30
0.0
 11
41.1560700112172526
 21
282.4281480277217042
 31
0.0
  0
LINE
  5
8ADD
  8
2
 10
24.3560700112173016
 20
286.4281480277217042
 30
0.0
 11
40.1560700112172526
 21
286.4281480277217042
 31
0.0
  0
LINE
  5
8ADE
  8
2
 10
44.1560700112172526
 20
287.6781480277217042
 30
0.0
 11
41.1560700112172526
 21
287.6781480277217042
 31
0.0
  0
LINE
  5
8ADF
  8
2
 10
44.1560700112172526
 20
267.1781480277217042
 30
0.0
 11
41.1560700112172526
 21
267.1781480277217042
 31
0.0
  0
LINE
  5
8AE0
  8
2
 10
44.1560700112172526
 20
287.6781480277217042
 30
0.0
 11
44.1560700112172526
 21
267.1781480277217042
 31
0.0
  0
LINE
  5
8AE1
  8
2
 10
40.1560700112172526
 20
285.4281480277217042
 30
0.0
 11
40.1560700112172526
 21
286.4281480277217042
 31
0.0
  0
LINE
  5
8AE2
  8
2
 10
41.1560700112172526
 20
285.4281480277217042
 30
0.0
 11
40.1560700112172526
 21
285.4281480277217042
 31
0.0
  0
LINE
  5
8AE4
  8
2
 10
24.3560700112173016
 20
268.4281480277217042
 30
0.0
 11
40.1560700112172526
 21
268.4281480277217042
 31
0.0
  0
LINE
  5
8AE5
  8
2
 10
40.1560700112172526
 20
269.4281480277217042
 30
0.0
 11
40.1560700112172526
 21
268.4281480277217042
 31
0.0
  0
LINE
  5
8AE6
  8
2
 10
41.1560700112172526
 20
269.4281480277217042
 30
0.0
 11
40.1560700112172526
 21
269.4281480277217042
 31
0.0
  0
LINE
  5
8AE7
  8
2
 10
41.1560700112172526
 20
287.6781480277217042
 30
0.0
 11
41.1560700112172526
 21
267.1781480277217042
 31
0.0
  0
LINE
  5
8AE9
  8
1
 10
55.1560700112172526
 20
303.8164065228182267
 30
0.0
 11
55.1560700112172526
 21
321.4119298599405283
 31
0.0
  0
LINE
  5
8AEA
  8
1
 10
55.1560700112172526
 20
303.8164065228182267
 30
0.0
 11
55.1560700112172526
 21
321.4119298599405283
 31
0.0
  0
LINE
  5
8B2A
  8
1
 10
473.3075432083364262
 20
314.4281480277217042
 30
0.0
 11
453.3399795438987212
 21
314.4281480277217042
 31
0.0
  0
LINE
  5
8B2B
  8
0
 10
497.1237613761173861
 20
268.4281480277217042
 30
0.0
 11
497.3237613761174885
 21
268.4281480277217042
 31
0.0
  0
LINE
  5
8B2C
  8
0
 10
497.3237613761174885
 20
286.4281480277217042
 30
0.0
 11
497.1237613761173861
 21
286.4281480277217042
 31
0.0
  0
ARC
  5
8B2D
  8
0
 10
496.6237613761173861
 20
289.6781480277217042
 30
0.0
 40
0.4999999999999999
 50
0.0
 51
90.0
  0
LINE
  5
8B30
  8
0
 10
496.6237613761173861
 20
290.1781480277217042
 30
0.0
 11
495.3237613761156126
 21
290.1781480277217042
 31
0.0
  0
ARC
  5
8B31
  8
0
 10
473.6570947094508028
 20
320.2614813610550186
 30
0.0
 40
6.6666666666666918
 50
0.0
 51
90.0
  0
ARC
  5
8B32
  8
0
 10
473.6570947094508028
 20
234.5948146943883899
 30
0.0
 40
6.6666666666666847
 50
270.0
 51
0.0
  0
LINE
  5
8B33
  8
0
 10
469.6234779945320952
 20
227.9281480277217042
 30
0.0
 11
473.6570947094508028
 21
227.9281480277217042
 31
0.0
  0
LINE
  5
8B34
  8
0
 10
473.6570947094508028
 20
326.9281480277217042
 30
0.0
 11
469.6234779945320952
 21
326.9281480277217042
 31
0.0
  0
ARC
  5
8B35
  8
0
 10
469.6234779945320952
 20
306.9281480277211926
 30
0.0
 40
20.0000000000004192
 50
90.0
 51
104.9999999999944009
  0
ARC
  5
8B36
  8
0
 10
469.6234779945320952
 20
247.9281480277221874
 30
0.0
 40
20.0000000000003091
 50
255.0000000000055138
 51
270.0
  0
LINE
  5
8B37
  8
0
 10
461.8061232859124061
 20
229.317278300642414
 30
0.0
 11
464.4470970924817266
 21
228.6096315019404983
 31
0.0
  0
LINE
  5
8B38
  8
0
 10
464.4470970924817266
 20
326.2466645535030807
 30
0.0
 11
461.8061232859124061
 21
325.5390177548011934
 31
0.0
  0
ARC
  5
8B39
  8
0
 10
462.3237613761174885
 20
323.6071661022230046
 30
0.0
 40
2.0000000000000031
 50
104.9999999999944009
 51
180.0
  0
ARC
  5
8B3A
  8
0
 10
462.3237613761174885
 20
231.2491299532204039
 30
0.0
 40
2.0
 50
180.0
 51
255.0000000000055138
  0
LINE
  5
8B3B
  8
0
 10
480.3237613761174885
 20
243.8805289801028948
 30
0.0
 11
495.3237613761156126
 21
264.6781480277217042
 31
0.0
  0
LINE
  5
8B3C
  8
0
 10
495.3237613761156126
 20
290.1781480277217042
 30
0.0
 11
480.3237613761174885
 21
310.9757670753406273
 31
0.0
  0
LINE
  5
8B3D
  8
0
 10
497.3237613761174885
 20
286.4281480277217042
 30
0.0
 11
497.3237613761174885
 21
268.4281480277217042
 31
0.0
  0
LINE
  5
8B3E
  8
0
 10
497.1237613761173861
 20
289.6781480277217042
 30
0.0
 11
497.1237613761173861
 21
265.1781480277217042
 31
0.0
  0
LINE
  5
8B3F
  8
0
 10
480.3237613761174885
 20
320.2614813610550186
 30
0.0
 11
480.3237613761174885
 21
234.5948146943883899
 31
0.0
  0
LINE
  5
8B40
  8
0
 10
460.3237613761174885
 20
323.6071661022230046
 30
0.0
 11
460.3237613761174885
 21
231.2491299532204039
 31
0.0
  0
LINE
  5
8B41
  8
0
 10
495.3237613761156126
 20
290.1781480277217042
 30
0.0
 11
495.3237613761156126
 21
264.6781480277217042
 31
0.0
  0
POLYLINE
  5
8B42
  8
0
 66
     1
 10
0.0
 20
0.0
 30
0.0
  0
VERTEX
  5
A190
  8
0
 10
480.3237613761174885
 20
308.0944087746316882
 30
0.0
  0
VERTEX
  5
A191
  8
0
 10
483.6356565445977935
 20
301.9116999770495795
 30
0.0
  0
VERTEX
  5
A192
  8
0
 10
486.2573068834853984
 20
296.7962041234475805
 30
0.0
  0
VERTEX
  5
A193
  8
0
 10
488.1431917962685816
 20
292.820366532287494
 30
0.0
  0
VERTEX
  5
A194
  8
0
 10
488.8876264888518222
 20
291.1286177625300979
 30
0.0
  0
VERTEX
  5
A195
  8
0
 10
489.5270115046067758
 20
289.587168100098495
 30
0.0
  0
VERTEX
  5
A196
  8
0
 10
490.5471219189213912
 20
286.8546224367584045
 30
0.0
  0
VERTEX
  5
A197
  8
0
 10
491.2892623808763801
 20
284.464586139053722
 30
0.0
  0
VERTEX
  5
A198
  8
0
 10
491.6163494106680787
 20
283.1834021438039031
 30
0.0
  0
VERTEX
  5
A199
  8
0
 10
491.696977144011214
 20
282.8293262291884957
 30
0.0
  0
VERTEX
  5
A19A
  8
0
 10
491.7721808461599267
 20
282.4798981680480097
 30
0.0
  0
VERTEX
  5
A19B
  8
0
 10
491.8077902569883122
 20
282.3068189303976965
 30
0.0
  0
VERTEX
  5
A19C
  8
0
 10
491.8420921778223942
 20
282.1347735094869904
 30
0.0
  0
VERTEX
  5
A19D
  8
0
 10
491.906832025946585
 20
281.7936205356454025
 30
0.0
  0
VERTEX
  5
A19E
  8
0
 10
491.9665110461833137
 20
281.4561191126621225
 30
0.0
  0
VERTEX
  5
A19F
  8
0
 10
492.0212301515538798
 20
281.1219596150255029
 30
0.0
  0
VERTEX
  5
A1A0
  8
0
 10
492.0710809514736752
 20
280.7908419153440036
 30
0.0
  0
VERTEX
  5
A1A1
  8
0
 10
492.1161461447915144
 20
280.462474432302713
 30
0.0
  0
VERTEX
  5
A1A2
  8
0
 10
492.1369076329145855
 20
280.2992330171169897
 30
0.0
  0
VERTEX
  5
A1A3
  8
0
 10
492.1564998700723095
 20
280.1365732301782145
 30
0.0
  0
VERTEX
  5
A1A4
  8
0
 10
492.1922080159425263
 20
279.8128611638497887
 30
0.0
  0
VERTEX
  5
A1A5
  8
0
 10
492.2233284939717919
 20
279.4910670637000862
 30
0.0
  0
VERTEX
  5
A1A6
  8
0
 10
492.2499114762260888
 20
279.170924955216492
 30
0.0
  0
VERTEX
  5
A1A7
  8
0
 10
492.2719995993332986
 20
278.8521733084506877
 30
0.0
  0
VERTEX
  5
A1A8
  8
0
 10
492.2896281366279254
 20
278.5345543127920109
 30
0.0
  0
VERTEX
  5
A1A9
  8
0
 10
492.2967791055501721
 20
278.3760898366527954
 30
0.0
  0
VERTEX
  5
A1AA
  8
0
 10
492.3028251396759742
 20
278.2178131727592927
 30
0.0
  0
VERTEX
  5
A1AB
  8
0
 10
492.3116115502518255
 20
277.9016974207191879
 30
0.0
  0
VERTEX
  5
A1AC
  8
0
 10
492.3160012835994053
 20
277.5859562426055049
 30
0.0
  0
VERTEX
  5
A1AD
  8
0
 10
492.3165498376546907
 20
277.4281480277217042
 30
0.0
  0
VERTEX
  5
A1AE
  8
0
 10
492.3160012835994053
 20
277.2703398128381878
 30
0.0
  0
VERTEX
  5
A1AF
  8
0
 10
492.3116115502518255
 20
276.9545986347245048
 30
0.0
  0
VERTEX
  5
A1B0
  8
0
 10
492.3028251396759742
 20
276.6384828826844
 30
0.0
  0
VERTEX
  5
A1B1
  8
0
 10
492.2967791055501721
 20
276.4802062187908973
 30
0.0
  0
VERTEX
  5
A1B2
  8
0
 10
492.2896281366279254
 20
276.3217417426513975
 30
0.0
  0
VERTEX
  5
A1B3
  8
0
 10
492.2719995993332986
 20
276.004122746993005
 30
0.0
  0
VERTEX
  5
A1B4
  8
0
 10
492.2499114762260888
 20
275.685371100227087
 30
0.0
  0
VERTEX
  5
A1B5
  8
0
 10
492.2233284939717919
 20
275.3652289917434928
 30
0.0
  0
VERTEX
  5
A1B6
  8
0
 10
492.1922080159425263
 20
275.043434891593904
 30
0.0
  0
VERTEX
  5
A1B7
  8
0
 10
492.1564998700723095
 20
274.7197228252654213
 30
0.0
  0
VERTEX
  5
A1B8
  8
0
 10
492.1369076329145855
 20
274.5570630383265893
 30
0.0
  0
VERTEX
  5
A1B9
  8
0
 10
492.1161461447915144
 20
274.3938216231409797
 30
0.0
  0
VERTEX
  5
A1BA
  8
0
 10
492.0710809514736752
 20
274.0654541400994049
 30
0.0
  0
VERTEX
  5
A1BB
  8
0
 10
492.0212301515538798
 20
273.7343364404181898
 30
0.0
  0
VERTEX
  5
A1BC
  8
0
 10
491.9665110461833137
 20
273.400176942781286
 30
0.0
  0
VERTEX
  5
A1BD
  8
0
 10
491.906832025946585
 20
273.0626755197982902
 30
0.0
  0
VERTEX
  5
A1BE
  8
0
 10
491.8420921778223942
 20
272.7215225459565886
 30
0.0
  0
VERTEX
  5
A1BF
  8
0
 10
491.8077902569883122
 20
272.5494771250458825
 30
0.0
  0
VERTEX
  5
A1C0
  8
0
 10
491.7721808461599267
 20
272.376397887395683
 30
0.0
  0
VERTEX
  5
A1C1
  8
0
 10
491.696977144011214
 20
272.0269698262550833
 30
0.0
  0
VERTEX
  5
A1C2
  8
0
 10
491.6163494106680787
 20
271.6728939116397896
 30
0.0
  0
VERTEX
  5
A1C3
  8
0
 10
491.2892623808763801
 20
270.3917099163899138
 30
0.0
  0
VERTEX
  5
A1C4
  8
0
 10
490.5471219189213912
 20
268.0016736186850039
 30
0.0
  0
VERTEX
  5
A1C5
  8
0
 10
489.5270115046067758
 20
265.2691279553450272
 30
0.0
  0
VERTEX
  5
A1C6
  8
0
 10
488.8876264888518222
 20
263.7276782929134811
 30
0.0
  0
VERTEX
  5
A1C7
  8
0
 10
488.1431917962685816
 20
262.035929523156085
 30
0.0
  0
VERTEX
  5
A1C8
  8
0
 10
486.2573068834853984
 20
258.060091931995828
 30
0.0
  0
VERTEX
  5
A1C9
  8
0
 10
483.6356565445977935
 20
252.9445960783938006
 30
0.0
  0
VERTEX
  5
A1CA
  8
0
 10
480.3237613761174885
 20
246.7618872808116919
 30
0.0
  0
SEQEND
  5
A1CB
  8
0
  0
LINE
  5
8B43
  8
1
 10
450.3399795438987212
 20
277.4281480277217042
 30
0.0
 11
504.3074595511135954
 21
277.4281480277217042
 31
0.0
  0
LINE
  5
8B44
  8
2
 10
480.3237613761174885
 20
272.4281480277217042
 30
0.0
 11
497.3237613761174885
 21
272.4281480277217042
 31
0.0
  0
LINE
  5
8B45
  8
2
 10
497.3237613761174885
 20
282.4281480277217042
 30
0.0
 11
480.3237613761174885
 21
282.4281480277217042
 31
0.0
  0
LINE
  5
8B46
  8
2
 10
497.1237613761173861
 20
286.4281480277217042
 30
0.0
 11
481.3237613761174885
 21
286.4281480277217042
 31
0.0
  0
LINE
  5
8B47
  8
2
 10
477.3237613761174885
 20
287.6781480277217042
 30
0.0
 11
480.3237613761174885
 21
287.6781480277217042
 31
0.0
  0
LINE
  5
8B48
  8
2
 10
477.3237613761174885
 20
267.1781480277217042
 30
0.0
 11
480.3237613761174885
 21
267.1781480277217042
 31
0.0
  0
LINE
  5
8B49
  8
2
 10
477.3237613761174885
 20
287.6781480277217042
 30
0.0
 11
477.3237613761174885
 21
267.1781480277217042
 31
0.0
  0
LINE
  5
8B4A
  8
2
 10
481.3237613761174885
 20
285.4281480277217042
 30
0.0
 11
481.3237613761174885
 21
286.4281480277217042
 31
0.0
  0
LINE
  5
8B4B
  8
2
 10
480.3237613761174885
 20
285.4281480277217042
 30
0.0
 11
481.3237613761174885
 21
285.4281480277217042
 31
0.0
  0
LINE
  5
8B4D
  8
2
 10
497.1237613761173861
 20
268.4281480277217042
 30
0.0
 11
481.3237613761174885
 21
268.4281480277217042
 31
0.0
  0
LINE
  5
8B4E
  8
2
 10
481.3237613761174885
 20
269.4281480277217042
 30
0.0
 11
481.3237613761174885
 21
268.4281480277217042
 31
0.0
  0
LINE
  5
8B4F
  8
2
 10
480.3237613761174885
 20
269.4281480277217042
 30
0.0
 11
481.3237613761174885
 21
269.4281480277217042
 31
0.0
  0
LINE
  5
8B50
  8
2
 10
480.3237613761174885
 20
287.6781480277217042
 30
0.0
 11
480.3237613761174885
 21
267.1781480277217042
 31
0.0
  0
LINE
  5
8B51
  8
1
 10
466.3237613761174885
 20
241.4443661955027949
 30
0.0
 11
466.3237613761174885
 21
321.4119298599405283
 31
0.0
  0
LINE
  5
8B52
  8
1
 10
466.3237613761174885
 20
241.4443661955027949
 30
0.0
 11
466.3237613761174885
 21
321.4119298599405283
 31
0.0
  0
LINE
  5
8E7C
  8
1
 10
347.6804107287366037
 20
130.2945456694154132
 30
0.0
 11
371.1285310106763973
 21
130.2945456694154132
 31
0.0
  0
ARC
  5
8F1A
  8
0
 10
359.4044708697064721
 20
314.4281480277219885
 30
0.0
 40
7.3000000000000762
 50
286.482970138018004
 51
253.5170298619815981
  0
ARC
  5
8F1B
  8
0
 10
359.4044708697064721
 20
314.4281480277219885
 30
0.0
 40
4.75
 50
299.6523989064949092
 51
240.3476010935050908
  0
ARC
  5
8F1C
  8
0
 10
359.4044708697064721
 20
314.4281480277219885
 30
0.0
 40
5.1716225041071731
 50
297.0265190665901969
 51
242.9734809334098884
  0
ARC
  5
8F1E
  8
0
 10
358.0544708697066199
 20
317.4281480277219885
 30
0.0
 40
1.0
 50
90.0
 51
180.0
  0
LINE
  5
8F1F
  8
0
 10
357.0544708697065062
 20
307.4281480277219885
 30
0.0
 11
357.0544708697065062
 21
317.4281480277219885
 31
0.0
  0
ARC
  5
8F20
  8
0
 10
360.7544708697066085
 20
317.4281480277219885
 30
0.0
 40
1.000000000000004
 50
0.0
 51
90.0
  0
LINE
  5
8F21
  8
0
 10
358.0544708697065062
 20
318.4281480277219885
 30
0.0
 11
360.7544708697066085
 21
318.4281480277219885
 31
0.0
  0
LINE
  5
8F22
  8
0
 10
361.7544708697066085
 20
317.4281480277219885
 30
0.0
 11
361.7544708697064948
 21
307.4281480277219885
 31
0.0
  0
ARC
  5
8F23
  8
0
 10
359.4044708697064721
 20
314.4281480277218748
 30
0.0
 40
7.9999999999999583
 50
298.9550243718596789
 51
241.0449756281402074
  0
LINE
  5
8F24
  8
1
 10
192.6814236237541991
 20
130.2945456694154132
 30
0.0
 11
216.1295439056939074
 21
130.2945456694154132
 31
0.0
  0
POINT
  5
8FDC
  8
0
 10
359.4044708697064721
 20
244.4281480277219032
 30
-0.0000000000000089
210
-0.0000000000000001
220
-1.0
230
0.0
 50
180.0
  0
ARC
  5
92CE
  8
0
 10
204.4054837647240106
 20
187.2945456694154984
 30
0.0
 40
9.0000000000000089
 50
0.0
 51
180.0
  0
LINE
  5
92CF
  8
0
 10
213.4054837647240959
 20
157.8645456694154063
 30
0.0
 11
213.4054837647240959
 21
187.2945456694154984
 31
0.0
  0
LINE
  5
92D0
  8
0
 10
195.4054837647240106
 20
187.2945456694154984
 30
0.0
 11
195.4054837647240106
 21
157.8645456694154063
 31
0.0
  0
ARC
  5
92D1
  8
0
 10
197.9754837647240038
 20
157.8645456694154063
 30
0.0
 40
2.5700000000000092
 50
180.0
 51
251.2523408187288965
  0
ARC
  5
92D2
  8
0
 10
210.8354837647241027
 20
157.8645456694154063
 30
0.0
 40
2.5700000000000078
 50
288.7476591812680908
 51
0.0000008537736463
  0
LINE
  5
92D3
  8
0
 10
211.6614837647240108
 20
136.4945456694154018
 30
0.0
 11
211.6614837647240108
 21
155.4309014883569091
 31
0.0
  0
LINE
  5
92D4
  8
0
 10
197.1494837647240956
 20
155.4309014883569091
 30
0.0
 11
197.1494837647240956
 21
136.4945456694154018
 31
0.0
  0
LINE
  5
92D5
  8
0
 10
195.4054837647240106
 20
187.2945456694154984
 30
0.0
 11
213.4054837647240959
 21
187.2945456694154984
 31
0.0
  0
LINE
  5
92D6
  8
0
 10
195.4054837647240106
 20
157.8645456694154063
 30
0.0
 11
213.4054837647240959
 21
157.8645456694154063
 31
0.0
  0
LINE
  5
92D7
  8
0
 10
197.1494837647240956
 20
155.4309014883569091
 30
0.0
 11
211.6614837647240108
 21
155.4309014883569091
 31
0.0
  0
ARC
  5
92D9
  8
0
 10
197.3494837647241127
 20
136.4945456694154018
 30
0.0
 40
0.2000000000000055
 50
180.0
 51
270.0
  0
ARC
  5
92DA
  8
0
 10
211.4614837647239938
 20
136.4945456694154018
 30
0.0
 40
0.2000000000000028
 50
270.0
 51
0.0
  0
ARC
  5
92DB
  8
0
 10
112.1560700112171958
 20
314.4281480277217042
 30
0.0
 40
9.0000000000000089
 50
270.0
 51
90.0
  0
LINE
  5
92DC
  8
0
 10
82.7260700112172458
 20
305.4281480277217042
 30
0.0
 11
112.1560700112171958
 21
305.4281480277217042
 31
0.0
  0
LINE
  5
92DD
  8
0
 10
112.1560700112171958
 20
323.4281480277217042
 30
0.0
 11
82.7260700112172458
 21
323.4281480277217042
 31
0.0
  0
ARC
  5
92DE
  8
0
 10
82.7260700112172458
 20
320.8581480277217111
 30
0.0
 40
2.5700000000000092
 50
90.0
 51
161.2523408187284133
  0
ARC
  5
92DF
  8
0
 10
82.7260700112172458
 20
307.9981480277216974
 30
0.0
 40
2.5700000000000078
 50
198.7476591812680908
 51
270.0000008537735994
  0
LINE
  5
92E0
  8
0
 10
61.3560700112172412
 20
307.1721480277216756
 30
0.0
 11
80.2924258301587201
 21
307.1721480277216756
 31
0.0
  0
LINE
  5
92E1
  8
0
 10
80.2924258301587201
 20
321.684148027721676
 30
0.0
 11
61.3560700112172412
 21
321.684148027721676
 31
0.0
  0
ARC
  5
92E2
  8
0
 10
61.3560700112172412
 20
321.4841480277216874
 30
0.0
 40
0.2000000000000055
 50
90.0
 51
180.0
  0
ARC
  5
92E3
  8
0
 10
61.3560700112172412
 20
307.3721480277217211
 30
0.0
 40
0.2000000000000028
 50
180.0
 51
270.0
  0
LINE
  5
92E4
  8
0
 10
112.1560700112171958
 20
323.4281480277217042
 30
0.0
 11
112.1560700112171958
 21
305.4281480277217042
 31
0.0
  0
LINE
  5
92E5
  8
0
 10
82.7260700112172458
 20
323.4281480277217042
 30
0.0
 11
82.7260700112172458
 21
305.4281480277217042
 31
0.0
  0
LINE
  5
92E6
  8
0
 10
80.2924258301587201
 20
321.684148027721676
 30
0.0
 11
80.2924258301587201
 21
307.1721480277216756
 31
0.0
  0
ARC
  5
9325
  8
0
 10
359.4044708697064721
 20
253.4281480277219032
 30
0.0
 40
9.0000000000000089
 50
180.0
 51
0.0
  0
LINE
  5
9326
  8
0
 10
350.4044708697064721
 20
282.8581480277218816
 30
0.0
 11
350.4044708697064721
 21
253.4281480277219032
 31
0.0
  0
LINE
  5
9327
  8
0
 10
368.4044708697065857
 20
253.4281480277219032
 30
0.0
 11
368.4044708697065857
 21
282.8581480277218816
 31
0.0
  0
ARC
  5
9328
  8
0
 10
365.8344708697064789
 20
282.8581480277218816
 30
0.0
 40
2.5700000000000092
 50
0.0
 51
71.2523408187284417
  0
ARC
  5
9329
  8
0
 10
352.9744708697065221
 20
282.8581480277218816
 30
0.0
 40
2.5700000000000078
 50
108.7476591812663997
 51
180.0000008537735994
  0
LINE
  5
932A
  8
0
 10
352.1484708697065003
 20
304.2281480277218861
 30
0.0
 11
352.1484708697065003
 21
285.2917922087804072
 31
0.0
  0
LINE
  5
932B
  8
0
 10
366.6604708697065007
 20
285.2917922087804072
 30
0.0
 11
366.6604708697065007
 21
304.2281480277218861
 31
0.0
  0
ARC
  5
932C
  8
0
 10
366.4604708697065121
 20
304.2281480277218861
 30
0.0
 40
0.2000000000000055
 50
0.0
 51
90.0
  0
ARC
  5
932D
  8
0
 10
352.3484708697064889
 20
304.2281480277218861
 30
0.0
 40
0.2000000000000028
 50
90.0
 51
180.0
  0
LINE
  5
932E
  8
0
 10
354.6544708697064721
 20
307.4281480277218748
 30
0.0
 11
354.2328483655992954
 21
304.4281480277218748
 31
0.0
  0
LINE
  5
932F
  8
0
 10
364.5760933738137055
 20
304.4281480277218748
 30
0.0
 11
364.1544708697064721
 21
307.4281480277218748
 31
0.0
  0
LINE
  5
9330
  8
0
 10
368.4044708697065857
 20
253.4281480277219032
 30
0.0
 11
350.4044708697064721
 21
253.4281480277219032
 31
0.0
  0
LINE
  5
9331
  8
0
 10
368.4044708697065857
 20
282.8581480277218816
 30
0.0
 11
350.4044708697064721
 21
282.8581480277218816
 31
0.0
  0
LINE
  5
9332
  8
0
 10
366.6604708697065007
 20
285.2917922087804072
 30
0.0
 11
352.1484708697065003
 21
285.2917922087804072
 31
0.0
  0
LINE
  5
9334
  8
0
 10
364.1544708697064721
 20
307.4281480277218748
 30
0.0
 11
354.6544708697064721
 21
307.4281480277218748
 31
0.0
  0
LINE
  5
9335
  8
0
 10
352.3484708697064889
 20
304.4281480277218748
 30
0.0
 11
366.4604708697065121
 21
304.4281480277218748
 31
0.0
  0
ARC
  5
933A
  8
0
 10
466.3237613761174885
 20
253.4281480277219032
 30
0.0
 40
9.0000000000000071
 50
180.0
 51
228.1896851042214962
  0
LINE
  5
933B
  8
0
 10
457.3237613761174885
 20
282.8581480277219953
 30
0.0
 11
457.3237613761174885
 21
253.4281480277219032
 31
0.0
  0
ARC
  5
933C
  8
0
 10
459.8937613761174248
 20
282.8581480277219953
 30
0.0
 40
2.5699999999999972
 50
108.747659181268105
 51
180.0
  0
LINE
  5
933D
  8
0
 10
459.067761376117403
 20
304.2281480277221135
 30
0.0
 11
459.067761376117403
 21
285.2917922087805209
 31
0.0
  0
LINE
  5
933E
  8
0
 10
460.3237613761174885
 20
253.4281480277219032
 30
0.0
 11
457.3237613761174885
 21
253.4281480277219032
 31
0.0
  0
LINE
  5
933F
  8
0
 10
460.3237613761174885
 20
282.8581480277219953
 30
0.0
 11
457.3237613761174885
 21
282.8581480277219953
 31
0.0
  0
LINE
  5
9340
  8
0
 10
460.3237613761174885
 20
285.2917922087804072
 30
0.0
 11
459.067761376117403
 21
285.2917922087805209
 31
0.0
  0
ARC
  5
93B9
  8
0
 10
459.2677613761173916
 20
304.2281480277219998
 30
0.0
 40
0.2000000000000028
 50
90.0
 51
180.0
  0
LINE
  5
93BA
  8
0
 10
459.2677613761173916
 20
304.4281480277219885
 30
0.0
 11
460.3237613761174885
 21
304.4281480277219885
 31
0.0
  0
LINE
  5
960D
  8
0
 10
218.1554837647240959
 20
305.0981487281803197
 30
0.0
 11
218.1554837647240959
 21
249.7581473272632024
 31
0.0
  0
LINE
  5
960E
  8
0
 10
190.6752009974393047
 20
305.5599499397392265
 30
0.0
 11
190.6554837647240959
 21
249.7581473272632024
 31
0.0
  0
LINE
  5
9617
  8
0
 10
373.1544708697064152
 20
305.0981487281803197
 30
0.0
 11
373.1544708697064152
 21
249.7581473272632024
 31
0.0
  0
LINE
  5
9618
  8
0
 10
345.6741881024216809
 20
305.5599499397392265
 30
0.0
 11
345.6544708697064152
 21
249.7581473272632024
 31
0.0
  0
ARC
  5
96A8
  8
0
 10
496.6237613761173861
 20
265.1781480277217042
 30
0.0
 40
0.4999999999999999
 50
270.0
 51
0.0
  0
LINE
  5
96A9
  8
0
 10
496.6237613761173861
 20
264.6781480277217042
 30
0.0
 11
495.3237613761156126
 21
264.6781480277217042
 31
0.0
  0
ARC
  5
96AA
  8
0
 10
24.8560700112173016
 20
289.6781480277217042
 30
0.0
 40
0.4999999999999999
 50
90.0
 51
180.0
  0
LINE
  5
96AB
  8
0
 10
24.8560700112173016
 20
290.1781480277217042
 30
0.0
 11
26.1560700112191888
 21
290.1781480277217042
 31
0.0
  0
LINE
  5
96AC
  8
0
 10
24.3560700112173016
 20
289.6781480277217042
 30
0.0
 11
24.3560700112173016
 21
265.1781480277217042
 31
0.0
  0
ARC
  5
96AD
  8
0
 10
24.8560700112173016
 20
265.1781480277217042
 30
0.0
 40
0.4999999999999999
 50
180.0
 51
270.0
  0
LINE
  5
96AE
  8
0
 10
24.8560700112173016
 20
264.6781480277217042
 30
0.0
 11
26.1560700112191888
 21
264.6781480277217042
 31
0.0
  0
TEXT
  5
970D
  8
0
 62
     3
 10
0.0
 20
0.0
 30
0.0
 40
10.0
  1
TWN100F-M
  7
STANDARD1
  0
LINE
  5
97C1
  8
2
 10
495.3237613761154989
 20
290.1781480277217042
 30
0.0
 11
480.3237613761174885
 21
290.1781480277217042
 31
0.0
  0
LINE
  5
97C4
  8
1
 10
490.3237613761174885
 20
293.1781480277217042
 30
0.0
 11
490.3237613761174885
 21
279.4766659192592897
 31
0.0
  0
LINE
  5
97C5
  8
2
 10
487.8237613761174885
 20
282.4281480277217042
 30
0.0
 11
487.8237613761174885
 21
286.4281480277217042
 31
0.0
  0
LINE
  5
97C6
  8
2
 10
488.2567613761173106
 20
282.4281480277217042
 30
0.0
 11
488.2567613761173106
 21
286.4281480277218179
 31
0.0
  0
LINE
  5
97C7
  8
2
 10
492.3907613761177231
 20
282.4281480277217042
 30
0.0
 11
492.3907613761177231
 21
286.4281480277218179
 31
0.0
  0
LINE
  5
97C8
  8
2
 10
492.8237613761174885
 20
282.4281480277217042
 30
0.0
 11
492.8237613761174885
 21
286.4281480277217042
 31
0.0
  0
LINE
  5
97C9
  8
2
 10
487.3237613761174885
 20
288.9766659192592897
 30
0.0
 11
487.3237613761174885
 21
286.4281480277218179
 31
0.0
  0
LINE
  5
97CA
  8
2
 10
493.3237613761174885
 20
288.9766659192592897
 30
0.0
 11
493.3237613761174885
 21
286.4281480277218179
 31
0.0
  0
LINE
  5
97CB
  8
2
 10
486.1222792676550739
 20
290.1781480277217042
 30
0.0
 11
487.3237613761174885
 21
288.9766659192592897
 31
0.0
  0
LINE
  5
97CC
  8
2
 10
494.525243484579903
 20
290.1781480277217042
 30
0.0
 11
493.3237613761174885
 21
288.9766659192592897
 31
0.0
  0
LINE
  5
97CD
  8
2
 10
487.3237613761174885
 20
288.9766659192592897
 30
0.0
 11
493.3237613761174885
 21
288.9766659192592897
 31
0.0
  0
CIRCLE
  5
97FD
  8
2
 10
204.4054837647242095
 20
277.4281480277218748
 30
0.0
 40
5.0
  0
CIRCLE
  5
97FE
  8
2
 10
204.4054837647240959
 20
277.4281480277218748
 30
0.0
 40
9.0
  0
CIRCLE
  5
97FF
  8
2
 10
204.4054837647240959
 20
277.4281480277218748
 30
0.0
 40
12.75
  0
LINE
  5
9800
  8
2
 10
201.9054837647240959
 20
281.7582750466440871
 30
0.0
 11
201.9054837647240959
 21
286.0739562606171944
 31
0.0
  0
LINE
  5
9801
  8
2
 10
202.3384837647238896
 20
281.9808956596468761
 30
0.0
 11
202.3384837647240033
 21
286.187572152628718
 31
0.0
  0
LINE
  5
9802
  8
2
 10
206.4724837647243874
 20
281.9808956596469898
 30
0.0
 11
206.4724837647243874
 21
286.187572152628718
 31
0.0
  0
LINE
  5
9803
  8
2
 10
206.9054837647242095
 20
281.7582750466442008
 30
0.0
 11
206.9054837647242095
 21
286.0739562606171944
 31
0.0
  0
LINE
  5
9804
  8
2
 10
201.4054837647242095
 20
288.3275474668523088
 30
0.0
 11
201.4054837647242095
 21
285.9134294019605136
 31
0.0
  0
LINE
  5
9805
  8
2
 10
207.4054837647242095
 20
288.3275474668523088
 30
0.0
 11
207.4054837647242095
 21
285.9134294019605136
 31
0.0
  0
LINE
  5
9806
  8
2
 10
200.2507944187726139
 20
289.4822368128038192
 30
0.0
 11
201.4054837647242095
 21
288.3275474668523088
 31
0.0
  0
LINE
  5
9807
  8
2
 10
208.5601731106756063
 20
289.4822368128038192
 30
0.0
 11
207.4054837647242095
 21
288.3275474668523088
 31
0.0
  0
LINE
  5
9808
  8
2
 10
201.4054837647242095
 20
288.3275474668523088
 30
0.0
 11
207.4054837647242095
 21
288.3275474668523088
 31
0.0
  0
LINE
  5
9810
  8
2
 10
356.9044708697064721
 20
281.7582750466442008
 30
0.0
 11
356.9044708697064721
 21
286.0739562606171944
 31
0.0
  0
LINE
  5
9811
  8
2
 10
357.3374708697062943
 20
281.9808956596468761
 30
0.0
 11
357.3374708697062943
 21
286.187572152628718
 31
0.0
  0
LINE
  5
9812
  8
2
 10
361.4714708697068204
 20
281.9808956596469898
 30
0.0
 11
361.4714708697068204
 21
286.187572152628718
 31
0.0
  0
LINE
  5
9813
  8
2
 10
361.9044708697064721
 20
281.7582750466442008
 30
0.0
 11
361.9044708697064721
 21
286.0739562606171944
 31
0.0
  0
LINE
  5
9814
  8
2
 10
356.4044708697064721
 20
288.3275474668523088
 30
0.0
 11
356.4044708697064721
 21
285.9134294019605136
 31
0.0
  0
LINE
  5
9815
  8
2
 10
362.4044708697064721
 20
288.3275474668523088
 30
0.0
 11
362.4044708697064721
 21
285.9134294019605136
 31
0.0
  0
LINE
  5
9816
  8
2
 10
355.2497815237550753
 20
289.4822368128038761
 30
0.0
 11
356.4044708697064721
 21
288.3275474668523088
 31
0.0
  0
LINE
  5
9817
  8
2
 10
363.5591602156579825
 20
289.4822368128038192
 30
0.0
 11
362.4044708697064721
 21
288.3275474668523088
 31
0.0
  0
LINE
  5
9818
  8
2
 10
356.4044708697064721
 20
288.3275474668523088
 30
0.0
 11
362.4044708697064721
 21
288.3275474668523088
 31
0.0
  0
LINE
  5
982B
  8
2
 10
26.156070011219299
 20
290.1781480277217042
 30
0.0
 11
41.1560700112172526
 21
290.1781480277217042
 31
0.0
  0
LINE
  5
982D
  8
1
 10
31.1560700112172491
 20
293.1781480277217042
 30
0.0
 11
31.1560700112172491
 21
279.4281480277217042
 31
0.0
  0
LINE
  5
982E
  8
2
 10
33.6560700112172597
 20
282.4281480277217042
 30
0.0
 11
33.6560700112172526
 21
286.4281480277217042
 31
0.0
  0
LINE
  5
982F
  8
2
 10
33.2230700112174802
 20
282.4281480277217042
 30
0.0
 11
33.2230700112175015
 21
286.4281480277218179
 31
0.0
  0
LINE
  5
9830
  8
2
 10
29.0890700112170109
 20
282.4281480277217042
 30
0.0
 11
29.0890700112170215
 21
286.4281480277218179
 31
0.0
  0
LINE
  5
9831
  8
2
 10
28.6560700112172491
 20
282.4281480277217042
 30
0.0
 11
28.6560700112172491
 21
286.4281480277217042
 31
0.0
  0
LINE
  5
9832
  8
2
 10
34.1560700112172526
 20
288.9766659192592897
 30
0.0
 11
34.1560700112172526
 21
286.4281480277218179
 31
0.0
  0
LINE
  5
9833
  8
2
 10
28.1560700112172491
 20
288.9766659192592897
 30
0.0
 11
28.1560700112172491
 21
286.4281480277218179
 31
0.0
  0
LINE
  5
9834
  8
2
 10
35.3575521196796672
 20
290.1781480277217042
 30
0.0
 11
34.1560700112172526
 21
288.9766659192592897
 31
0.0
  0
LINE
  5
9835
  8
2
 10
26.9545879027548487
 20
290.1781480277217042
 30
0.0
 11
28.1560700112172491
 21
288.9766659192592897
 31
0.0
  0
LINE
  5
9836
  8
2
 10
34.1560700112172526
 20
288.9766659192592897
 30
0.0
 11
28.1560700112172491
 21
288.9766659192592897
 31
0.0
  0
CIRCLE
  5
9919
  8
0
 10
204.4054837647240959
 20
277.4281480277218748
 30
0.0
 40
10.25
  0
CIRCLE
  5
991B
  8
2
 10
359.4044708697064721
 20
277.4281480277218748
 30
0.0
 40
5.0
  0
CIRCLE
  5
991C
  8
2
 10
359.4044708697064721
 20
277.4281480277218748
 30
0.0
 40
9.0
  0
CIRCLE
  5
991D
  8
2
 10
359.4044708697064721
 20
277.4281480277218748
 30
0.0
 40
12.75
  0
ARC
  5
991E
  8
0
 10
359.4044708697064152
 20
277.4281480277218748
 30
0.0
 40
10.25
 50
331.4078773590728133
 51
28.5921226409272187
  0
ARC
  5
9923
  8
0
 10
359.4044708697064152
 20
277.4281480277218748
 30
0.0
 40
10.25
 50
151.4078773590690048
 51
208.5921226409309099
  0
ARC
  5
9924
  8
2
 10
359.4044708697064721
 20
277.4281480277218748
 30
0.0
 40
10.25
 50
208.5921226409294889
 51
331.4078773590712217
  0
ARC
  5
9925
  8
2
 10
359.4044708697064721
 20
277.4281480277218748
 30
0.0
 40
10.25
 50
28.5921226409287996
 51
151.4078773590705111
  0
ENDSEC
  0
EOF
