  0
SECTION
  2
HEADER
  9
$ACADVER
  1
AC1009
  9
$INSBASE
 10
0.0
 20
0.0
 30
0.0
  9
$EXTMIN
 10
0.0
 20
-2.960436562073669
 30
0.0
  9
$EXTMAX
 10
721.00000000000023
 20
337.0
 30
0.0
  9
$LIMMIN
 10
0.0
 20
0.0
  9
$LIMMAX
 10
375.0
 20
270.0
  9
$ORTHOMODE
 70
     1
  9
$REGENMODE
 70
     1
  9
$FILLMODE
 70
     1
  9
$QTEXTMODE
 70
     0
  9
$MIRRTEXT
 70
     0
  9
$DRAGMODE
 70
     2
  9
$LTSCALE
 40
10.0
  9
$OSMODE
 70
    37
  9
$ATTMODE
 70
     1
  9
$TEXTSIZE
 40
0.2
  9
$TRACEWID
 40
0.05
  9
$TEXTSTYLE
  7
STANDARD
  9
$CLAYER
  8
0
  9
$CELTYPE
  6
BYLAYER
  9
$CECOLOR
 62
   256
  9
$DIMSCALE
 40
1.0
  9
$DIMASZ
 40
3.0
  9
$DIMEXO
 40
2.0
  9
$DIMDLI
 40
0.38
  9
$DIMRND
 40
0.0
  9
$DIMDLE
 40
0.0
  9
$DIMEXE
 40
2.0
  9
$DIMTP
 40
0.0
  9
$DIMTM
 40
0.0
  9
$DIMTXT
 40
3.2000000000000002
  9
$DIMCEN
 40
0.0
  9
$DIMTSZ
 40
0.0
  9
$DIMTOL
 70
     0
  9
$DIMLIM
 70
     0
  9
$DIMTIH
 70
     0
  9
$DIMTOH
 70
     0
  9
$DIMSE1
 70
     0
  9
$DIMSE2
 70
     0
  9
$DIMTAD
 70
     1
  9
$DIMZIN
 70
     8
  9
$DIMBLK
  1

  9
$DIMASO
 70
     1
  9
$DIMSHO
 70
     0
  9
$DIMPOST
  1

  9
$DIMAPOST
  1

  9
$DIMALT
 70
     0
  9
$DIMALTD
 70
     2
  9
$DIMALTF
 40
25.399999999999999
  9
$DIMLFAC
 40
1.0
  9
$DIMTOFL
 70
     1
  9
$DIMTVP
 40
1.6000000000000001
  9
$DIMTIX
 70
     1
  9
$DIMSOXD
 70
     0
  9
$DIMSAH
 70
     0
  9
$DIMBLK1
  1

  9
$DIMBLK2
  1

  9
$DIMSTYLE
  2
STANDARD
  9
$DIMCLRD
 70
     0
  9
$DIMCLRE
 70
     0
  9
$DIMCLRT
 70
     0
  9
$DIMTFAC
 40
1.0
  9
$DIMGAP
 40
1.5
  9
$LUNITS
 70
     2
  9
$LUPREC
 70
     1
  9
$SKETCHINC
 40
0.1
  9
$FILLETRAD
 40
0.0
  9
$AUNITS
 70
     0
  9
$AUPREC
 70
     1
  9
$MENU
  1
E:\r13\win\SUPPORT\ACAD
  9
$ELEVATION
 40
0.0
  9
$PELEVATION
 40
0.0
  9
$THICKNESS
 40
0.0
  9
$LIMCHECK
 70
     0
  9
$BLIPMODE
 70
     0
  9
$CHAMFERA
 40
0.0
  9
$CHAMFERB
 40
0.0
  9
$SKPOLY
 70
     0
  9
$TDCREATE
 40
2449839.7800462958
  9
$TDUPDATE
 40
2457165.4689315399
  9
$TDINDWG
 40
1.5528156828999999
  9
$TDUSRTIMER
 40
1.5528156828999999
  9
$USRTIMER
 70
     1
  9
$ANGBASE
 50
0.0
  9
$ANGDIR
 70
     0
  9
$PDMODE
 70
     0
  9
$PDSIZE
 40
0.0
  9
$PLINEWID
 40
0.0
  9
$COORDS
 70
     1
  9
$SPLFRAME
 70
     0
  9
$SPLINETYPE
 70
     6
  9
$SPLINESEGS
 70
     8
  9
$ATTDIA
 70
     0
  9
$ATTREQ
 70
     1
  9
$HANDLING
 70
     1
  9
$HANDSEED
  5
D426
  9
$SURFTAB1
 70
     6
  9
$SURFTAB2
 70
     6
  9
$SURFTYPE
 70
     6
  9
$SURFU
 70
     6
  9
$SURFV
 70
     6
  9
$UCSNAME
  2

  9
$UCSORG
 10
0.0
 20
0.0
 30
0.0
  9
$UCSXDIR
 10
1.0
 20
0.0
 30
0.0
  9
$UCSYDIR
 10
0.0
 20
1.0
 30
0.0
  9
$PUCSNAME
  2

  9
$PUCSORG
 10
0.0
 20
0.0
 30
0.0
  9
$PUCSXDIR
 10
1.0
 20
0.0
 30
0.0
  9
$PUCSYDIR
 10
0.0
 20
1.0
 30
0.0
  9
$USERI1
 70
     0
  9
$USERI2
 70
     1
  9
$USERI3
 70
     1
  9
$USERI4
 70
     0
  9
$USERI5
 70
     0
  9
$USERR1
 40
0.0
  9
$USERR2
 40
0.0
  9
$USERR3
 40
0.0
  9
$USERR4
 40
0.0
  9
$USERR5
 40
0.0
  9
$WORLDVIEW
 70
     1
  9
$SHADEDGE
 70
     3
  9
$SHADEDIF
 70
    70
  9
$TILEMODE
 70
     1
  9
$MAXACTVP
 70
    16
  9
$PLIMCHECK
 70
     0
  9
$PEXTMIN
 10
1.0000000000000000E+020
 20
1.0000000000000000E+020
 30
1.0000000000000000E+020
  9
$PEXTMAX
 10
-1.0000000000000000E+020
 20
-1.0000000000000000E+020
 30
-1.0000000000000000E+020
  9
$PLIMMIN
 10
0.0
 20
0.0
  9
$PLIMMAX
 10
12.0
 20
9.0
  9
$UNITMODE
 70
     0
  9
$VISRETAIN
 70
     0
  9
$PLINEGEN
 70
     0
  9
$PSLTSCALE
 70
     0
  0
ENDSEC
  0
SECTION
  2
TABLES
  0
TABLE
  2
VPORT
 70
     1
  0
VPORT
  2
*ACTIVE
 70
     0
 10
0.0
 20
0.0
 11
1.0
 21
1.0
 12
454.05982905982899
 22
250.0
 13
0.0
 23
0.0
 14
10.0
 24
10.0
 15
10.0
 25
10.0
 16
0.0
 26
0.0
 36
1.0
 17
0.0
 27
0.0
 37
0.0
 40
500.0
 41
1.816239316239316
 42
50.0
 43
0.0
 44
0.0
 50
0.0
 51
0.0
 71
     0
 72
   500
 73
     1
 74
     0
 75
     0
 76
     0
 77
     0
 78
     2
  0
ENDTAB
  0
TABLE
  2
LTYPE
 70
     4
  0
LTYPE
  2
CONTINUOUS
 70
     0
  3
Solid Line
 72
    65
 73
     0
 40
0.0
  0
LTYPE
  2
CENTER
 70
     0
  3
____ _ ____ _ ____ _ ____ _ ____ _ ____ _ ____
 72
    65
 73
     4
 40
2.0
 49
1.25
 49
-0.25
 49
0.25
 49
-0.25
  0
LTYPE
  2
HIDDEN
 70
     0
  3
_ _ _ _ _ _ _ _ _ _ _ _ _ _ _ _ _ _ _ _ _ _ _
 72
    65
 73
     2
 40
0.375
 49
0.25
 49
-0.125
  0
LTYPE
  2
PHANTOM2
 70
     0
  3
___ _ _ ___ _ _ ___ _ _ ___ _ _
 72
    65
 73
     6
 40
1.25
 49
0.625
 49
-0.125
 49
0.125
 49
-0.125
 49
0.125
 49
-0.125
  0
ENDTAB
  0
TABLE
  2
LAYER
 70
     4
  0
LAYER
  2
0
 70
     0
 62
     7
  6
CONTINUOUS
  0
LAYER
  2
1
 70
     0
 62
     1
  6
CENTER
  0
LAYER
  2
2
 70
     0
 62
     2
  6
HIDDEN
  0
LAYER
  2
DEFPOINTS
 70
     0
 62
     7
  6
CONTINUOUS
  0
ENDTAB
  0
TABLE
  2
STYLE
 70
     2
  0
STYLE
  2
STANDARD
 70
     0
 40
0.0
 41
1.0
 50
0.0
 71
     0
 42
0.2
  3
TXT
  4
BIGFONT
  0
STYLE
  2
STANDARD1
 70
     0
 40
0.0
 41
1.0
 50
0.0
 71
     0
 42
3.0
  3
txt
  4

  0
ENDTAB
  0
TABLE
  2
VIEW
 70
     2
  0
VIEW
  2
ALL
 70
     0
 40
270.0
 10
220.99159663865549
 20
135.0
 41
0.0
 11
0.0
 21
0.0
 31
1.0
 12
0.0
 22
0.0
 32
0.0
 42
0.0
 43
0.0
 44
0.0
 50
0.0
 71
     0
  0
VIEW
  2
OLE1
 70
     0
 40
83.415429860674521
 10
278.50192464621932
 20
402.21159852169143
 41
106.00494999685721
 11
0.0
 21
0.0
 31
1.0
 12
0.0
 22
0.0
 32
0.0
 42
50.0
 43
0.0
 44
0.0
 50
0.0
 71
     0
  0
ENDTAB
  0
TABLE
  2
UCS
 70
     0
  0
ENDTAB
  0
TABLE
  2
APPID
 70
     8
  0
APPID
  2
ACAD
 70
     0
  0
APPID
  2
ACAD_MLEADERVER
 70
     0
  0
APPID
  2
ACAD_EXEMPT_FROM_CAD_STANDARDS
 70
     0
  0
APPID
  2
ACAD_DSTYLE_DIMJAG
 70
     0
  0
APPID
  2
ACAD_DSTYLE_DIMTALN
 70
     0
  0
APPID
  2
ACAD_DSTYLE_DIMRADIAL_EXTENSION
 70
     0
  0
APPID
  2
ACAD_PSEXT
 70
     0
  0
APPID
  2
ACAD_NAV_VCDISPLAY
 70
     0
  0
ENDTAB
  0
TABLE
  2
DIMSTYLE
 70
     1
  0
DIMSTYLE
  2
STANDARD
 70
     0
  3

  4

  5

  6

  7

 40
1.0
 41
0.18
 42
0.0625
 43
0.38
 44
0.18
 45
0.0
 46
0.0
 47
0.0
 48
0.0
140
0.18
141
0.09
142
0.0
143
25.399999999999999
144
1.0
145
0.0
146
1.0
147
0.09
 71
     0
 72
     0
 73
     1
 74
     1
 75
     0
 76
     0
 77
     0
 78
     0
170
     0
171
     2
172
     0
173
     0
174
     0
175
     0
176
     0
177
     0
178
     0
  0
ENDTAB
  0
ENDSEC
  0
SECTION
  2
BLOCKS
  0
BLOCK
  8
0
  2
$MODEL_SPACE
 70
     0
 10
0.0
 20
0.0
 30
0.0
  3
$MODEL_SPACE
  1

  0
ENDBLK
  5
11B
  8
0
  0
BLOCK
 67
     1
  8
0
  2
$PAPER_SPACE
 70
     0
 10
0.0
 20
0.0
 30
0.0
  3
$PAPER_SPACE
  1

  0
ENDBLK
  5
119
 67
     1
  8
0
  0
ENDSEC
  0
SECTION
  2
ENTITIES
  0
TEXT
  5
A4AB
  8
0
 62
     3
 10
0.0
 20
0.0
 30
0.0
 40
10.0
  1
TWN125F-SUS
  7
STANDARD1
  0
LINE
  5
C652
  8
1
 10
86.067567567567608
 20
325.5
 30
0.0
 11
86.067567567567608
 21
313.5
 31
0.0
  0
LINE
  5
C653
  8
1
 10
97.0
 20
271.5
 30
0.0
 11
46.999999999999943
 21
271.5
 31
0.0
  0
LINE
  5
C654
  8
1
 10
162.0
 20
319.5
 30
0.0
 11
80.067567567567608
 21
319.5
 31
0.0
  0
LINE
  5
C655
  8
0
 10
94.000000000000114
 20
311.13999999999999
 30
0.0
 11
94.439999999999927
 21
310.7000000000001
 31
0.0
  0
LINE
  5
C656
  8
0
 10
94.439999999999927
 20
328.2999999999999
 30
0.0
 11
94.000000000000114
 21
327.86000000000001
 31
0.0
  0
LINE
  5
C657
  8
0
 10
110.8394882233484
 20
328.2999999999999
 30
0.0
 11
94.439999999999927
 21
328.2999999999999
 31
0.0
  0
LINE
  5
C658
  8
0
 10
94.439999999999927
 20
310.7000000000001
 30
0.0
 11
110.8394882233484
 21
310.7000000000001
 31
0.0
  0
LINE
  5
C659
  8
0
 10
94.439999999999927
 20
310.7000000000001
 30
0.0
 11
94.439999999999927
 21
328.2999999999999
 31
0.0
  0
ARC
  5
C65A
  8
0
 10
114.65000000000001
 20
326.10000000000008
 30
0.0
 40
4.3999999999999408
 50
90.0
 51
150.00000000000011
  0
ARC
  5
C65B
  8
0
 10
114.65000000000001
 20
312.89999999999992
 30
0.0
 40
4.399999999999892
 50
209.9999999999998
 51
270.0
  0
LINE
  5
C65C
  8
0
 10
110.8394882233484
 20
310.7000000000001
 30
0.0
 11
110.8394882233484
 21
328.2999999999999
 31
0.0
  0
LINE
  5
C65D
  8
0
 10
148.00000000000011
 20
330.5
 30
0.0
 11
114.65000000000001
 21
330.5
 31
0.0
  0
LINE
  5
C65E
  8
0
 10
114.65000000000001
 20
308.5
 30
0.0
 11
148.00000000000011
 21
308.5
 31
0.0
  0
LINE
  5
C65F
  8
0
 10
114.65000000000001
 20
308.5
 30
0.0
 11
114.65000000000001
 21
330.5
 31
0.0
  0
ARC
  5
C660
  8
0
 10
148.00000000000011
 20
319.5
 30
0.0
 40
11.000000000000011
 50
270.0
 51
90.0
  0
LINE
  5
C661
  8
0
 10
148.00000000000011
 20
308.5
 30
0.0
 11
148.00000000000011
 21
330.5
 31
0.0
  0
LINE
  5
C662
  8
0
 10
50.0
 20
260.5
 30
0.0
 11
50.199999999999932
 21
260.5
 31
0.0
  0
LINE
  5
C663
  8
0
 10
50.199999999999932
 20
282.5
 30
0.0
 11
50.0
 21
282.5
 31
0.0
  0
LINE
  5
C664
  8
0
 10
50.0
 20
282.5
 30
0.0
 11
50.0
 21
260.5
 31
0.0
  0
LINE
  5
C665
  8
0
 10
50.199999999999932
 20
286.5
 30
0.0
 11
50.199999999999932
 21
256.5
 31
0.0
  0
ARC
  5
C666
  8
0
 10
50.699999999999932
 20
256.5
 30
0.0
 40
0.5000000000000056
 50
180.0
 51
270.0
  0
ARC
  5
C667
  8
0
 10
50.699999999999932
 20
286.5
 30
0.0
 40
0.5000000000000018
 50
90.0
 51
180.0
  0
LINE
  5
C668
  8
0
 10
50.699999999999932
 20
256.0
 30
0.0
 11
55.5
 21
256.0
 31
0.0
  0
LINE
  5
C669
  8
0
 10
55.5
 20
287.0
 30
0.0
 11
50.699999999999932
 21
287.0
 31
0.0
  0
POLYLINE
  5
C66B
  8
0
 66
     1
 10
0.0
 20
0.0
 30
0.0
  0
VERTEX
  5
D330
  8
0
 10
69.360303623776076
 20
306.61436927406112
 30
0.0
  0
VERTEX
  5
D331
  8
0
 10
67.305371140366674
 20
302.72456793465852
 30
0.0
  0
VERTEX
  5
D332
  8
0
 10
65.282415575464924
 20
298.81054244271132
 30
0.0
  0
VERTEX
  5
D333
  8
0
 10
63.334480970965608
 20
294.85947743166253
 30
0.0
  0
VERTEX
  5
D334
  8
0
 10
61.504611368763342
 20
290.85855753495548
 30
0.0
  0
VERTEX
  5
D335
  8
0
 10
59.835850810752731
 20
286.79496738603331
 30
0.0
  0
VERTEX
  5
D336
  8
0
 10
58.371243338828442
 20
282.65589161833913
 30
0.0
  0
VERTEX
  5
D337
  8
0
 10
57.675202995014729
 20
280.2972493737924
 30
0.0
  0
VERTEX
  5
D338
  8
0
 10
57.107733976508818
 20
277.89452169181391
 30
0.0
  0
VERTEX
  5
D339
  8
0
 10
56.693969874051277
 20
275.46150586300092
 30
0.0
  0
VERTEX
  5
D33A
  8
0
 10
56.459044278382287
 20
273.0119991779502
 30
0.0
  0
VERTEX
  5
D33B
  8
0
 10
56.428090780242542
 20
270.55979892725901
 30
0.0
  0
VERTEX
  5
D33C
  8
0
 10
56.684891476120811
 20
267.53577630254279
 30
0.0
  0
VERTEX
  5
D33D
  8
0
 10
57.223223415449297
 20
264.53800876059432
 30
0.0
  0
VERTEX
  5
D33E
  8
0
 10
57.989888708469259
 20
261.58326178703658
 30
0.0
  0
VERTEX
  5
D33F
  8
0
 10
58.93168946542243
 20
258.6883008674925
 30
0.0
  0
VERTEX
  5
D340
  8
0
 10
60.718469414889228
 20
254.06374151181981
 30
0.0
  0
VERTEX
  5
D341
  8
0
 10
62.726573814555991
 20
249.52620147990561
 30
0.0
  0
VERTEX
  5
D342
  8
0
 10
64.889250379279133
 20
245.05547835862311
 30
0.0
  0
VERTEX
  5
D343
  8
0
 10
67.139746823914834
 20
240.63136973484509
 30
0.0
  0
VERTEX
  5
D344
  8
0
 10
69.360303623776076
 20
236.38563072593891
 30
0.0
  0
SEQEND
  5
D345
  8
0
  0
LINE
  5
C66C
  8
0
 10
55.5
 20
256.0
 30
0.0
 11
71.391365331263714
 21
229.01637111842399
 31
0.0
  0
LINE
  5
C66D
  8
0
 10
71.391365331263714
 20
313.9836288815759
 30
0.0
 11
55.5
 21
287.0
 31
0.0
  0
LINE
  5
C66E
  8
0
 10
55.5
 20
287.0
 30
0.0
 11
55.5
 21
256.0
 31
0.0
  0
POLYLINE
  5
C66F
  8
0
 66
     1
 10
0.0
 20
0.0
 30
0.0
  0
VERTEX
  5
D346
  8
0
 10
71.391365331263714
 20
309.34294283007659
 30
0.0
  0
VERTEX
  5
D347
  8
0
 10
71.192519295413263
 20
309.20610324702631
 30
0.0
  0
VERTEX
  5
D348
  8
0
 10
70.965891274020237
 20
308.99272446614242
 30
0.0
  0
VERTEX
  5
D349
  8
0
 10
70.459515467128654
 20
308.38082391308347
 30
0.0
  0
VERTEX
  5
D34A
  8
0
 10
70.162594380599671
 20
307.95907155578652
 30
0.0
  0
VERTEX
  5
D34B
  8
0
 10
69.863252780207745
 20
307.49349039648729
 30
0.0
  0
VERTEX
  5
D34C
  8
0
 10
69.360303623776076
 20
306.61436927406112
 30
0.0
  0
SEQEND
  5
D34D
  8
0
  0
POLYLINE
  5
C671
  8
0
 66
     1
 10
0.0
 20
0.0
 30
0.0
  0
VERTEX
  5
D34E
  8
0
 10
71.543034115068963
 20
309.39214230492797
 30
0.0
  0
VERTEX
  5
D34F
  8
0
 10
71.467395305835112
 20
309.37676715809391
 30
0.0
  0
VERTEX
  5
D350
  8
0
 10
71.391365331263714
 20
309.34294283007659
 30
0.0
  0
SEQEND
  5
D351
  8
0
  0
POLYLINE
  5
C672
  8
0
 66
     1
 10
0.0
 20
0.0
 30
0.0
  0
VERTEX
  5
D352
  8
0
 10
69.360303623776076
 20
236.38563072593891
 30
0.0
  0
VERTEX
  5
D353
  8
0
 10
69.705889903508591
 20
235.7678344790022
 30
0.0
  0
VERTEX
  5
D354
  8
0
 10
70.065399914322938
 20
235.18765431949231
 30
0.0
  0
VERTEX
  5
D355
  8
0
 10
70.375716077888342
 20
234.73408265362659
 30
0.0
  0
VERTEX
  5
D356
  8
0
 10
70.677616771134794
 20
234.33704753244339
 30
0.0
  0
VERTEX
  5
D357
  8
0
 10
70.965771781673425
 20
234.00759312453309
 30
0.0
  0
VERTEX
  5
D358
  8
0
 10
71.226254688537779
 20
233.76652303433809
 30
0.0
  0
VERTEX
  5
D359
  8
0
 10
71.391365331263714
 20
233.65705716992341
 30
0.0
  0
SEQEND
  5
D35A
  8
0
  0
POLYLINE
  5
C674
  8
0
 66
     1
 10
0.0
 20
0.0
 30
0.0
  0
VERTEX
  5
D35B
  8
0
 10
71.543541428585627
 20
233.60785449417759
 30
0.0
  0
VERTEX
  5
D35C
  8
0
 10
71.60509803598336
 20
233.6249113021976
 30
0.0
  0
VERTEX
  5
D35D
  8
0
 10
71.688998340355738
 20
233.84771170912671
 30
0.0
  0
VERTEX
  5
D35E
  8
0
 10
71.693675973539598
 20
233.96682619162121
 30
0.0
  0
SEQEND
  5
D35F
  8
0
  0
POLYLINE
  5
C675
  8
0
 66
     1
 10
0.0
 20
0.0
 30
0.0
  0
VERTEX
  5
D360
  8
0
 10
71.693675973539598
 20
309.03317380837899
 30
0.0
  0
VERTEX
  5
D361
  8
0
 10
71.641751805465105
 20
309.33590908501742
 30
0.0
  0
VERTEX
  5
D362
  8
0
 10
71.543034115068963
 20
309.39214230492797
 30
0.0
  0
SEQEND
  5
D363
  8
0
  0
LINE
  5
C676
  8
0
 10
71.693675973539598
 20
233.96682619162121
 30
0.0
 11
71.693675973539598
 21
309.03317380837899
 31
0.0
  0
LINE
  5
C677
  8
0
 10
71.391365331263714
 20
233.65705716992341
 30
0.0
 11
71.543541428585627
 21
233.60785449417759
 31
0.0
  0
ARC
  5
C679
  8
0
 10
67.600000000000023
 20
226.78353683776379
 30
0.0
 40
4.3999999999999488
 50
0.0
 51
30.49494459849759
  0
ARC
  5
C67A
  8
0
 10
67.600000000000023
 20
316.21646316223621
 30
0.0
 40
4.3999999999999488
 50
329.50505540150237
 51
0.0
  0
LINE
  5
C67C
  8
0
 10
94.000000000000114
 20
330.34691988195141
 30
0.0
 11
94.0
 21
212.65308011804859
 31
0.0
  0
ARC
  5
C67D
  8
0
 10
91.799999999999955
 20
212.65308011804851
 30
0.0
 40
2.1999999999999238
 50
284.99999999999778
 51
0.0
  0
ARC
  5
C67E
  8
0
 10
91.800000000000054
 20
330.34691988195141
 30
0.0
 40
2.1999999999999238
 50
0.0
 51
75.000000000002174
  0
LINE
  5
C67F
  8
0
 10
92.369401899225636
 20
332.47195669978743
 30
0.0
 11
89.464330711999423
 21
333.25036817835951
 31
0.0
  0
LINE
  5
C680
  8
0
 10
89.464330711999324
 20
209.74963182164049
 30
0.0
 11
92.369401899225522
 21
210.5280433002126
 31
0.0
  0
LINE
  5
C682
  8
0
 10
79.333333333333258
 20
209.0
 30
0.0
 11
83.770311719743844
 21
209.0
 31
0.0
  0
LINE
  5
C683
  8
0
 10
83.770311719743972
 20
334.0
 30
0.0
 11
79.333333333333371
 21
334.0
 31
0.0
  0
LINE
  5
C684
  8
0
 10
72.0
 20
326.66666666666657
 30
0.0
 11
72.0
 21
216.33333333333329
 31
0.0
  0
ARC
  5
C685
  8
0
 10
79.333333333333258
 20
216.33333333333329
 30
0.0
 40
7.3333333333333277
 50
180.0
 51
270.0000008537736
  0
ARC
  5
C686
  8
0
 10
79.333333333333371
 20
326.66666666666669
 30
0.0
 40
7.3333333333333206
 50
89.999999146226358
 51
180.0
  0
ARC
  5
C688
  8
0
 10
83.770311719744086
 20
230.99999999999861
 30
0.0
 40
21.99999999999865
 50
270.0
 51
285.00000000000119
  0
ARC
  5
C689
  8
0
 10
83.770311719743972
 20
312.00000000000023
 30
0.0
 40
21.999999999999709
 50
74.999999999998764
 51
90.0
  0
LINE
  5
C6E1
  8
2
 10
277.5000000819565
 20
50.0
 30
0.0
 11
277.5000000819565
 21
72.000000000000114
 31
0.0
  0
LINE
  5
C6E2
  8
2
 10
265.5000000819565
 20
72.000000000000114
 30
0.0
 11
265.5000000819565
 21
50.0
 31
0.0
  0
LINE
  5
C6F7
  8
2
 10
258.5000000819565
 20
75.0
 30
0.0
 11
284.5000000819565
 21
75.0
 31
0.0
  0
LINE
  5
C710
  8
1
 10
271.5000000819565
 20
47.0
 30
0.0
 11
271.5000000819565
 21
162.0
 31
0.0
  0
LINE
  5
C711
  8
1
 10
277.5000000819565
 20
86.067567567567608
 30
0.0
 11
265.5000000819565
 21
86.067567567567608
 31
0.0
  0
LINE
  5
C712
  8
0
 10
279.86000008195651
 20
94.0
 30
0.0
 11
280.30000008195663
 21
94.439999999999927
 31
0.0
  0
LINE
  5
C713
  8
0
 10
262.70000008195638
 20
94.439999999999927
 30
0.0
 11
263.14000008195649
 21
94.0
 31
0.0
  0
LINE
  5
C714
  8
0
 10
280.30000008195663
 20
94.439999999999927
 30
0.0
 11
262.70000008195638
 21
94.439999999999927
 31
0.0
  0
LINE
  5
C715
  8
0
 10
262.70000008195638
 20
110.8394882233484
 30
0.0
 11
262.70000008195638
 21
94.439999999999927
 31
0.0
  0
LINE
  5
C716
  8
0
 10
280.30000008195663
 20
94.439999999999927
 30
0.0
 11
280.30000008195663
 21
110.8394882233484
 31
0.0
  0
LINE
  5
C717
  8
0
 10
280.30000008195663
 20
110.8394882233484
 30
0.0
 11
262.70000008195638
 21
110.8394882233484
 31
0.0
  0
ARC
  5
C718
  8
0
 10
264.90000008195648
 20
114.65000000000001
 30
0.0
 40
4.3999999999999426
 50
180.0
 51
239.99999999999829
  0
ARC
  5
C719
  8
0
 10
278.10000008195652
 20
114.65000000000001
 30
0.0
 40
4.3999999999999506
 50
300.0
 51
0.0
  0
LINE
  5
C71A
  8
0
 10
282.5000000819565
 20
114.65000000000001
 30
0.0
 11
260.5000000819565
 21
114.65000000000001
 31
0.0
  0
LINE
  5
C71B
  8
0
 10
260.5000000819565
 20
148.0
 30
0.0
 11
260.5000000819565
 21
114.65000000000001
 31
0.0
  0
LINE
  5
C71C
  8
0
 10
282.5000000819565
 20
114.65000000000001
 30
0.0
 11
282.5000000819565
 21
148.0
 31
0.0
  0
LINE
  5
C71D
  8
0
 10
282.5000000819565
 20
148.0
 30
0.0
 11
260.5000000819565
 21
148.0
 31
0.0
  0
ARC
  5
C71E
  8
0
 10
271.5000000819565
 20
148.0
 30
0.0
 40
11.000000000000011
 50
0.0000008537736463
 51
180.0
  0
LINE
  5
C71F
  8
0
 10
282.5000000819565
 20
50.0
 30
0.0
 11
282.5000000819565
 21
50.199999999999932
 31
0.0
  0
LINE
  5
C720
  8
0
 10
260.5000000819565
 20
50.199999999999932
 30
0.0
 11
260.5000000819565
 21
50.0
 31
0.0
  0
LINE
  5
C721
  8
0
 10
260.5000000819565
 20
50.0
 30
0.0
 11
282.5000000819565
 21
50.0
 31
0.0
  0
LINE
  5
C722
  8
0
 10
256.50000008338452
 20
50.199999999999932
 30
0.0
 11
286.5000000819565
 21
50.199999999999932
 31
0.0
  0
ARC
  5
C723
  8
0
 10
286.5000000819565
 20
50.699999999999932
 30
0.0
 40
0.5000000000000056
 50
270.0
 51
0.0
  0
ARC
  5
C724
  8
0
 10
256.5000000819565
 20
50.699999999999932
 30
0.0
 40
0.5000000000000018
 50
180.0
 51
270.0
  0
LINE
  5
C725
  8
0
 10
287.0000000819565
 20
50.699999999999932
 30
0.0
 11
287.0000000819565
 21
55.5
 31
0.0
  0
LINE
  5
C726
  8
0
 10
256.0000000819565
 20
55.5
 30
0.0
 11
256.0000000819565
 21
50.699999999999932
 31
0.0
  0
POLYLINE
  5
C728
  8
0
 66
     1
 10
0.0
 20
0.0
 30
0.0
  0
VERTEX
  5
D364
  8
0
 10
254.4500000819564
 20
69.360303623776076
 30
0.0
  0
VERTEX
  5
D365
  8
0
 10
254.37999026205259
 20
69.705889903508591
 30
0.0
  0
VERTEX
  5
D366
  8
0
 10
254.17839506604349
 20
70.065399914322938
 30
0.0
  0
VERTEX
  5
D367
  8
0
 10
253.9054021643343
 20
70.375716077888342
 30
0.0
  0
VERTEX
  5
D368
  8
0
 10
253.54821704885259
 20
70.677616771134794
 30
0.0
  0
VERTEX
  5
D369
  8
0
 10
253.1070858422479
 20
70.965771781673425
 30
0.0
  0
VERTEX
  5
D36A
  8
0
 10
252.5976002175274
 20
71.226254688537779
 30
0.0
  0
VERTEX
  5
D36B
  8
0
 10
252.19273717632879
 20
71.391365331263714
 30
0.0
  0
SEQEND
  5
D36C
  8
0
  0
LINE
  5
C729
  8
0
 10
288.55000008195663
 20
69.360303623776076
 30
0.0
 11
288.55000008195663
 21
56.412835574513451
 31
0.0
  0
POLYLINE
  5
C72A
  8
0
 66
     1
 10
0.0
 20
0.0
 30
0.0
  0
VERTEX
  5
D36D
  8
0
 10
290.80726298758429
 20
71.391365331263714
 30
0.0
  0
VERTEX
  5
D36E
  8
0
 10
290.32907588416288
 20
71.192519295413263
 30
0.0
  0
VERTEX
  5
D36F
  8
0
 10
289.8926904188387
 20
70.965891274020237
 30
0.0
  0
VERTEX
  5
D370
  8
0
 10
289.18402241869342
 20
70.459515467128654
 30
0.0
  0
VERTEX
  5
D371
  8
0
 10
288.89739838395008
 20
70.162594380599671
 30
0.0
  0
VERTEX
  5
D372
  8
0
 10
288.69278346983128
 20
69.863252780207745
 30
0.0
  0
VERTEX
  5
D373
  8
0
 10
288.55000008195663
 20
69.360303623776076
 30
0.0
  0
SEQEND
  5
D374
  8
0
  0
LINE
  5
C72B
  8
0
 10
287.0000000819565
 20
55.5
 30
0.0
 11
288.56465280965449
 21
56.421464945338933
 31
0.0
  0
LINE
  5
C72C
  8
0
 10
254.4344688417352
 20
56.42198232435851
 30
0.0
 11
256.0000000819565
 21
55.5
 31
0.0
  0
LINE
  5
C72D
  8
0
 10
254.4500000819564
 20
56.41283557606971
 30
0.0
 11
254.4500000819564
 21
69.360303623776076
 31
0.0
  0
LINE
  5
C72E
  8
0
 10
256.0000000819565
 20
55.5
 30
0.0
 11
287.0000000819565
 21
55.5
 31
0.0
  0
POLYLINE
  5
C72F
  8
0
 66
     1
 10
0.0
 20
0.0
 30
0.0
  0
VERTEX
  5
D375
  8
0
 10
292.6935867802938
 20
71.693675973539598
 30
0.0
  0
VERTEX
  5
D376
  8
0
 10
291.88389874595958
 20
71.641751805465105
 30
0.0
  0
VERTEX
  5
D377
  8
0
 10
291.03587494264133
 20
71.467395305835112
 30
0.0
  0
VERTEX
  5
D378
  8
0
 10
290.80726298758429
 20
71.391365331263714
 30
0.0
  0
SEQEND
  5
D379
  8
0
  0
LINE
  5
C730
  8
0
 10
250.3064133836192
 20
71.693675973539598
 30
0.0
 11
228.39655180609441
 21
71.693675973539598
 31
0.0
  0
POLYLINE
  5
C731
  8
0
 66
     1
 10
0.0
 20
0.0
 30
0.0
  0
VERTEX
  5
D37A
  8
0
 10
252.19273717632879
 20
71.391365331263714
 30
0.0
  0
VERTEX
  5
D37B
  8
0
 10
251.36485014198169
 20
71.60509803598336
 30
0.0
  0
VERTEX
  5
D37C
  8
0
 10
250.54305604236481
 20
71.688998340355738
 30
0.0
  0
VERTEX
  5
D37D
  8
0
 10
250.3064133836192
 20
71.693675973539598
 30
0.0
  0
SEQEND
  5
D37E
  8
0
  0
ARC
  5
C733
  8
0
 10
316.21646324419271
 20
67.600000000000136
 30
0.0
 40
4.3999999999998423
 50
90.0
 51
111.5057311612133
  0
ARC
  5
C734
  8
0
 10
226.78353691972029
 20
67.60000000000025
 30
0.0
 40
4.3999999999997206
 50
68.494268838786681
 51
90.0
  0
LINE
  5
C735
  8
0
 10
314.60344835781859
 20
71.693675973539598
 30
0.0
 11
292.6935867802938
 21
71.693675973539598
 31
0.0
  0
LINE
  5
C736
  8
0
 10
212.6530802003962
 20
94.0
 30
0.0
 11
330.34691996390791
 21
94.0
 31
0.0
  0
ARC
  5
C737
  8
0
 10
330.34691996390802
 20
91.800000000000054
 30
0.0
 40
2.1999999999999238
 50
14.999999999997989
 51
90.0
  0
ARC
  5
C738
  8
0
 10
212.65308020000501
 20
91.800000000000054
 30
0.0
 40
2.1999999999999238
 50
90.0
 51
165.00000000000199
  0
LINE
  5
C739
  8
0
 10
210.5280433821691
 20
92.369401899225522
 30
0.0
 11
209.74963190359699
 21
89.464330711999423
 31
0.0
  0
LINE
  5
C73A
  8
0
 10
333.25036826031601
 20
89.464330711999423
 30
0.0
 11
332.47195678174393
 21
92.369401899225522
 31
0.0
  0
LINE
  5
C73C
  8
0
 10
334.0000000819565
 20
79.333333333333371
 30
0.0
 11
334.0000000819565
 21
83.770311719743972
 31
0.0
  0
LINE
  5
C73D
  8
0
 10
209.0000000819565
 20
83.770311719743972
 30
0.0
 11
209.0000000819565
 21
79.333333333333371
 31
0.0
  0
LINE
  5
C73E
  8
0
 10
216.33333341529041
 20
72.0
 30
0.0
 11
326.66666674862307
 21
72.0
 31
0.0
  0
ARC
  5
C73F
  8
0
 10
326.66666674862307
 20
79.333333333333371
 30
0.0
 40
7.3333333333333277
 50
270.0
 51
0.0000008537736463
  0
ARC
  5
C740
  8
0
 10
216.33333341528979
 20
79.333333333333371
 30
0.0
 40
7.3333333333333206
 50
179.99999914622629
 51
270.0
  0
ARC
  5
C742
  8
0
 10
312.00000008195792
 20
83.770311719744214
 30
0.0
 40
21.99999999999865
 50
0.0
 51
15.000000000001121
  0
ARC
  5
C743
  8
0
 10
231.00000008195619
 20
83.770311719743972
 30
0.0
 40
21.999999999999709
 50
164.99999999999881
 51
180.0
  0
LINE
  5
C79F
  8
1
 10
285.50000000000011
 20
319.5
 30
0.0
 11
257.50000000000011
 21
319.5
 31
0.0
  0
LINE
  5
C7A0
  8
1
 10
271.50000000000011
 20
206.0
 30
0.0
 11
271.50000000000011
 21
337.0
 31
0.0
  0
LINE
  5
C7A1
  8
1
 10
337.00000000000011
 20
271.5
 30
0.0
 11
206.00000000000011
 21
271.5
 31
0.0
  0
CIRCLE
  5
C7A2
  8
0
 10
271.50000000000011
 20
319.5
 30
0.0
 40
10.999999999999989
  0
CIRCLE
  5
C7A5
  8
0
 10
271.50000000000011
 20
271.5
 30
0.0
 40
13.0
  0
LINE
  5
C7A6
  8
0
 10
288.55000000000018
 20
306.61436927406112
 30
0.0
 11
288.55000000000018
 21
236.38563072593891
 31
0.0
  0
POLYLINE
  5
C7A7
  8
0
 66
     1
 10
0.0
 20
0.0
 30
0.0
  0
VERTEX
  5
D37F
  8
0
 10
292.69358669833741
 20
309.03317380837899
 30
0.0
  0
VERTEX
  5
D380
  8
0
 10
291.82159447617101
 20
309.34790077216098
 30
0.0
  0
VERTEX
  5
D381
  8
0
 10
290.89592092910328
 20
309.35837165105892
 30
0.0
  0
VERTEX
  5
D382
  8
0
 10
290.01766023238952
 20
309.06378581682827
 30
0.0
  0
VERTEX
  5
D383
  8
0
 10
289.28220703288389
 20
308.49364831410549
 30
0.0
  0
VERTEX
  5
D384
  8
0
 10
288.7741660394579
 20
307.70758310155787
 30
0.0
  0
VERTEX
  5
D385
  8
0
 10
288.55574273021318
 20
306.79289400004888
 30
0.0
  0
VERTEX
  5
D386
  8
0
 10
288.55000000000018
 20
306.61436927406112
 30
0.0
  0
SEQEND
  5
D387
  8
0
  0
ARC
  5
C7A8
  8
0
 10
271.5
 20
271.5
 30
0.0
 40
43.103448275862092
 50
299.4518007272676
 51
60.54819927273234
  0
POLYLINE
  5
C7A9
  8
0
 66
     1
 10
0.0
 20
0.0
 30
0.0
  0
VERTEX
  5
D388
  8
0
 10
288.55000000000018
 20
236.38563072593891
 30
0.0
  0
VERTEX
  5
D389
  8
0
 10
288.70894536077282
 20
235.4594740683701
 30
0.0
  0
VERTEX
  5
D38A
  8
0
 10
289.16730586239402
 20
234.63966094225029
 30
0.0
  0
VERTEX
  5
D38B
  8
0
 10
289.8747153315274
 20
234.01821464294611
 30
0.0
  0
VERTEX
  5
D38C
  8
0
 10
290.74816869748861
 20
233.66899628296309
 30
0.0
  0
VERTEX
  5
D38D
  8
0
 10
291.683990340018
 20
233.63078735594149
 30
0.0
  0
VERTEX
  5
D38E
  8
0
 10
292.5744868702381
 20
233.9033402873533
 30
0.0
  0
VERTEX
  5
D38F
  8
0
 10
292.69358669833741
 20
233.9668261916211
 30
0.0
  0
SEQEND
  5
D390
  8
0
  0
ARC
  5
C7AA
  8
0
 10
271.50000000000011
 20
271.5
 30
0.0
 40
43.103448275862092
 50
119.4518007272676
 51
240.54819927273229
  0
POLYLINE
  5
C7AB
  8
0
 66
     1
 10
0.0
 20
0.0
 30
0.0
  0
VERTEX
  5
D391
  8
0
 10
254.4500000000001
 20
306.61436927406112
 30
0.0
  0
VERTEX
  5
D392
  8
0
 10
254.29105463922741
 20
307.54052593162982
 30
0.0
  0
VERTEX
  5
D393
  8
0
 10
253.83269413760621
 20
308.36033905774968
 30
0.0
  0
VERTEX
  5
D394
  8
0
 10
253.1252846684728
 20
308.98178535705392
 30
0.0
  0
VERTEX
  5
D395
  8
0
 10
252.25183130251159
 20
309.33100371703688
 30
0.0
  0
VERTEX
  5
D396
  8
0
 10
251.3160096599822
 20
309.36921264405851
 30
0.0
  0
VERTEX
  5
D397
  8
0
 10
250.42551312976209
 20
309.09665971264673
 30
0.0
  0
VERTEX
  5
D398
  8
0
 10
250.30641330166279
 20
309.03317380837899
 30
0.0
  0
SEQEND
  5
D399
  8
0
  0
LINE
  5
C7AC
  8
0
 10
254.4500000000001
 20
236.38563072593891
 30
0.0
 11
254.4500000000001
 21
306.61436927406112
 31
0.0
  0
POLYLINE
  5
C7AD
  8
0
 66
     1
 10
0.0
 20
0.0
 30
0.0
  0
VERTEX
  5
D39A
  8
0
 10
250.30641330166279
 20
233.9668261916211
 30
0.0
  0
VERTEX
  5
D39B
  8
0
 10
251.1784055238293
 20
233.65209922783899
 30
0.0
  0
VERTEX
  5
D39C
  8
0
 10
252.1040790708968
 20
233.64162834894111
 30
0.0
  0
VERTEX
  5
D39D
  8
0
 10
252.98233976761071
 20
233.93621418317159
 30
0.0
  0
VERTEX
  5
D39E
  8
0
 10
253.7177929671162
 20
234.5063516858944
 30
0.0
  0
VERTEX
  5
D39F
  8
0
 10
254.2258339605423
 20
235.2924168984421
 30
0.0
  0
VERTEX
  5
D3A0
  8
0
 10
254.44425726978699
 20
236.2071059999511
 30
0.0
  0
VERTEX
  5
D3A1
  8
0
 10
254.4500000000001
 20
236.38563072593891
 30
0.0
  0
SEQEND
  5
D3A2
  8
0
  0
CIRCLE
  5
C7AF
  8
0
 10
271.50000000000011
 20
271.5
 30
0.0
 40
62.5
  0
ARC
  5
C7B5
  8
0
 10
271.50000000000011
 20
271.5
 30
0.0
 40
52.67036410976425
 50
101.36737719601049
 51
78.632622803989491
  0
LINE
  5
C8A3
  8
2
 10
258.5000000819565
 20
72.000000000000227
 30
0.0
 11
284.5000000819565
 21
72.000000000000284
 31
0.0
  0
LINE
  5
C8A4
  8
2
 10
282.5000000819565
 20
50.199999999999932
 30
0.0
 11
282.5000000819565
 21
71.000000000000455
 31
0.0
  0
LINE
  5
C8A5
  8
2
 10
260.5000000819565
 20
50.199999999999932
 30
0.0
 11
260.50000008195673
 21
71.000000000000455
 31
0.0
  0
LINE
  5
C8A8
  8
2
 10
284.5000000819565
 20
75.0
 30
0.0
 11
284.5000000819565
 21
72.0
 31
0.0
  0
LINE
  5
C8A9
  8
2
 10
281.5000000819565
 20
72.0
 30
0.0
 11
281.5000000819565
 21
71.000000000000398
 31
0.0
  0
LINE
  5
C8AA
  8
2
 10
261.5000000819565
 20
72.0
 30
0.0
 11
261.5000000819565
 21
71.000000000000341
 31
0.0
  0
LINE
  5
C8AB
  8
2
 10
258.5000000819565
 20
75.0
 30
0.0
 11
258.5000000819565
 21
72.0
 31
0.0
  0
LINE
  5
C8F1
  8
2
 10
260.50000008195673
 20
71.000000000000341
 30
0.0
 11
261.5000000819565
 21
71.000000000000398
 31
0.0
  0
LINE
  5
C8F2
  8
2
 10
281.5000000819565
 20
71.000000000000512
 30
0.0
 11
282.50000008195661
 21
71.000000000000398
 31
0.0
  0
LINE
  5
CA03
  8
2
 10
50.0
 20
265.5
 30
0.0
 11
72.000000000000114
 21
265.5
 31
0.0
  0
LINE
  5
CA04
  8
2
 10
72.000000000000114
 20
277.5
 30
0.0
 11
50.0
 21
277.5
 31
0.0
  0
LINE
  5
CA05
  8
2
 10
75.0
 20
284.5
 30
0.0
 11
75.0
 21
258.5
 31
0.0
  0
LINE
  5
CA06
  8
2
 10
72.000000000000227
 20
284.5
 30
0.0
 11
72.000000000000284
 21
258.5
 31
0.0
  0
LINE
  5
CA07
  8
2
 10
50.199999999999932
 20
260.5
 30
0.0
 11
71.000000000000455
 21
260.5
 31
0.0
  0
LINE
  5
CA08
  8
2
 10
50.199999999999932
 20
282.5
 30
0.0
 11
71.000000000000455
 21
282.49999999999977
 31
0.0
  0
LINE
  5
CA09
  8
2
 10
75.0
 20
258.5
 30
0.0
 11
72.0
 21
258.5
 31
0.0
  0
LINE
  5
CA0A
  8
2
 10
72.0
 20
261.5
 30
0.0
 11
71.000000000000398
 21
261.5
 31
0.0
  0
LINE
  5
CA0B
  8
2
 10
72.0
 20
281.5
 30
0.0
 11
71.000000000000341
 21
281.5
 31
0.0
  0
LINE
  5
CA0C
  8
2
 10
75.0
 20
284.5
 30
0.0
 11
72.0
 21
284.5
 31
0.0
  0
LINE
  5
CA0D
  8
2
 10
71.000000000000341
 20
282.49999999999977
 30
0.0
 11
71.000000000000398
 21
281.5
 31
0.0
  0
LINE
  5
CA0E
  8
2
 10
71.000000000000512
 20
261.5
 30
0.0
 11
71.000000000000398
 21
260.49999999999989
 31
0.0
  0
ARC
  5
CABD
  8
0
 10
495.12857142857177
 20
322.58571428571429
 30
0.0
 40
0.9142857142857253
 50
90.0
 51
180.0
  0
LINE
  5
CABE
  8
0
 10
497.8714285850528
 20
323.5
 30
0.0
 11
495.12857142857177
 21
323.5
 31
0.0
  0
ARC
  5
CABF
  8
0
 10
497.87142857142868
 20
322.58571428571429
 30
0.0
 40
0.9142857142857122
 50
0.0
 51
90.000099146223391
  0
ARC
  5
CACC
  8
0
 10
496.50000000000011
 20
319.5
 30
0.0
 40
5.0951357528750254
 50
301.7548633008285
 51
238.2451366991715
  0
ARC
  5
CAD5
  8
0
 10
496.50000000000011
 20
319.5
 30
0.0
 40
8.0
 50
309.2511947004096
 51
230.7488052995906
  0
LINE
  5
CAD7
  8
1
 10
507.50000000000011
 20
319.5
 30
0.0
 11
485.50000000000023
 21
319.5
 31
0.0
  0
ARC
  5
CADB
  8
0
 10
496.50000000000011
 20
271.5
 30
0.0
 40
13.0
 50
147.79577249602769
 51
212.20422750397231
  0
LINE
  5
CADC
  8
0
 10
513.5500000000003
 20
306.61436927406112
 30
0.0
 11
513.5500000000003
 21
236.38563072593891
 31
0.0
  0
POLYLINE
  5
CADD
  8
0
 66
     1
 10
0.0
 20
0.0
 30
0.0
  0
VERTEX
  5
D3A3
  8
0
 10
517.69358669833764
 20
309.03317380837899
 30
0.0
  0
VERTEX
  5
D3A4
  8
0
 10
516.82159447617107
 20
309.34790077216098
 30
0.0
  0
VERTEX
  5
D3A5
  8
0
 10
515.89592092910345
 20
309.35837165105892
 30
0.0
  0
VERTEX
  5
D3A6
  8
0
 10
515.01766023238974
 20
309.06378581682827
 30
0.0
  0
VERTEX
  5
D3A7
  8
0
 10
514.28220703288412
 20
308.49364831410549
 30
0.0
  0
VERTEX
  5
D3A8
  8
0
 10
513.77416603945801
 20
307.70758310155787
 30
0.0
  0
VERTEX
  5
D3A9
  8
0
 10
513.55574273021352
 20
306.79289400004888
 30
0.0
  0
VERTEX
  5
D3AA
  8
0
 10
513.5500000000003
 20
306.61436927406112
 30
0.0
  0
SEQEND
  5
D3AB
  8
0
  0
ARC
  5
CADE
  8
0
 10
496.50000000000011
 20
271.5
 30
0.0
 40
43.103448275862092
 50
299.45180072726941
 51
60.548199272730578
  0
POLYLINE
  5
CADF
  8
0
 66
     1
 10
0.0
 20
0.0
 30
0.0
  0
VERTEX
  5
D3AC
  8
0
 10
513.5500000000003
 20
236.38563072593891
 30
0.0
  0
VERTEX
  5
D3AD
  8
0
 10
513.70894536077287
 20
235.4594740683701
 30
0.0
  0
VERTEX
  5
D3AE
  8
0
 10
514.16730586239419
 20
234.63966094225029
 30
0.0
  0
VERTEX
  5
D3AF
  8
0
 10
514.87471533152768
 20
234.01821464294611
 30
0.0
  0
VERTEX
  5
D3B0
  8
0
 10
515.74816869748884
 20
233.66899628296309
 30
0.0
  0
VERTEX
  5
D3B1
  8
0
 10
516.68399034001823
 20
233.63078735594149
 30
0.0
  0
VERTEX
  5
D3B2
  8
0
 10
517.57448687023827
 20
233.9033402873533
 30
0.0
  0
VERTEX
  5
D3B3
  8
0
 10
517.69358669833764
 20
233.9668261916211
 30
0.0
  0
SEQEND
  5
D3B4
  8
0
  0
ARC
  5
CAE0
  8
0
 10
496.50000000000011
 20
271.5
 30
0.0
 40
43.103448275862092
 50
119.4518007272694
 51
240.54819927273061
  0
POLYLINE
  5
CAE1
  8
0
 66
     1
 10
0.0
 20
0.0
 30
0.0
  0
VERTEX
  5
D3B5
  8
0
 10
479.4500000000001
 20
306.61436927406112
 30
0.0
  0
VERTEX
  5
D3B6
  8
0
 10
479.29105463922758
 20
307.54052593162982
 30
0.0
  0
VERTEX
  5
D3B7
  8
0
 10
478.83269413760638
 20
308.36033905774968
 30
0.0
  0
VERTEX
  5
D3B8
  8
0
 10
478.125284668473
 20
308.98178535705392
 30
0.0
  0
VERTEX
  5
D3B9
  8
0
 10
477.25183130251168
 20
309.33100371703688
 30
0.0
  0
VERTEX
  5
D3BA
  8
0
 10
476.3160096599824
 20
309.36921264405851
 30
0.0
  0
VERTEX
  5
D3BB
  8
0
 10
475.42551312976218
 20
309.09665971264673
 30
0.0
  0
VERTEX
  5
D3BC
  8
0
 10
475.30641330166287
 20
309.03317380837899
 30
0.0
  0
SEQEND
  5
D3BD
  8
0
  0
LINE
  5
CAE2
  8
0
 10
479.4500000000001
 20
236.38563072593891
 30
0.0
 11
479.4500000000001
 21
306.61436927406112
 31
0.0
  0
POLYLINE
  5
CAE3
  8
0
 66
     1
 10
0.0
 20
0.0
 30
0.0
  0
VERTEX
  5
D3BE
  8
0
 10
475.30641330166287
 20
233.9668261916211
 30
0.0
  0
VERTEX
  5
D3BF
  8
0
 10
476.17840552382938
 20
233.65209922783899
 30
0.0
  0
VERTEX
  5
D3C0
  8
0
 10
477.10407907089677
 20
233.64162834894111
 30
0.0
  0
VERTEX
  5
D3C1
  8
0
 10
477.98233976761088
 20
233.93621418317159
 30
0.0
  0
VERTEX
  5
D3C2
  8
0
 10
478.71779296711622
 20
234.5063516858944
 30
0.0
  0
VERTEX
  5
D3C3
  8
0
 10
479.2258339605425
 20
235.2924168984421
 30
0.0
  0
VERTEX
  5
D3C4
  8
0
 10
479.44425726978727
 20
236.2071059999511
 30
0.0
  0
VERTEX
  5
D3C5
  8
0
 10
479.4500000000001
 20
236.38563072593891
 30
0.0
  0
SEQEND
  5
D3C6
  8
0
  0
CIRCLE
  5
CAE4
  8
0
 10
496.50000000000011
 20
271.5
 30
0.0
 40
62.5
  0
ARC
  5
CAE5
  8
0
 10
496.50000000000011
 20
271.5
 30
0.0
 40
52.67036410976425
 50
97.406519958966044
 51
82.59348004103397
  0
POLYLINE
  5
CBE2
  8
0
 66
     1
 10
0.0
 20
0.0
 30
0.0
  0
VERTEX
  5
D3C7
  8
0
 10
494.21428571428589
 20
320.66756756756757
 30
0.0
  0
VERTEX
  5
D3C8
  8
0
 10
494.29378286683652
 20
321.1656349233524
 30
0.0
  0
VERTEX
  5
D3C9
  8
0
 10
494.5194115111268
 20
321.60740840408891
 30
0.0
  0
VERTEX
  5
D3CA
  8
0
 10
494.86741504813602
 20
321.9573101549023
 30
0.0
  0
VERTEX
  5
D3CB
  8
0
 10
495.3166539260672
 20
322.18821302373237
 30
0.0
  0
VERTEX
  5
D3CC
  8
0
 10
495.80716944137788
 20
322.26755174207051
 30
0.0
  0
VERTEX
  5
D3CD
  8
0
 10
495.8142857142858
 20
322.2675675675676
 30
0.0
  0
SEQEND
  5
D3CE
  8
0
  0
POLYLINE
  5
CBE3
  8
0
 66
     1
 10
0.0
 20
0.0
 30
0.0
  0
VERTEX
  5
D3CF
  8
0
 10
497.18571428571443
 20
322.2675675675676
 30
0.0
  0
VERTEX
  5
D3D0
  8
0
 10
497.1928305586224
 20
322.26755174207051
 30
0.0
  0
VERTEX
  5
D3D1
  8
0
 10
497.7749081366743
 20
322.15513289587813
 30
0.0
  0
VERTEX
  5
D3D2
  8
0
 10
498.29300402412957
 20
321.82251753843229
 30
0.0
  0
VERTEX
  5
D3D3
  8
0
 10
498.62791903678971
 20
321.36042069484341
 30
0.0
  0
VERTEX
  5
D3D4
  8
0
 10
498.77533274003338
 20
320.849537811532
 30
0.0
  0
VERTEX
  5
D3D5
  8
0
 10
498.78571428571428
 20
320.66756756756757
 30
0.0
  0
SEQEND
  5
D3D6
  8
0
  0
LINE
  5
CBE4
  8
0
 10
495.8142857142858
 20
322.2675675675676
 30
0.0
 11
497.18571428571443
 21
322.2675675675676
 31
0.0
  0
LINE
  5
CBE6
  8
0
 10
491.70000000000022
 20
315.16756756756757
 30
0.0
 11
501.30000000000013
 21
315.16756756756757
 31
0.0
  0
LINE
  5
CBE7
  8
0
 10
491.70000000000022
 20
315.16756756756757
 30
0.0
 11
491.1940529950715
 21
311.56756756756761
 31
0.0
  0
LINE
  5
CBE8
  8
0
 10
501.80594700492873
 20
311.56756756756761
 30
0.0
 11
501.30000000000013
 21
315.16756756756757
 31
0.0
  0
LINE
  5
CC0D
  8
0
 10
498.78571428571428
 20
315.1675675675678
 30
0.0
 11
498.78571428571428
 21
322.58571428571429
 31
0.0
  0
LINE
  5
CC0F
  8
0
 10
494.21428571428589
 20
315.1675675675678
 30
0.0
 11
494.21428571428589
 21
322.58571428571429
 31
0.0
  0
LINE
  5
CC66
  8
0
 10
488.13999999999999
 20
311.56756756756761
 30
0.0
 11
487.70000000000022
 21
311.12756756756772
 31
0.0
  0
LINE
  5
CC67
  8
0
 10
505.30000000000013
 20
311.12756756756772
 30
0.0
 11
504.86000000000001
 21
311.56756756756761
 31
0.0
  0
LINE
  5
CC68
  8
0
 10
487.70000000000022
 20
311.12756756756772
 30
0.0
 11
505.30000000000013
 21
311.12756756756772
 31
0.0
  0
LINE
  5
CC69
  8
0
 10
505.30000000000013
 20
294.72807934421922
 30
0.0
 11
505.30000000000013
 21
311.12756756756772
 31
0.0
  0
LINE
  5
CC6A
  8
0
 10
487.70000000000022
 20
311.12756756756772
 30
0.0
 11
487.70000000000022
 21
294.72807934421922
 31
0.0
  0
LINE
  5
CC6B
  8
0
 10
487.70000000000022
 20
294.72807934421922
 30
0.0
 11
505.30000000000013
 21
294.72807934421922
 31
0.0
  0
ARC
  5
CC6C
  8
0
 10
503.10000000000031
 20
290.91756756756757
 30
0.0
 40
4.3999999999999426
 50
0.0
 51
60.000000000003801
  0
ARC
  5
CC6D
  8
0
 10
489.89999999999998
 20
290.91756756756757
 30
0.0
 40
4.3999999999999506
 50
119.99999999999621
 51
180.0
  0
LINE
  5
CC6E
  8
0
 10
485.50000000000023
 20
290.91756756756757
 30
0.0
 11
507.50000000000011
 21
290.91756756756757
 31
0.0
  0
LINE
  5
CC6F
  8
0
 10
507.50000000000011
 20
257.56756756756761
 30
0.0
 11
507.50000000000011
 21
290.91756756756757
 31
0.0
  0
LINE
  5
CC70
  8
0
 10
485.50000000000023
 20
290.91756756756757
 30
0.0
 11
485.50000000000023
 21
257.56756756756761
 31
0.0
  0
LINE
  5
CC71
  8
0
 10
485.50000000000023
 20
257.56756756756761
 30
0.0
 11
507.50000000000011
 21
257.56756756756761
 31
0.0
  0
ARC
  5
CC72
  8
0
 10
496.50000000000011
 20
257.56756756756761
 30
0.0
 40
11.000000000000011
 50
180.0000008537736
 51
0.0
  0
LINE
  5
CE12
  8
0
 10
488.13999999999999
 20
311.56756756756772
 30
0.0
 11
504.86000000000001
 21
311.56756756756761
 31
0.0
  0
ARC
  5
CE99
  8
0
 10
496.50000000000011
 20
271.5
 30
0.0
 40
13.0
 50
327.79577249602772
 51
32.204227503972277
  0
LINE
  5
D048
  8
1
 10
671.00000000000023
 20
271.5
 30
0.0
 11
721.00000000000023
 21
271.5
 31
0.0
  0
LINE
  5
D057
  8
0
 10
718.00000000000023
 20
260.5
 30
0.0
 11
717.80000000000041
 21
260.5
 31
0.0
  0
LINE
  5
D058
  8
0
 10
717.80000000000041
 20
282.5
 30
0.0
 11
718.00000000000023
 21
282.5
 31
0.0
  0
LINE
  5
D059
  8
0
 10
718.00000000000023
 20
282.5
 30
0.0
 11
718.00000000000023
 21
260.5
 31
0.0
  0
LINE
  5
D05A
  8
0
 10
717.80000000000041
 20
286.5
 30
0.0
 11
717.80000000000041
 21
256.5
 31
0.0
  0
ARC
  5
D05B
  8
0
 10
717.30000000000041
 20
256.5
 30
0.0
 40
0.5000000000000056
 50
270.0
 51
0.0
  0
ARC
  5
D05C
  8
0
 10
717.30000000000041
 20
286.5
 30
0.0
 40
0.5000000000000018
 50
0.0
 51
90.0
  0
LINE
  5
D05D
  8
0
 10
717.30000000000041
 20
256.0
 30
0.0
 11
712.50000000000023
 21
256.0
 31
0.0
  0
LINE
  5
D05E
  8
0
 10
712.50000000000023
 20
287.0
 30
0.0
 11
717.30000000000041
 21
287.0
 31
0.0
  0
POLYLINE
  5
D05F
  8
0
 66
     1
 10
0.0
 20
0.0
 30
0.0
  0
VERTEX
  5
D3D7
  8
0
 10
698.63969637622415
 20
306.61436927406112
 30
0.0
  0
VERTEX
  5
D3D8
  8
0
 10
700.69462885963367
 20
302.72456793465852
 30
0.0
  0
VERTEX
  5
D3D9
  8
0
 10
702.71758442453529
 20
298.81054244271132
 30
0.0
  0
VERTEX
  5
D3DA
  8
0
 10
704.66551902903461
 20
294.85947743166253
 30
0.0
  0
VERTEX
  5
D3DB
  8
0
 10
706.49538863123689
 20
290.85855753495548
 30
0.0
  0
VERTEX
  5
D3DC
  8
0
 10
708.16414918924761
 20
286.79496738603331
 30
0.0
  0
VERTEX
  5
D3DD
  8
0
 10
709.62875666117168
 20
282.65589161833913
 30
0.0
  0
VERTEX
  5
D3DE
  8
0
 10
710.32479700498561
 20
280.2972493737924
 30
0.0
  0
VERTEX
  5
D3DF
  8
0
 10
710.8922660234914
 20
277.89452169181391
 30
0.0
  0
VERTEX
  5
D3E0
  8
0
 10
711.30603012594906
 20
275.46150586300092
 30
0.0
  0
VERTEX
  5
D3E1
  8
0
 10
711.54095572161805
 20
273.0119991779502
 30
0.0
  0
VERTEX
  5
D3E2
  8
0
 10
711.57190921975769
 20
270.55979892725901
 30
0.0
  0
VERTEX
  5
D3E3
  8
0
 10
711.31510852387942
 20
267.53577630254279
 30
0.0
  0
VERTEX
  5
D3E4
  8
0
 10
710.77677658455104
 20
264.53800876059432
 30
0.0
  0
VERTEX
  5
D3E5
  8
0
 10
710.01011129153108
 20
261.58326178703658
 30
0.0
  0
VERTEX
  5
D3E6
  8
0
 10
709.0683105345779
 20
258.6883008674925
 30
0.0
  0
VERTEX
  5
D3E7
  8
0
 10
707.281530585111
 20
254.06374151181981
 30
0.0
  0
VERTEX
  5
D3E8
  8
0
 10
705.27342618544435
 20
249.52620147990561
 30
0.0
  0
VERTEX
  5
D3E9
  8
0
 10
703.11074962072121
 20
245.05547835862311
 30
0.0
  0
VERTEX
  5
D3EA
  8
0
 10
700.86025317608551
 20
240.63136973484509
 30
0.0
  0
VERTEX
  5
D3EB
  8
0
 10
698.63969637622415
 20
236.38563072593891
 30
0.0
  0
SEQEND
  5
D3EC
  8
0
  0
LINE
  5
D060
  8
0
 10
712.50000000000023
 20
256.0
 30
0.0
 11
696.60863466873661
 21
229.01637111842399
 31
0.0
  0
LINE
  5
D061
  8
0
 10
696.60863466873661
 20
313.9836288815759
 30
0.0
 11
712.50000000000023
 21
287.0
 31
0.0
  0
LINE
  5
D062
  8
0
 10
712.50000000000023
 20
287.0
 30
0.0
 11
712.50000000000023
 21
256.0
 31
0.0
  0
POLYLINE
  5
D063
  8
0
 66
     1
 10
0.0
 20
0.0
 30
0.0
  0
VERTEX
  5
D3ED
  8
0
 10
696.60863466873661
 20
309.34294283007659
 30
0.0
  0
VERTEX
  5
D3EE
  8
0
 10
696.80748070458696
 20
309.20610324702631
 30
0.0
  0
VERTEX
  5
D3EF
  8
0
 10
697.0341087259801
 20
308.99272446614242
 30
0.0
  0
VERTEX
  5
D3F0
  8
0
 10
697.54048453287169
 20
308.38082391308347
 30
0.0
  0
VERTEX
  5
D3F1
  8
0
 10
697.83740561940056
 20
307.95907155578652
 30
0.0
  0
VERTEX
  5
D3F2
  8
0
 10
698.13674721979248
 20
307.49349039648729
 30
0.0
  0
VERTEX
  5
D3F3
  8
0
 10
698.63969637622415
 20
306.61436927406112
 30
0.0
  0
SEQEND
  5
D3F4
  8
0
  0
POLYLINE
  5
D064
  8
0
 66
     1
 10
0.0
 20
0.0
 30
0.0
  0
VERTEX
  5
D3F5
  8
0
 10
696.45696588493126
 20
309.39214230492797
 30
0.0
  0
VERTEX
  5
D3F6
  8
0
 10
696.53260469416523
 20
309.37676715809391
 30
0.0
  0
VERTEX
  5
D3F7
  8
0
 10
696.60863466873661
 20
309.34294283007659
 30
0.0
  0
SEQEND
  5
D3F8
  8
0
  0
POLYLINE
  5
D065
  8
0
 66
     1
 10
0.0
 20
0.0
 30
0.0
  0
VERTEX
  5
D3F9
  8
0
 10
698.63969637622415
 20
236.38563072593891
 30
0.0
  0
VERTEX
  5
D3FA
  8
0
 10
698.29411009649175
 20
235.7678344790022
 30
0.0
  0
VERTEX
  5
D3FB
  8
0
 10
697.93460008567729
 20
235.18765431949231
 30
0.0
  0
VERTEX
  5
D3FC
  8
0
 10
697.624283922112
 20
234.73408265362659
 30
0.0
  0
VERTEX
  5
D3FD
  8
0
 10
697.32238322886531
 20
234.33704753244339
 30
0.0
  0
VERTEX
  5
D3FE
  8
0
 10
697.03422821832692
 20
234.00759312453309
 30
0.0
  0
VERTEX
  5
D3FF
  8
0
 10
696.77374531146245
 20
233.76652303433809
 30
0.0
  0
VERTEX
  5
D400
  8
0
 10
696.60863466873661
 20
233.65705716992341
 30
0.0
  0
SEQEND
  5
D401
  8
0
  0
POLYLINE
  5
D066
  8
0
 66
     1
 10
0.0
 20
0.0
 30
0.0
  0
VERTEX
  5
D402
  8
0
 10
696.45645857141471
 20
233.60785449417759
 30
0.0
  0
VERTEX
  5
D403
  8
0
 10
696.39490196401687
 20
233.6249113021976
 30
0.0
  0
VERTEX
  5
D404
  8
0
 10
696.31100165964449
 20
233.84771170912671
 30
0.0
  0
VERTEX
  5
D405
  8
0
 10
696.30632402646074
 20
233.96682619162121
 30
0.0
  0
SEQEND
  5
D406
  8
0
  0
POLYLINE
  5
D067
  8
0
 66
     1
 10
0.0
 20
0.0
 30
0.0
  0
VERTEX
  5
D407
  8
0
 10
696.30632402646074
 20
309.03317380837899
 30
0.0
  0
VERTEX
  5
D408
  8
0
 10
696.35824819453524
 20
309.33590908501742
 30
0.0
  0
VERTEX
  5
D409
  8
0
 10
696.45696588493126
 20
309.39214230492797
 30
0.0
  0
SEQEND
  5
D40A
  8
0
  0
LINE
  5
D068
  8
0
 10
696.30632402646074
 20
233.96682619162121
 30
0.0
 11
696.30632402646074
 21
309.03317380837899
 31
0.0
  0
LINE
  5
D069
  8
0
 10
696.60863466873661
 20
233.65705716992341
 30
0.0
 11
696.45645857141471
 21
233.60785449417759
 31
0.0
  0
ARC
  5
D06A
  8
0
 10
700.40000000000032
 20
226.78353683776379
 30
0.0
 40
4.3999999999999488
 50
149.5050554015024
 51
180.0
  0
ARC
  5
D06B
  8
0
 10
700.40000000000032
 20
316.21646316223621
 30
0.0
 40
4.3999999999999488
 50
180.0
 51
210.4949445984976
  0
LINE
  5
D06C
  8
0
 10
674.00000000000011
 20
330.34691988195141
 30
0.0
 11
674.00000000000011
 21
212.65308011804859
 31
0.0
  0
ARC
  5
D06D
  8
0
 10
676.20000000000027
 20
212.65308011804851
 30
0.0
 40
2.1999999999999238
 50
180.0
 51
255.00000000000551
  0
ARC
  5
D06E
  8
0
 10
676.20000000000027
 20
330.34691988195141
 30
0.0
 40
2.1999999999999238
 50
104.9999999999944
 51
180.0
  0
LINE
  5
D06F
  8
0
 10
675.63059810077471
 20
332.47195669978743
 30
0.0
 11
678.53566928800092
 21
333.25036817835951
 31
0.0
  0
LINE
  5
D070
  8
0
 10
678.53566928800092
 20
209.74963182164049
 30
0.0
 11
675.63059810077471
 21
210.5280433002126
 31
0.0
  0
LINE
  5
D071
  8
0
 10
688.66666666666697
 20
209.0
 30
0.0
 11
684.22968828025625
 21
209.0
 31
0.0
  0
LINE
  5
D072
  8
0
 10
684.22968828025625
 20
334.0
 30
0.0
 11
688.66666666666697
 21
334.0
 31
0.0
  0
LINE
  5
D073
  8
0
 10
696.00000000000023
 20
326.66666666666657
 30
0.0
 11
696.00000000000023
 21
216.33333333333329
 31
0.0
  0
ARC
  5
D074
  8
0
 10
688.66666666666697
 20
216.33333333333329
 30
0.0
 40
7.3333333333333277
 50
269.99999914622629
 51
0.0
  0
ARC
  5
D075
  8
0
 10
688.66666666666697
 20
326.66666666666669
 30
0.0
 40
7.3333333333333206
 50
0.0
 51
90.000000853773628
  0
ARC
  5
D076
  8
0
 10
684.22968828025614
 20
230.99999999999861
 30
0.0
 40
21.99999999999865
 50
255.00000000000551
 51
270.0
  0
ARC
  5
D077
  8
0
 10
684.22968828025625
 20
312.00000000000023
 30
0.0
 40
21.999999999999709
 50
90.0
 51
104.9999999999945
  0
LINE
  5
D078
  8
2
 10
490.49999991804378
 20
50.0
 30
0.0
 11
490.49999991804378
 21
72.000000000000114
 31
0.0
  0
LINE
  5
D079
  8
2
 10
502.49999991804378
 20
72.000000000000114
 30
0.0
 11
502.49999991804378
 21
50.0
 31
0.0
  0
LINE
  5
D07A
  8
2
 10
509.49999991804373
 20
75.0
 30
0.0
 11
483.49999991804373
 21
75.0
 31
0.0
  0
LINE
  5
D07B
  8
1
 10
496.49999991804373
 20
47.0
 30
0.0
 11
496.49999991804373
 21
100.06756756756759
 31
0.0
  0
LINE
  5
D07C
  8
1
 10
490.49999991804378
 20
86.067567567567608
 30
0.0
 11
502.49999991804378
 21
86.067567567567608
 31
0.0
  0
LINE
  5
D08A
  8
0
 10
485.49999991804378
 20
50.0
 30
0.0
 11
485.49999991804378
 21
50.199999999999932
 31
0.0
  0
LINE
  5
D08B
  8
0
 10
507.49999991804373
 20
50.199999999999932
 30
0.0
 11
507.49999991804373
 21
50.0
 31
0.0
  0
LINE
  5
D08C
  8
0
 10
507.49999991804373
 20
50.0
 30
0.0
 11
485.49999991804378
 21
50.0
 31
0.0
  0
LINE
  5
D08D
  8
0
 10
511.49999991661559
 20
50.199999999999932
 30
0.0
 11
481.49999991804378
 21
50.199999999999932
 31
0.0
  0
ARC
  5
D08E
  8
0
 10
481.49999991804378
 20
50.699999999999932
 30
0.0
 40
0.5000000000000056
 50
180.0
 51
270.0
  0
ARC
  5
D08F
  8
0
 10
511.49999991804378
 20
50.699999999999932
 30
0.0
 40
0.5000000000000018
 50
270.0
 51
0.0
  0
LINE
  5
D090
  8
0
 10
480.99999991804378
 20
50.699999999999932
 30
0.0
 11
480.99999991804378
 21
55.5
 31
0.0
  0
LINE
  5
D091
  8
0
 10
511.99999991804373
 20
55.5
 30
0.0
 11
511.99999991804373
 21
50.699999999999932
 31
0.0
  0
POLYLINE
  5
D092
  8
0
 66
     1
 10
0.0
 20
0.0
 30
0.0
  0
VERTEX
  5
D40B
  8
0
 10
513.5499999180438
 20
69.360303623776076
 30
0.0
  0
VERTEX
  5
D40C
  8
0
 10
513.62000973794761
 20
69.705889903508591
 30
0.0
  0
VERTEX
  5
D40D
  8
0
 10
513.82160493395656
 20
70.065399914322938
 30
0.0
  0
VERTEX
  5
D40E
  8
0
 10
514.09459783566604
 20
70.375716077888342
 30
0.0
  0
VERTEX
  5
D40F
  8
0
 10
514.45178295114749
 20
70.677616771134794
 30
0.0
  0
VERTEX
  5
D410
  8
0
 10
514.89291415775233
 20
70.965771781673425
 30
0.0
  0
VERTEX
  5
D411
  8
0
 10
515.40239978247291
 20
71.226254688537779
 30
0.0
  0
VERTEX
  5
D412
  8
0
 10
515.80726282367129
 20
71.391365331263714
 30
0.0
  0
SEQEND
  5
D413
  8
0
  0
LINE
  5
D093
  8
0
 10
479.4499999180436
 20
69.360303623776076
 30
0.0
 11
479.4499999180436
 21
56.412835574513451
 31
0.0
  0
POLYLINE
  5
D094
  8
0
 66
     1
 10
0.0
 20
0.0
 30
0.0
  0
VERTEX
  5
D414
  8
0
 10
477.19273701241588
 20
71.391365331263714
 30
0.0
  0
VERTEX
  5
D415
  8
0
 10
477.67092411583718
 20
71.192519295413263
 30
0.0
  0
VERTEX
  5
D416
  8
0
 10
478.10730958116147
 20
70.965891274020237
 30
0.0
  0
VERTEX
  5
D417
  8
0
 10
478.81597758130692
 20
70.459515467128654
 30
0.0
  0
VERTEX
  5
D418
  8
0
 10
479.10260161604998
 20
70.162594380599671
 30
0.0
  0
VERTEX
  5
D419
  8
0
 10
479.30721653016889
 20
69.863252780207745
 30
0.0
  0
VERTEX
  5
D41A
  8
0
 10
479.4499999180436
 20
69.360303623776076
 30
0.0
  0
SEQEND
  5
D41B
  8
0
  0
LINE
  5
D095
  8
0
 10
480.99999991804378
 20
55.5
 30
0.0
 11
479.43534719034562
 21
56.421464945338933
 31
0.0
  0
LINE
  5
D096
  8
0
 10
513.565531158265
 20
56.42198232435851
 30
0.0
 11
511.99999991804373
 21
55.5
 31
0.0
  0
LINE
  5
D097
  8
0
 10
513.5499999180438
 20
56.41283557606971
 30
0.0
 11
513.5499999180438
 21
69.360303623776076
 31
0.0
  0
LINE
  5
D098
  8
0
 10
511.99999991804373
 20
55.5
 30
0.0
 11
480.99999991804378
 21
55.5
 31
0.0
  0
POLYLINE
  5
D099
  8
0
 66
     1
 10
0.0
 20
0.0
 30
0.0
  0
VERTEX
  5
D41C
  8
0
 10
475.30641321970643
 20
71.693675973539598
 30
0.0
  0
VERTEX
  5
D41D
  8
0
 10
476.11610125404047
 20
71.641751805465105
 30
0.0
  0
VERTEX
  5
D41E
  8
0
 10
476.96412505735901
 20
71.467395305835112
 30
0.0
  0
VERTEX
  5
D41F
  8
0
 10
477.19273701241588
 20
71.391365331263714
 30
0.0
  0
SEQEND
  5
D420
  8
0
  0
LINE
  5
D09A
  8
0
 10
517.69358661638103
 20
71.693675973539598
 30
0.0
 11
539.60344819390593
 21
71.693675973539598
 31
0.0
  0
POLYLINE
  5
D09B
  8
0
 66
     1
 10
0.0
 20
0.0
 30
0.0
  0
VERTEX
  5
D421
  8
0
 10
515.80726282367129
 20
71.391365331263714
 30
0.0
  0
VERTEX
  5
D422
  8
0
 10
516.63514985801862
 20
71.60509803598336
 30
0.0
  0
VERTEX
  5
D423
  8
0
 10
517.45694395763553
 20
71.688998340355738
 30
0.0
  0
VERTEX
  5
D424
  8
0
 10
517.69358661638103
 20
71.693675973539598
 30
0.0
  0
SEQEND
  5
D425
  8
0
  0
ARC
  5
D09C
  8
0
 10
451.7835367558074
 20
67.600000000000136
 30
0.0
 40
4.3999999999998423
 50
68.494268838783327
 51
90.0
  0
ARC
  5
D09D
  8
0
 10
541.21646308027994
 20
67.60000000000025
 30
0.0
 40
4.3999999999997206
 50
90.0
 51
111.5057311612166
  0
LINE
  5
D09E
  8
0
 10
453.39655164218158
 20
71.693675973539598
 30
0.0
 11
475.30641321970643
 21
71.693675973539598
 31
0.0
  0
LINE
  5
D09F
  8
0
 10
555.34691979960405
 20
94.0
 30
0.0
 11
437.65308003609238
 21
94.0
 31
0.0
  0
ARC
  5
D0A0
  8
0
 10
437.65308003609209
 20
91.800000000000054
 30
0.0
 40
2.1999999999999238
 50
90.0
 51
165.00000000000199
  0
ARC
  5
D0A1
  8
0
 10
555.34691979999525
 20
91.800000000000054
 30
0.0
 40
2.1999999999999238
 50
14.999999999997989
 51
90.0
  0
LINE
  5
D0A2
  8
0
 10
557.47195661783121
 20
92.369401899225522
 30
0.0
 11
558.25036809640324
 21
89.464330711999423
 31
0.0
  0
LINE
  5
D0A3
  8
0
 10
434.74963173968411
 20
89.464330711999423
 30
0.0
 11
435.5280432182563
 21
92.369401899225522
 31
0.0
  0
LINE
  5
D0A4
  8
0
 10
433.99999991804373
 20
79.333333333333371
 30
0.0
 11
433.99999991804373
 21
83.770311719743972
 31
0.0
  0
LINE
  5
D0A5
  8
0
 10
558.99999991804384
 20
83.770311719743972
 30
0.0
 11
558.99999991804384
 21
79.333333333333371
 31
0.0
  0
LINE
  5
D0A6
  8
0
 10
551.6666665847099
 20
72.0
 30
0.0
 11
441.33333325137698
 21
72.0
 31
0.0
  0
ARC
  5
D0A7
  8
0
 10
441.33333325137698
 20
79.333333333333371
 30
0.0
 40
7.3333333333333277
 50
179.99999914622629
 51
270.0
  0
ARC
  5
D0A8
  8
0
 10
551.66666658471036
 20
79.333333333333371
 30
0.0
 40
7.3333333333333206
 50
270.0
 51
0.0000008537736463
  0
ARC
  5
D0A9
  8
0
 10
455.99999991804242
 20
83.770311719744214
 30
0.0
 40
21.99999999999865
 50
164.99999999999881
 51
180.0
  0
ARC
  5
D0AA
  8
0
 10
536.99999991804395
 20
83.770311719743972
 30
0.0
 40
21.999999999999709
 50
0.0
 51
15.000000000001121
  0
LINE
  5
D0AB
  8
2
 10
509.49999991804373
 20
72.000000000000227
 30
0.0
 11
483.49999991804373
 21
72.000000000000284
 31
0.0
  0
LINE
  5
D0AC
  8
2
 10
485.49999991804378
 20
50.199999999999932
 30
0.0
 11
485.49999991804378
 21
71.000000000000455
 31
0.0
  0
LINE
  5
D0AD
  8
2
 10
507.49999991804373
 20
50.199999999999932
 30
0.0
 11
507.4999999180435
 21
71.000000000000455
 31
0.0
  0
LINE
  5
D0AE
  8
2
 10
483.49999991804373
 20
75.0
 30
0.0
 11
483.49999991804373
 21
72.0
 31
0.0
  0
LINE
  5
D0AF
  8
2
 10
486.49999991804378
 20
72.0
 30
0.0
 11
486.49999991804378
 21
71.000000000000398
 31
0.0
  0
LINE
  5
D0B0
  8
2
 10
506.49999991804378
 20
72.0
 30
0.0
 11
506.49999991804378
 21
71.000000000000341
 31
0.0
  0
LINE
  5
D0B1
  8
2
 10
509.49999991804373
 20
75.0
 30
0.0
 11
509.49999991804373
 21
72.0
 31
0.0
  0
LINE
  5
D0B2
  8
2
 10
507.4999999180435
 20
71.000000000000341
 30
0.0
 11
506.49999991804378
 21
71.000000000000398
 31
0.0
  0
LINE
  5
D0B3
  8
2
 10
486.49999991804378
 20
71.000000000000512
 30
0.0
 11
485.4999999180435
 21
71.000000000000398
 31
0.0
  0
LINE
  5
D0B4
  8
2
 10
718.00000000000023
 20
265.5
 30
0.0
 11
696.00000000000023
 21
265.5
 31
0.0
  0
LINE
  5
D0B5
  8
2
 10
696.00000000000023
 20
277.5
 30
0.0
 11
718.00000000000023
 21
277.5
 31
0.0
  0
LINE
  5
D0B6
  8
2
 10
693.00000000000023
 20
284.5
 30
0.0
 11
693.00000000000023
 21
258.5
 31
0.0
  0
LINE
  5
D0B7
  8
2
 10
696.0
 20
284.5
 30
0.0
 11
696.0
 21
258.5
 31
0.0
  0
LINE
  5
D0B8
  8
2
 10
717.80000000000041
 20
260.5
 30
0.0
 11
696.99999999999966
 21
260.5
 31
0.0
  0
LINE
  5
D0B9
  8
2
 10
717.80000000000041
 20
282.5
 30
0.0
 11
696.99999999999966
 21
282.49999999999977
 31
0.0
  0
LINE
  5
D0BA
  8
2
 10
693.00000000000023
 20
258.5
 30
0.0
 11
696.00000000000023
 21
258.5
 31
0.0
  0
LINE
  5
D0BB
  8
2
 10
696.00000000000023
 20
261.5
 30
0.0
 11
696.99999999999966
 21
261.5
 31
0.0
  0
LINE
  5
D0BC
  8
2
 10
696.00000000000023
 20
281.5
 30
0.0
 11
697.0
 21
281.5
 31
0.0
  0
LINE
  5
D0BD
  8
2
 10
693.00000000000023
 20
284.5
 30
0.0
 11
696.00000000000023
 21
284.5
 31
0.0
  0
LINE
  5
D0BE
  8
2
 10
697.0
 20
282.49999999999977
 30
0.0
 11
696.99999999999966
 21
281.5
 31
0.0
  0
LINE
  5
D0BF
  8
2
 10
696.99999999999966
 20
261.5
 30
0.0
 11
696.99999999999966
 21
260.49999999999989
 31
0.0
  0
LINE
  5
D0C0
  8
1
 10
496.50000000000011
 20
206.0
 30
0.0
 11
496.50000000000011
 21
337.0
 31
0.0
  0
LINE
  5
D0C1
  8
1
 10
431.00000000000011
 20
271.5
 30
0.0
 11
562.00000000000023
 21
271.5
 31
0.0
  0
LINE
  5
D10E
  8
0
 10
673.57243243243249
 20
311.56756756756761
 30
0.0
 11
673.13243243243278
 21
311.12756756756772
 31
0.0
  0
LINE
  5
D110
  8
0
 10
673.13243243243278
 20
311.12756756756772
 30
0.0
 11
674.00000000000011
 21
311.12756756756772
 31
0.0
  0
LINE
  5
D112
  8
0
 10
673.13243243243278
 20
311.12756756756772
 30
0.0
 11
673.13243243243278
 21
294.72807934421922
 31
0.0
  0
LINE
  5
D113
  8
0
 10
673.13243243243278
 20
294.72807934421922
 30
0.0
 11
674.00000000000011
 21
294.72807934421928
 31
0.0
  0
ARC
  5
D115
  8
0
 10
675.33243243243248
 20
290.91756756756757
 30
0.0
 40
4.3999999999999506
 50
119.99999999999621
 51
180.0
  0
LINE
  5
D116
  8
0
 10
670.93243243243273
 20
290.91756756756757
 30
0.0
 11
674.00000000000011
 21
290.91756756756757
 31
0.0
  0
LINE
  5
D118
  8
0
 10
670.93243243243273
 20
290.91756756756757
 30
0.0
 11
670.93243243243273
 21
257.56756756756761
 31
0.0
  0
LINE
  5
D119
  8
0
 10
670.93243243243273
 20
257.56756756756761
 30
0.0
 11
674.00000000000011
 21
257.56756756756761
 31
0.0
  0
ARC
  5
D11A
  8
0
 10
681.93243243243273
 20
257.56756756756761
 30
0.0
 40
11.000000000000011
 50
180.0000008537736
 51
223.85212740925451
  0
LINE
  5
D11B
  8
0
 10
673.57243243243249
 20
311.56756756756772
 30
0.0
 11
674.00000000000011
 21
311.56756756756761
 31
0.0
  0
ARC
  5
D184
  8
0
 10
496.50000000000011
 20
86.067567567567608
 30
0.0
 40
11.0
 50
46.147872590747689
 51
133.85212740925229
  0
ENDSEC
  0
EOF
