  0
SECTION
  2
HEADER
  9
$ACADVER
  1
AC1009
  9
$INSBASE
 10
0.0
 20
0.0
 30
0.0
  9
$EXTMIN
 10
0.0
 20
-2.960436562073669
 30
0.0
  9
$EXTMAX
 10
573.0
 20
263.0
 30
0.0
  9
$LIMMIN
 10
0.0
 20
0.0
  9
$LIMMAX
 10
375.0
 20
270.0
  9
$ORTHOMODE
 70
     1
  9
$REGENMODE
 70
     1
  9
$FILLMODE
 70
     1
  9
$QTEXTMODE
 70
     0
  9
$MIRRTEXT
 70
     0
  9
$DRAGMODE
 70
     2
  9
$LTSCALE
 40
10.0
  9
$OSMODE
 70
    37
  9
$ATTMODE
 70
     1
  9
$TEXTSIZE
 40
0.2
  9
$TRACEWID
 40
0.05
  9
$TEXTSTYLE
  7
STANDARD
  9
$CLAYER
  8
0
  9
$CELTYPE
  6
BYLAYER
  9
$CECOLOR
 62
   256
  9
$DIMSCALE
 40
1.0
  9
$DIMASZ
 40
3.0
  9
$DIMEXO
 40
2.0
  9
$DIMDLI
 40
0.38
  9
$DIMRND
 40
0.0
  9
$DIMDLE
 40
0.0
  9
$DIMEXE
 40
2.0
  9
$DIMTP
 40
0.0
  9
$DIMTM
 40
0.0
  9
$DIMTXT
 40
3.2000000000000002
  9
$DIMCEN
 40
0.0
  9
$DIMTSZ
 40
0.0
  9
$DIMTOL
 70
     0
  9
$DIMLIM
 70
     0
  9
$DIMTIH
 70
     0
  9
$DIMTOH
 70
     0
  9
$DIMSE1
 70
     0
  9
$DIMSE2
 70
     0
  9
$DIMTAD
 70
     1
  9
$DIMZIN
 70
     8
  9
$DIMBLK
  1

  9
$DIMASO
 70
     1
  9
$DIMSHO
 70
     0
  9
$DIMPOST
  1

  9
$DIMAPOST
  1

  9
$DIMALT
 70
     0
  9
$DIMALTD
 70
     2
  9
$DIMALTF
 40
25.399999999999999
  9
$DIMLFAC
 40
1.0
  9
$DIMTOFL
 70
     1
  9
$DIMTVP
 40
1.6000000000000001
  9
$DIMTIX
 70
     1
  9
$DIMSOXD
 70
     0
  9
$DIMSAH
 70
     0
  9
$DIMBLK1
  1

  9
$DIMBLK2
  1

  9
$DIMSTYLE
  2
STANDARD
  9
$DIMCLRD
 70
     0
  9
$DIMCLRE
 70
     0
  9
$DIMCLRT
 70
     0
  9
$DIMTFAC
 40
1.0
  9
$DIMGAP
 40
1.5
  9
$LUNITS
 70
     2
  9
$LUPREC
 70
     1
  9
$SKETCHINC
 40
0.1
  9
$FILLETRAD
 40
0.0
  9
$AUNITS
 70
     0
  9
$AUPREC
 70
     1
  9
$MENU
  1
E:\r13\win\SUPPORT\ACAD
  9
$ELEVATION
 40
0.0
  9
$PELEVATION
 40
0.0
  9
$THICKNESS
 40
0.0
  9
$LIMCHECK
 70
     0
  9
$BLIPMODE
 70
     0
  9
$CHAMFERA
 40
0.0
  9
$CHAMFERB
 40
0.0
  9
$SKPOLY
 70
     0
  9
$TDCREATE
 40
2449839.7800462958
  9
$TDUPDATE
 40
2457165.4689645828
  9
$TDINDWG
 40
1.2725266088
  9
$TDUSRTIMER
 40
1.2725266088
  9
$USRTIMER
 70
     1
  9
$ANGBASE
 50
0.0
  9
$ANGDIR
 70
     0
  9
$PDMODE
 70
     0
  9
$PDSIZE
 40
0.0
  9
$PLINEWID
 40
0.0
  9
$COORDS
 70
     1
  9
$SPLFRAME
 70
     0
  9
$SPLINETYPE
 70
     6
  9
$SPLINESEGS
 70
     8
  9
$ATTDIA
 70
     0
  9
$ATTREQ
 70
     1
  9
$HANDLING
 70
     1
  9
$HANDSEED
  5
BA24
  9
$SURFTAB1
 70
     6
  9
$SURFTAB2
 70
     6
  9
$SURFTYPE
 70
     6
  9
$SURFU
 70
     6
  9
$SURFV
 70
     6
  9
$UCSNAME
  2

  9
$UCSORG
 10
0.0
 20
0.0
 30
0.0
  9
$UCSXDIR
 10
1.0
 20
0.0
 30
0.0
  9
$UCSYDIR
 10
0.0
 20
1.0
 30
0.0
  9
$PUCSNAME
  2

  9
$PUCSORG
 10
0.0
 20
0.0
 30
0.0
  9
$PUCSXDIR
 10
1.0
 20
0.0
 30
0.0
  9
$PUCSYDIR
 10
0.0
 20
1.0
 30
0.0
  9
$USERI1
 70
     0
  9
$USERI2
 70
     1
  9
$USERI3
 70
     1
  9
$USERI4
 70
     0
  9
$USERI5
 70
     0
  9
$USERR1
 40
0.0
  9
$USERR2
 40
0.0
  9
$USERR3
 40
0.0
  9
$USERR4
 40
0.0
  9
$USERR5
 40
0.0
  9
$WORLDVIEW
 70
     1
  9
$SHADEDGE
 70
     3
  9
$SHADEDIF
 70
    70
  9
$TILEMODE
 70
     1
  9
$MAXACTVP
 70
    16
  9
$PLIMCHECK
 70
     0
  9
$PEXTMIN
 10
1.0000000000000000E+020
 20
1.0000000000000000E+020
 30
1.0000000000000000E+020
  9
$PEXTMAX
 10
-1.0000000000000000E+020
 20
-1.0000000000000000E+020
 30
-1.0000000000000000E+020
  9
$PLIMMIN
 10
0.0
 20
0.0
  9
$PLIMMAX
 10
12.0
 20
9.0
  9
$UNITMODE
 70
     0
  9
$VISRETAIN
 70
     0
  9
$PLINEGEN
 70
     0
  9
$PSLTSCALE
 70
     0
  0
ENDSEC
  0
SECTION
  2
TABLES
  0
TABLE
  2
VPORT
 70
     1
  0
VPORT
  2
*ACTIVE
 70
     0
 10
0.0
 20
0.0
 11
1.0
 21
1.0
 12
363.24786324786322
 22
200.0
 13
0.0
 23
0.0
 14
10.0
 24
10.0
 15
10.0
 25
10.0
 16
0.0
 26
0.0
 36
1.0
 17
0.0
 27
0.0
 37
0.0
 40
400.0
 41
1.816239316239316
 42
50.0
 43
0.0
 44
0.0
 50
0.0
 51
0.0
 71
     0
 72
   500
 73
     1
 74
     0
 75
     0
 76
     0
 77
     0
 78
     2
  0
ENDTAB
  0
TABLE
  2
LTYPE
 70
     4
  0
LTYPE
  2
CONTINUOUS
 70
     0
  3
Solid Line
 72
    65
 73
     0
 40
0.0
  0
LTYPE
  2
CENTER
 70
     0
  3
____ _ ____ _ ____ _ ____ _ ____ _ ____ _ ____
 72
    65
 73
     4
 40
2.0
 49
1.25
 49
-0.25
 49
0.25
 49
-0.25
  0
LTYPE
  2
HIDDEN
 70
     0
  3
_ _ _ _ _ _ _ _ _ _ _ _ _ _ _ _ _ _ _ _ _ _ _
 72
    65
 73
     2
 40
0.375
 49
0.25
 49
-0.125
  0
LTYPE
  2
PHANTOM2
 70
     0
  3
___ _ _ ___ _ _ ___ _ _ ___ _ _
 72
    65
 73
     6
 40
1.25
 49
0.625
 49
-0.125
 49
0.125
 49
-0.125
 49
0.125
 49
-0.125
  0
ENDTAB
  0
TABLE
  2
LAYER
 70
     4
  0
LAYER
  2
0
 70
     0
 62
     7
  6
CONTINUOUS
  0
LAYER
  2
1
 70
     0
 62
     1
  6
CENTER
  0
LAYER
  2
2
 70
     0
 62
     2
  6
HIDDEN
  0
LAYER
  2
DEFPOINTS
 70
     0
 62
     7
  6
CONTINUOUS
  0
ENDTAB
  0
TABLE
  2
STYLE
 70
     2
  0
STYLE
  2
STANDARD
 70
     0
 40
0.0
 41
1.0
 50
0.0
 71
     0
 42
0.2
  3
TXT
  4
BIGFONT
  0
STYLE
  2
STANDARD1
 70
     0
 40
0.0
 41
1.0
 50
0.0
 71
     0
 42
3.0
  3
txt
  4

  0
ENDTAB
  0
TABLE
  2
VIEW
 70
     1
  0
VIEW
  2
ALL
 70
     0
 40
270.0
 10
220.99159663865549
 20
135.0
 41
0.0
 11
0.0
 21
0.0
 31
1.0
 12
0.0
 22
0.0
 32
0.0
 42
0.0
 43
0.0
 44
0.0
 50
0.0
 71
     0
  0
ENDTAB
  0
TABLE
  2
UCS
 70
     0
  0
ENDTAB
  0
TABLE
  2
APPID
 70
     8
  0
APPID
  2
ACAD
 70
     0
  0
APPID
  2
ACAD_MLEADERVER
 70
     0
  0
APPID
  2
ACAD_EXEMPT_FROM_CAD_STANDARDS
 70
     0
  0
APPID
  2
ACAD_DSTYLE_DIMJAG
 70
     0
  0
APPID
  2
ACAD_DSTYLE_DIMTALN
 70
     0
  0
APPID
  2
ACAD_DSTYLE_DIMRADIAL_EXTENSION
 70
     0
  0
APPID
  2
ACAD_PSEXT
 70
     0
  0
APPID
  2
ACAD_NAV_VCDISPLAY
 70
     0
  0
ENDTAB
  0
TABLE
  2
DIMSTYLE
 70
     1
  0
DIMSTYLE
  2
STANDARD
 70
     0
  3

  4

  5

  6

  7

 40
1.0
 41
0.18
 42
0.0625
 43
0.38
 44
0.18
 45
0.0
 46
0.0
 47
0.0
 48
0.0
140
0.18
141
0.09
142
0.0
143
25.399999999999999
144
1.0
145
0.0
146
1.0
147
0.09
 71
     0
 72
     0
 73
     1
 74
     1
 75
     0
 76
     0
 77
     0
 78
     0
170
     0
171
     2
172
     0
173
     0
174
     0
175
     0
176
     0
177
     0
178
     0
  0
ENDTAB
  0
ENDSEC
  0
SECTION
  2
BLOCKS
  0
BLOCK
  8
0
  2
$MODEL_SPACE
 70
     0
 10
0.0
 20
0.0
 30
0.0
  3
$MODEL_SPACE
  1

  0
ENDBLK
  5
11B
  8
0
  0
BLOCK
 67
     1
  8
0
  2
$PAPER_SPACE
 70
     0
 10
0.0
 20
0.0
 30
0.0
  3
$PAPER_SPACE
  1

  0
ENDBLK
  5
119
 67
     1
  8
0
  0
ENDSEC
  0
SECTION
  2
ENTITIES
  0
TEXT
  5
A4AB
  8
0
 62
     3
 10
0.0
 20
0.0
 30
0.0
 40
10.0
  1
TWN80F-SUS
  7
STANDARD1
  0
LINE
  5
A5A7
  8
1
 10
229.75
 20
249.0
 30
0.0
 11
210.25
 21
249.0
 31
0.0
  0
LINE
  5
A5A8
  8
1
 10
220.0
 20
177.0
 30
0.0
 11
220.0
 21
263.0
 31
0.0
  0
LINE
  5
A5A9
  8
1
 10
263.0
 20
220.0
 30
0.0
 11
177.0
 21
220.0
 31
0.0
  0
CIRCLE
  5
A5AA
  8
0
 10
220.0
 20
249.0
 30
0.0
 40
7.7499999999999876
  0
LINE
  5
A5BD
  8
0
 10
233.75
 20
240.61463390076901
 30
0.0
 11
233.75
 21
199.38536609923119
 31
0.0
  0
POLYLINE
  5
A5BE
  8
0
 66
     1
 10
0.0
 20
0.0
 30
0.0
  0
VERTEX
  5
B92A
  8
0
 10
236.5973875542731
 20
242.0346440250942
 30
0.0
  0
VERTEX
  5
B92B
  8
0
 10
236.07235156375
 20
242.3069498342733
 30
0.0
  0
VERTEX
  5
B92C
  8
0
 10
235.4882944858557
 20
242.39197317530821
 30
0.0
  0
VERTEX
  5
B92D
  8
0
 10
234.90803271275331
 20
242.28089014803061
 30
0.0
  0
VERTEX
  5
B92E
  8
0
 10
234.3930539102831
 20
241.98317165022951
 30
0.0
  0
VERTEX
  5
B92F
  8
0
 10
234.0024055102524
 20
241.5277238594395
 30
0.0
  0
VERTEX
  5
B930
  8
0
 10
233.78465631841149
 20
240.96394952460699
 30
0.0
  0
VERTEX
  5
B931
  8
0
 10
233.75
 20
240.61463390076901
 30
0.0
  0
SEQEND
  5
B932
  8
0
  0
ARC
  5
A5BF
  8
0
 10
219.99999999999989
 20
220.0
 30
0.0
 40
27.586206896551762
 50
306.98854091732608
 51
53.011458092301638
  0
POLYLINE
  5
A5C0
  8
0
 66
     1
 10
0.0
 20
0.0
 30
0.0
  0
VERTEX
  5
B933
  8
0
 10
233.75
 20
199.38536609923119
 30
0.0
  0
VERTEX
  5
B934
  8
0
 10
233.85221889359789
 20
198.79123122160959
 30
0.0
  0
VERTEX
  5
B935
  8
0
 10
234.14639714307009
 20
198.26631231624529
 30
0.0
  0
VERTEX
  5
B936
  8
0
 10
234.60156005006289
 20
197.867929264293
 30
0.0
  0
VERTEX
  5
B937
  8
0
 10
235.16450806524409
 20
197.6450991820266
 30
0.0
  0
VERTEX
  5
B938
  8
0
 10
235.76659707960059
 20
197.62370234918191
 30
0.0
  0
VERTEX
  5
B939
  8
0
 10
236.33676865836671
 20
197.8023223277944
 30
0.0
  0
VERTEX
  5
B93A
  8
0
 10
236.5973871733967
 20
197.9653556880142
 30
0.0
  0
SEQEND
  5
B93B
  8
0
  0
ARC
  5
A5C1
  8
0
 10
219.99999999999989
 20
220.0
 30
0.0
 40
27.58620689655169
 50
126.9885409173209
 51
233.01146007305391
  0
POLYLINE
  5
A5C2
  8
0
 66
     1
 10
0.0
 20
0.0
 30
0.0
  0
VERTEX
  5
B93C
  8
0
 10
206.25
 20
240.61463390076889
 30
0.0
  0
VERTEX
  5
B93D
  8
0
 10
206.14778110640211
 20
241.20876877839049
 30
0.0
  0
VERTEX
  5
B93E
  8
0
 10
205.85360285692991
 20
241.73368768375479
 30
0.0
  0
VERTEX
  5
B93F
  8
0
 10
205.3984399499372
 20
242.132070735707
 30
0.0
  0
VERTEX
  5
B940
  8
0
 10
204.83549193475591
 20
242.35490081797329
 30
0.0
  0
VERTEX
  5
B941
  8
0
 10
204.2334029203995
 20
242.376297650818
 30
0.0
  0
VERTEX
  5
B942
  8
0
 10
203.66323134163329
 20
242.1976776722056
 30
0.0
  0
VERTEX
  5
B943
  8
0
 10
203.4026128266033
 20
242.0346443119858
 30
0.0
  0
SEQEND
  5
B944
  8
0
  0
LINE
  5
A5C3
  8
0
 10
206.25
 20
199.38536609923111
 30
0.0
 11
206.25
 21
240.61463390076889
 31
0.0
  0
POLYLINE
  5
A5C4
  8
0
 66
     1
 10
0.0
 20
0.0
 30
0.0
  0
VERTEX
  5
B945
  8
0
 10
203.40261320747979
 20
197.96535540112271
 30
0.0
  0
VERTEX
  5
B946
  8
0
 10
203.92764934775681
 20
197.69304987241151
 30
0.0
  0
VERTEX
  5
B947
  8
0
 10
204.51170647305131
 20
197.60802684599409
 30
0.0
  0
VERTEX
  5
B948
  8
0
 10
205.09196819074219
 20
197.71911018801461
 30
0.0
  0
VERTEX
  5
B949
  8
0
 10
205.60694683798479
 20
198.01682897019759
 30
0.0
  0
VERTEX
  5
B94A
  8
0
 10
205.9975949933195
 20
198.47227698180839
 30
0.0
  0
VERTEX
  5
B94B
  8
0
 10
206.21534387525989
 20
199.03605144183521
 30
0.0
  0
VERTEX
  5
B94C
  8
0
 10
206.25
 20
199.38536609923111
 30
0.0
  0
SEQEND
  5
B94D
  8
0
  0
CIRCLE
  5
A5C6
  8
0
 10
220.0
 20
220.0
 30
0.0
 40
40.0
  0
ARC
  5
A5CD
  8
0
 10
220.0
 20
220.0
 30
0.0
 40
33.972196240352318
 50
100.86788157685091
 51
79.132118423149066
  0
LINE
  5
A6B0
  8
2
 10
50.0
 20
223.99999999999989
 30
0.0
 11
67.0
 21
223.99999999999989
 31
0.0
  0
LINE
  5
A6B1
  8
2
 10
67.0
 20
215.99999999999989
 30
0.0
 11
50.0
 21
215.99999999999989
 31
0.0
  0
LINE
  5
A6C1
  8
2
 10
70.0
 20
209.74999999976711
 30
0.0
 11
70.0
 21
230.24999999976711
 31
0.0
  0
LINE
  5
A6D8
  8
1
 10
88.0
 20
219.99999999999989
 30
0.0
 11
47.0
 21
220.0
 31
0.0
  0
LINE
  5
A6D9
  8
1
 10
132.0
 20
248.99999999999989
 30
0.0
 11
70.0
 21
248.9999999999998
 31
0.0
  0
LINE
  5
A6DA
  8
0
 10
96.665321248268242
 20
242.80000000000001
 30
0.0
 11
85.310000000000002
 21
242.80000000000001
 31
0.0
  0
LINE
  5
A6DB
  8
0
 10
85.310000000000002
 20
255.1999999999999
 30
0.0
 11
96.665321248268242
 21
255.1999999999999
 31
0.0
  0
LINE
  5
A6DC
  8
0
 10
85.310000000000002
 20
255.1999999999999
 30
0.0
 11
85.310000000000002
 21
242.80000000000001
 31
0.0
  0
LINE
  5
A6DD
  8
0
 10
85.0
 20
254.88999999999999
 30
0.0
 11
85.310000000000002
 21
255.1999999999999
 31
0.0
  0
LINE
  5
A6DE
  8
0
 10
85.310000000000002
 20
242.80000000000001
 30
0.0
 11
85.0
 21
243.11000000000001
 31
0.0
  0
LINE
  5
A6DF
  8
0
 10
122.25
 20
241.25
 30
0.0
 11
99.350000000000023
 21
241.25
 31
0.0
  0
LINE
  5
A6E0
  8
0
 10
99.350000000000023
 20
256.74999999999989
 30
0.0
 11
122.25
 21
256.74999999999989
 31
0.0
  0
LINE
  5
A6E1
  8
0
 10
122.25
 20
256.74999999999989
 30
0.0
 11
122.25
 21
241.25
 31
0.0
  0
ARC
  5
A6E2
  8
0
 10
122.25
 20
248.99999999999989
 30
0.0
 40
7.749999999999992
 50
270.0
 51
89.999999146226358
  0
LINE
  5
A6E3
  8
0
 10
99.350000000000023
 20
256.74999999999989
 30
0.0
 11
99.350000000000023
 21
241.25
 31
0.0
  0
LINE
  5
A6E4
  8
0
 10
96.665321248268242
 20
255.1999999999999
 30
0.0
 11
96.665321248268242
 21
242.80000000000001
 31
0.0
  0
ARC
  5
A6E5
  8
0
 10
99.349999999999966
 20
244.34999999999999
 30
0.0
 40
3.0999999999999761
 50
210.00000000000011
 51
270.0
  0
ARC
  5
A6E6
  8
0
 10
99.349999999999966
 20
253.65000000000001
 30
0.0
 40
3.0999999999999739
 50
89.999999146226358
 51
149.99999999999989
  0
LINE
  5
A6E7
  8
0
 10
50.0
 20
210.99999999999989
 30
0.0
 11
50.0
 21
229.0
 31
0.0
  0
LINE
  5
A6E8
  8
0
 10
50.0
 20
229.0
 30
0.0
 11
50.199999999999989
 21
229.0
 31
0.0
  0
LINE
  5
A6E9
  8
0
 10
50.199999999999989
 20
210.99999999999989
 30
0.0
 11
50.0
 21
210.99999999999989
 31
0.0
  0
LINE
  5
A6EA
  8
0
 10
50.699999999999989
 20
232.49999999999989
 30
0.0
 11
54.25
 21
232.49999999999989
 31
0.0
  0
LINE
  5
A6EB
  8
0
 10
54.25
 20
207.49999999999989
 30
0.0
 11
50.699999999999989
 21
207.49999999999989
 31
0.0
  0
LINE
  5
A6EC
  8
0
 10
50.199999999999989
 20
208.0
 30
0.0
 11
50.199999999999989
 21
231.99999999999989
 31
0.0
  0
ARC
  5
A6EE
  8
0
 10
50.699999999999989
 20
231.99999999999989
 30
0.0
 40
0.5000000000000019
 50
90.0
 51
180.0
  0
ARC
  5
A6EF
  8
0
 10
50.699999999999989
 20
208.0
 30
0.0
 40
0.5000000000000018
 50
180.0
 51
270.0
  0
POLYLINE
  5
A6F0
  8
0
 66
     1
 10
0.0
 20
0.0
 30
0.0
  0
VERTEX
  5
B94E
  8
0
 10
64.641790303310586
 20
199.38536609923111
 30
0.0
  0
VERTEX
  5
B94F
  8
0
 10
62.670875731215062
 20
202.24655063298209
 30
0.0
  0
VERTEX
  5
B950
  8
0
 10
60.784927128942968
 20
205.16478681481601
 30
0.0
  0
VERTEX
  5
B951
  8
0
 10
59.027588730127661
 20
208.1595704924126
 30
0.0
  0
VERTEX
  5
B952
  8
0
 10
58.051709839451917
 20
210.01203043858001
 30
0.0
  0
VERTEX
  5
B953
  8
0
 10
57.164294116555759
 20
211.92050006766451
 30
0.0
  0
VERTEX
  5
B954
  8
0
 10
56.40591954086392
 20
213.8800624736312
 30
0.0
  0
VERTEX
  5
B955
  8
0
 10
55.817164091801033
 20
215.8858007504455
 30
0.0
  0
VERTEX
  5
B956
  8
0
 10
55.438605748791822
 20
217.93279799207249
 30
0.0
  0
VERTEX
  5
B957
  8
0
 10
55.319649532875069
 20
219.5325077896492
 30
0.0
  0
VERTEX
  5
B958
  8
0
 10
55.356879413857257
 20
221.14346700064041
 30
0.0
  0
VERTEX
  5
B959
  8
0
 10
55.542325101130238
 20
222.7452891051478
 30
0.0
  0
VERTEX
  5
B95A
  8
0
 10
55.868016304086041
 20
224.31758758327271
 30
0.0
  0
VERTEX
  5
B95B
  8
0
 10
56.424892999201063
 20
226.17656294797681
 30
0.0
  0
VERTEX
  5
B95C
  8
0
 10
57.123423193570261
 20
227.99182976372239
 30
0.0
  0
VERTEX
  5
B95D
  8
0
 10
57.936389106195627
 20
229.7649652742829
 30
0.0
  0
VERTEX
  5
B95E
  8
0
 10
58.836572956078953
 20
231.4975467234317
 30
0.0
  0
VERTEX
  5
B95F
  8
0
 10
59.796756962222332
 20
233.1911513549426
 30
0.0
  0
VERTEX
  5
B960
  8
0
 10
61.33873059059033
 20
235.71197180566671
 30
0.0
  0
VERTEX
  5
B961
  8
0
 10
62.961582059470693
 20
238.18274794097479
 30
0.0
  0
VERTEX
  5
B962
  8
0
 10
64.641790303310586
 20
240.61463390076901
 30
0.0
  0
SEQEND
  5
B963
  8
0
  0
LINE
  5
A6F1
  8
0
 10
54.25
 20
207.49999999999989
 30
0.0
 11
54.25
 21
232.49999999999989
 31
0.0
  0
LINE
  5
A6F2
  8
0
 10
54.25
 20
232.49999999999989
 30
0.0
 11
66.148035045339441
 21
246.55940649096539
 31
0.0
  0
LINE
  5
A6F3
  8
0
 10
66.148035045339441
 20
193.4405935090345
 30
0.0
 11
54.25
 21
207.49999999999989
 31
0.0
  0
POLYLINE
  5
A6F4
  8
0
 66
     1
 10
0.0
 20
0.0
 30
0.0
  0
VERTEX
  5
B964
  8
0
 10
66.148035045339441
 20
197.84266895354619
 30
0.0
  0
VERTEX
  5
B965
  8
0
 10
65.871969779396224
 20
198.0456339428759
 30
0.0
  0
VERTEX
  5
B966
  8
0
 10
65.57945857111639
 20
198.30142924555659
 30
0.0
  0
VERTEX
  5
B967
  8
0
 10
65.269416692320533
 20
198.61338790576849
 30
0.0
  0
VERTEX
  5
B968
  8
0
 10
64.956363804358716
 20
198.9719133741369
 30
0.0
  0
VERTEX
  5
B969
  8
0
 10
64.641790303310586
 20
199.38536609923111
 30
0.0
  0
SEQEND
  5
B96A
  8
0
  0
POLYLINE
  5
A6F6
  8
0
 66
     1
 10
0.0
 20
0.0
 30
0.0
  0
VERTEX
  5
B96B
  8
0
 10
66.606926687478847
 20
197.6075883528006
 30
0.0
  0
VERTEX
  5
B96C
  8
0
 10
66.419564124447049
 20
197.6733324988395
 30
0.0
  0
VERTEX
  5
B96D
  8
0
 10
66.148035045339441
 20
197.84266895354619
 30
0.0
  0
SEQEND
  5
B96E
  8
0
  0
POLYLINE
  5
A6F7
  8
0
 66
     1
 10
0.0
 20
0.0
 30
0.0
  0
VERTEX
  5
B96F
  8
0
 10
64.641790303310586
 20
240.61463390076901
 30
0.0
  0
VERTEX
  5
B970
  8
0
 10
64.909146481879759
 20
240.96980947308211
 30
0.0
  0
VERTEX
  5
B971
  8
0
 10
65.198560927958454
 20
241.30945538237719
 30
0.0
  0
VERTEX
  5
B972
  8
0
 10
65.493938773909463
 20
241.61664692621289
 30
0.0
  0
VERTEX
  5
B973
  8
0
 10
65.795528531947866
 20
241.8912890138983
 30
0.0
  0
VERTEX
  5
B974
  8
0
 10
66.148035045339441
 20
242.15733104645361
 30
0.0
  0
SEQEND
  5
B975
  8
0
  0
POLYLINE
  5
A6F9
  8
0
 66
     1
 10
0.0
 20
0.0
 30
0.0
  0
VERTEX
  5
B976
  8
0
 10
66.606433905879484
 20
242.3924105228345
 30
0.0
  0
VERTEX
  5
B977
  8
0
 10
66.648421978763565
 20
242.38550651779499
 30
0.0
  0
VERTEX
  5
B978
  8
0
 10
66.738009938615789
 20
242.25121368888421
 30
0.0
  0
VERTEX
  5
B979
  8
0
 10
66.757555978157257
 20
242.03464402509411
 30
0.0
  0
SEQEND
  5
B97A
  8
0
  0
POLYLINE
  5
A6FA
  8
0
 66
     1
 10
0.0
 20
0.0
 30
0.0
  0
VERTEX
  5
B97B
  8
0
 10
66.757555978157257
 20
197.9653556880142
 30
0.0
  0
VERTEX
  5
B97C
  8
0
 10
66.724668295406204
 20
197.70377947578029
 30
0.0
  0
VERTEX
  5
B97D
  8
0
 10
66.617386173448892
 20
197.60796202531131
 30
0.0
  0
VERTEX
  5
B97E
  8
0
 10
66.606926687478847
 20
197.6075883528006
 30
0.0
  0
SEQEND
  5
B97F
  8
0
  0
LINE
  5
A6FB
  8
0
 10
66.757555978157257
 20
242.03464402509411
 30
0.0
 11
66.757555978157257
 21
197.9653556880142
 31
0.0
  0
POLYLINE
  5
A6FC
  8
0
 66
     1
 10
0.0
 20
0.0
 30
0.0
  0
VERTEX
  5
B980
  8
0
 10
66.148035045339441
 20
242.15733104645361
 30
0.0
  0
VERTEX
  5
B981
  8
0
 10
66.454511867357894
 20
242.34496800274309
 30
0.0
  0
VERTEX
  5
B982
  8
0
 10
66.606433905879484
 20
242.3924105228345
 30
0.0
  0
SEQEND
  5
B983
  8
0
  0
ARC
  5
A6FE
  8
0
 10
63.400000000000027
 20
248.88498241739461
 30
0.0
 40
3.5999999999999912
 50
319.75980842790187
 51
0.0
  0
ARC
  5
A6FF
  8
0
 10
63.400000000000027
 20
191.1150175826055
 30
0.0
 40
3.5999999999999912
 50
0.0
 51
40.240191572098098
  0
LINE
  5
A701
  8
0
 10
85.0
 20
182.98888373294881
 30
0.0
 11
85.0
 21
257.01111626705108
 31
0.0
  0
ARC
  5
A702
  8
0
 10
83.199999999999974
 20
257.01111626705108
 30
0.0
 40
1.8000000000000109
 50
0.0
 51
74.999999999999616
  0
ARC
  5
A703
  8
0
 10
83.199999999999974
 20
182.98888373294881
 30
0.0
 40
1.8000000000000109
 50
285.0000000000004
 51
0.0
  0
LINE
  5
A705
  8
0
 10
83.665874281184529
 20
181.25021724562851
 30
0.0
 11
81.288997855272214
 21
180.6133351267967
 31
0.0
  0
LINE
  5
A706
  8
0
 10
81.288997855272214
 20
259.38666487320307
 30
0.0
 11
83.665874281184529
 21
258.74978275437149
 31
0.0
  0
LINE
  5
A707
  8
0
 10
73.0
 20
259.99999999999989
 30
0.0
 11
76.630255043426871
 21
259.99999999999989
 31
0.0
  0
LINE
  5
A708
  8
0
 10
76.630255043426871
 20
179.99999999999989
 30
0.0
 11
73.0
 21
179.99999999999989
 31
0.0
  0
LINE
  5
A709
  8
0
 10
67.0
 20
185.99999999999989
 30
0.0
 11
67.0
 21
253.99999999999989
 31
0.0
  0
ARC
  5
A70B
  8
0
 10
73.0
 20
253.99999999999989
 30
0.0
 40
6.0000000000000027
 50
90.0
 51
180.0
  0
ARC
  5
A70C
  8
0
 10
73.0
 20
185.99999999999989
 30
0.0
 40
6.0
 50
180.0
 51
270.0
  0
ARC
  5
A70F
  8
0
 10
76.630255043426757
 20
241.99999999999881
 30
0.0
 40
18.000000000001119
 50
75.000000000001975
 51
90.0
  0
ARC
  5
A710
  8
0
 10
76.630255043426644
 20
198.00000000000179
 30
0.0
 40
18.00000000000184
 50
270.0000008537736
 51
284.99999999999801
  0
LINE
  5
A80F
  8
2
 10
224.0
 20
50.0
 30
0.0
 11
224.0
 21
66.999999999999943
 31
0.0
  0
LINE
  5
A810
  8
2
 10
216.0
 20
66.999999999999943
 30
0.0
 11
216.0
 21
50.0
 31
0.0
  0
LINE
  5
A843
  8
1
 10
225.0
 20
77.567567567567551
 30
0.0
 11
215.0
 21
77.567567567567551
 31
0.0
  0
LINE
  5
A844
  8
1
 10
220.0
 20
133.0
 30
0.0
 11
220.0
 21
47.0
 31
0.0
  0
LINE
  5
A845
  8
0
 10
213.80000000000001
 20
96.665321248268242
 30
0.0
 11
213.80000000000001
 21
85.310000000000002
 31
0.0
  0
LINE
  5
A846
  8
0
 10
226.19999999999999
 20
85.310000000000002
 30
0.0
 11
226.19999999999999
 21
96.665321248268242
 31
0.0
  0
LINE
  5
A847
  8
0
 10
226.19999999999999
 20
85.310000000000002
 30
0.0
 11
213.80000000000001
 21
85.310000000000002
 31
0.0
  0
LINE
  5
A848
  8
0
 10
225.88999999999999
 20
85.0
 30
0.0
 11
226.19999999999999
 21
85.310000000000002
 31
0.0
  0
LINE
  5
A849
  8
0
 10
213.80000000000001
 20
85.310000000000002
 30
0.0
 11
214.11000000000001
 21
85.0
 31
0.0
  0
ARC
  5
A84A
  8
0
 10
220.0
 20
122.25
 30
0.0
 40
7.7499999999999956
 50
0.0
 51
180.0
  0
LINE
  5
A84B
  8
0
 10
227.75
 20
122.25
 30
0.0
 11
212.25
 21
122.25
 31
0.0
  0
LINE
  5
A84C
  8
0
 10
212.25
 20
122.25
 30
0.0
 11
212.25
 21
99.349999999999966
 31
0.0
  0
LINE
  5
A84D
  8
0
 10
227.75
 20
99.349999999999966
 30
0.0
 11
227.75
 21
122.25
 31
0.0
  0
LINE
  5
A84E
  8
0
 10
227.75
 20
99.349999999999966
 30
0.0
 11
212.25
 21
99.349999999999966
 31
0.0
  0
LINE
  5
A84F
  8
0
 10
226.19999999999999
 20
96.665321248268242
 30
0.0
 11
213.80000000000001
 21
96.665321248268242
 31
0.0
  0
ARC
  5
A850
  8
0
 10
215.34999999999999
 20
99.349999999999966
 30
0.0
 40
3.0999999999999579
 50
180.0
 51
239.99999999999909
  0
ARC
  5
A851
  8
0
 10
224.65000000000009
 20
99.349999999999966
 30
0.0
 40
3.0999999999999819
 50
300.0
 51
0.0
  0
LINE
  5
A852
  8
0
 10
229.0
 20
50.0
 30
0.0
 11
229.0
 21
50.199999999999989
 31
0.0
  0
LINE
  5
A853
  8
0
 10
211.0
 20
50.199999999999989
 30
0.0
 11
211.0
 21
50.0
 31
0.0
  0
LINE
  5
A854
  8
0
 10
211.0
 20
50.0
 30
0.0
 11
229.0
 21
50.0
 31
0.0
  0
LINE
  5
A855
  8
0
 10
208.00000000000179
 20
50.199999999999989
 30
0.0
 11
232.0
 21
50.199999999999989
 31
0.0
  0
ARC
  5
A856
  8
0
 10
232.0
 20
50.699999999999989
 30
0.0
 40
0.5000000000000019
 50
270.0
 51
0.0
  0
ARC
  5
A857
  8
0
 10
208.0
 20
50.699999999999989
 30
0.0
 40
0.5000000000000018
 50
180.0
 51
270.0
  0
LINE
  5
A858
  8
0
 10
232.5
 20
50.699999999999989
 30
0.0
 11
232.5
 21
54.25
 31
0.0
  0
LINE
  5
A859
  8
0
 10
207.5
 20
54.25
 30
0.0
 11
207.5
 21
50.699999999999989
 31
0.0
  0
POLYLINE
  5
A85B
  8
0
 66
     1
 10
0.0
 20
0.0
 30
0.0
  0
VERTEX
  5
B984
  8
0
 10
206.25
 20
64.641790303310586
 30
0.0
  0
VERTEX
  5
B985
  8
0
 10
206.21415911545131
 20
64.909146481879702
 30
0.0
  0
VERTEX
  5
B986
  8
0
 10
206.1085953263327
 20
65.198560927958454
 30
0.0
  0
VERTEX
  5
B987
  8
0
 10
205.94071250955861
 20
65.493938773909406
 30
0.0
  0
VERTEX
  5
B988
  8
0
 10
205.70941483021869
 20
65.795528531947866
 30
0.0
  0
VERTEX
  5
B989
  8
0
 10
205.3557262368461
 20
66.148035045339441
 30
0.0
  0
SEQEND
  5
B98A
  8
0
  0
LINE
  5
A85C
  8
0
 10
233.75
 20
64.641790303310515
 30
0.0
 11
233.75
 21
55.307835821841479
 31
0.0
  0
POLYLINE
  5
A85D
  8
0
 66
     1
 10
0.0
 20
0.0
 30
0.0
  0
VERTEX
  5
B98B
  8
0
 10
234.6442737631539
 20
66.148035045339441
 30
0.0
  0
VERTEX
  5
B98C
  8
0
 10
234.35918393200049
 20
65.871969779396181
 30
0.0
  0
VERTEX
  5
B98D
  8
0
 10
234.1186735501187
 20
65.579458571116334
 30
0.0
  0
VERTEX
  5
B98E
  8
0
 10
233.92635856471119
 20
65.269416692320533
 30
0.0
  0
VERTEX
  5
B98F
  8
0
 10
233.7987460628365
 20
64.956363804358659
 30
0.0
  0
VERTEX
  5
B990
  8
0
 10
233.75
 20
64.641790303310515
 30
0.0
  0
SEQEND
  5
B991
  8
0
  0
LINE
  5
A85E
  8
0
 10
232.5
 20
54.25
 30
0.0
 11
233.7582308608475
 21
55.314801340448518
 31
0.0
  0
LINE
  5
A85F
  8
0
 10
206.24223217988759
 20
55.314409483587667
 30
0.0
 11
207.5
 21
54.25
 31
0.0
  0
LINE
  5
A860
  8
0
 10
206.25
 20
55.307835822365803
 30
0.0
 11
206.25
 21
64.641790303310586
 31
0.0
  0
LINE
  5
A861
  8
0
 10
207.5
 20
54.25
 30
0.0
 11
232.5
 21
54.25
 31
0.0
  0
POLYLINE
  5
A862
  8
0
 66
     1
 10
0.0
 20
0.0
 30
0.0
  0
VERTEX
  5
B992
  8
0
 10
236.5973871733967
 20
66.757555978157257
 30
0.0
  0
VERTEX
  5
B993
  8
0
 10
236.1046315330677
 20
66.724668295406161
 30
0.0
  0
VERTEX
  5
B994
  8
0
 10
235.56422754011049
 20
66.617386173448892
 30
0.0
  0
VERTEX
  5
B995
  8
0
 10
235.0487842722988
 20
66.419564124447049
 30
0.0
  0
VERTEX
  5
B996
  8
0
 10
234.6442737631539
 20
66.148035045339441
 30
0.0
  0
SEQEND
  5
B997
  8
0
  0
LINE
  5
A863
  8
0
 10
203.40261320747979
 20
66.757555978157257
 30
0.0
 11
192.4137931034482
 21
66.757555978157257
 31
0.0
  0
POLYLINE
  5
A864
  8
0
 66
     1
 10
0.0
 20
0.0
 30
0.0
  0
VERTEX
  5
B998
  8
0
 10
205.3557262368461
 20
66.148035045339441
 30
0.0
  0
VERTEX
  5
B999
  8
0
 10
204.8801900183843
 20
66.454511867358178
 30
0.0
  0
VERTEX
  5
B99A
  8
0
 10
204.31568468222719
 20
66.648421978763665
 30
0.0
  0
VERTEX
  5
B99B
  8
0
 10
203.77788770320859
 20
66.738009938615846
 30
0.0
  0
VERTEX
  5
B99C
  8
0
 10
203.40261320747979
 20
66.757555978157257
 30
0.0
  0
SEQEND
  5
B99D
  8
0
  0
ARC
  5
A866
  8
0
 10
248.8849824173945
 20
63.399999999999977
 30
0.0
 40
3.6000000000000179
 50
90.0
 51
111.1475519675287
  0
ARC
  5
A867
  8
0
 10
191.1150175826055
 20
63.400000000000091
 30
0.0
 40
3.5999999999999082
 50
68.852448032471287
 51
90.0
  0
LINE
  5
A868
  8
0
 10
247.58620689655169
 20
66.7575559781572
 30
0.0
 11
236.5973871733967
 21
66.757555978157257
 31
0.0
  0
LINE
  5
A869
  8
0
 10
182.98888373333881
 20
85.0
 30
0.0
 11
257.01111626705108
 21
85.0
 31
0.0
  0
ARC
  5
A86A
  8
0
 10
257.01111626705108
 20
83.199999999999974
 30
0.0
 40
1.8000000000000109
 50
15.000000000001201
 51
90.0
  0
ARC
  5
A86B
  8
0
 10
182.98888373294881
 20
83.199999999999974
 30
0.0
 40
1.8000000000000109
 50
90.0
 51
164.99999999999881
  0
LINE
  5
A86C
  8
0
 10
181.25021724562851
 20
83.665874281184529
 30
0.0
 11
180.6133351267967
 21
81.288997855272143
 31
0.0
  0
LINE
  5
A86D
  8
0
 10
259.38666487320319
 20
81.288997855272143
 30
0.0
 11
258.74978275437138
 21
83.665874281184529
 31
0.0
  0
LINE
  5
A86F
  8
0
 10
260.0
 20
73.0
 30
0.0
 11
260.0
 21
76.630255043426871
 31
0.0
  0
LINE
  5
A870
  8
0
 10
180.0
 20
76.630255043426871
 30
0.0
 11
180.0
 21
73.0
 31
0.0
  0
LINE
  5
A871
  8
0
 10
186.0000000004656
 20
67.0
 30
0.0
 11
254.0
 21
67.0
 31
0.0
  0
ARC
  5
A872
  8
0
 10
254.0
 20
73.0
 30
0.0
 40
6.0000000000000027
 50
270.0
 51
0.0
  0
ARC
  5
A873
  8
0
 10
186.0
 20
73.0
 30
0.0
 40
6.0
 50
180.0
 51
270.0
  0
ARC
  5
A875
  8
0
 10
241.99999999999889
 20
76.6302550434267
 30
0.0
 40
18.000000000001119
 50
0.0
 51
14.999999999997829
  0
ARC
  5
A876
  8
0
 10
198.00000000000179
 20
76.630255043426644
 30
0.0
 40
18.00000000000184
 50
165.0000000000021
 51
179.99999914622629
  0
LINE
  5
AD46
  8
2
 10
229.0
 20
50.199999999999989
 30
0.0
 11
229.0
 21
65.999999999767155
 31
0.0
  0
LINE
  5
AD47
  8
2
 10
211.0
 20
65.999999999767155
 30
0.0
 11
211.0
 21
50.199999999999989
 31
0.0
  0
LINE
  5
AD49
  8
2
 10
228.0000000002328
 20
67.0
 30
0.0
 11
228.0000000002328
 21
65.999999999767155
 31
0.0
  0
LINE
  5
AD4A
  8
2
 10
212.0000000002328
 20
67.0
 30
0.0
 11
212.0000000002328
 21
65.999999999767155
 31
0.0
  0
LINE
  5
AD4D
  8
2
 10
230.2500000002328
 20
70.0
 30
0.0
 11
230.2500000002328
 21
67.0
 31
0.0
  0
LINE
  5
AD4E
  8
2
 10
209.7500000002328
 20
70.0
 30
0.0
 11
209.7500000002328
 21
67.0
 31
0.0
  0
LINE
  5
AD52
  8
2
 10
209.7500000002328
 20
70.000000000000057
 30
0.0
 11
230.2500000002328
 21
70.000000000000057
 31
0.0
  0
LINE
  5
AD65
  8
2
 10
211.0
 20
65.999999999767155
 30
0.0
 11
212.0000000002328
 21
65.999999999767155
 31
0.0
  0
LINE
  5
AD66
  8
2
 10
228.0000000002328
 20
65.999999999767155
 30
0.0
 11
229.0
 21
65.999999999767155
 31
0.0
  0
LINE
  5
AEB8
  8
2
 10
50.199999999999989
 20
210.99999999999989
 30
0.0
 11
65.999999999767155
 21
210.99999999999989
 31
0.0
  0
LINE
  5
AEB9
  8
2
 10
65.999999999767155
 20
229.0
 30
0.0
 11
50.199999999999989
 21
229.0
 31
0.0
  0
LINE
  5
AEBA
  8
2
 10
67.0
 20
211.99999999976711
 30
0.0
 11
65.999999999767155
 21
211.99999999976711
 31
0.0
  0
LINE
  5
AEBB
  8
2
 10
67.0
 20
227.99999999976711
 30
0.0
 11
65.999999999767155
 21
227.99999999976711
 31
0.0
  0
LINE
  5
AEBC
  8
2
 10
70.0
 20
209.74999999976711
 30
0.0
 11
67.0
 21
209.74999999976711
 31
0.0
  0
LINE
  5
AEBD
  8
2
 10
70.0
 20
230.24999999976711
 30
0.0
 11
67.0
 21
230.24999999976711
 31
0.0
  0
LINE
  5
AEBE
  8
2
 10
65.999999999767155
 20
229.0
 30
0.0
 11
65.999999999767155
 21
227.99999999976711
 31
0.0
  0
LINE
  5
AEBF
  8
2
 10
65.999999999767155
 20
211.99999999976711
 30
0.0
 11
65.999999999767155
 21
210.99999999999989
 31
0.0
  0
CIRCLE
  5
AF07
  8
0
 10
220.0
 20
220.0
 30
0.0
 40
10.25
  0
LINE
  5
AFB0
  8
1
 10
77.567567567567551
 20
243.9999999999998
 30
0.0
 11
77.567567567567551
 21
253.99999999999989
 31
0.0
  0
LINE
  5
AFB3
  8
1
 10
390.25
 20
249.0
 30
0.0
 11
409.75
 21
249.0
 31
0.0
  0
LINE
  5
AFB4
  8
1
 10
400.0
 20
177.0
 30
0.0
 11
400.0
 21
263.0
 31
0.0
  0
LINE
  5
AFB5
  8
1
 10
357.0
 20
220.0
 30
0.0
 11
443.0
 21
220.0
 31
0.0
  0
LINE
  5
AFB7
  8
0
 10
386.25
 20
240.61463390076901
 30
0.0
 11
386.25
 21
199.38536609923119
 31
0.0
  0
POLYLINE
  5
AFB8
  8
0
 66
     1
 10
0.0
 20
0.0
 30
0.0
  0
VERTEX
  5
B99E
  8
0
 10
383.4026124457269
 20
242.0346440250942
 30
0.0
  0
VERTEX
  5
B99F
  8
0
 10
383.92764843625002
 20
242.3069498342733
 30
0.0
  0
VERTEX
  5
B9A0
  8
0
 10
384.5117055141443
 20
242.39197317530821
 30
0.0
  0
VERTEX
  5
B9A1
  8
0
 10
385.09196728724669
 20
242.28089014803061
 30
0.0
  0
VERTEX
  5
B9A2
  8
0
 10
385.60694608971693
 20
241.98317165022951
 30
0.0
  0
VERTEX
  5
B9A3
  8
0
 10
385.9975944897476
 20
241.5277238594395
 30
0.0
  0
VERTEX
  5
B9A4
  8
0
 10
386.21534368158848
 20
240.96394952460699
 30
0.0
  0
VERTEX
  5
B9A5
  8
0
 10
386.25
 20
240.61463390076901
 30
0.0
  0
SEQEND
  5
B9A6
  8
0
  0
ARC
  5
AFB9
  8
0
 10
400.0
 20
220.0
 30
0.0
 40
27.586206896551762
 50
126.9885419076987
 51
233.0114590826735
  0
POLYLINE
  5
AFBA
  8
0
 66
     1
 10
0.0
 20
0.0
 30
0.0
  0
VERTEX
  5
B9A7
  8
0
 10
386.25
 20
199.38536609923119
 30
0.0
  0
VERTEX
  5
B9A8
  8
0
 10
386.14778110640208
 20
198.79123122160959
 30
0.0
  0
VERTEX
  5
B9A9
  8
0
 10
385.85360285692991
 20
198.26631231624529
 30
0.0
  0
VERTEX
  5
B9AA
  8
0
 10
385.39843994993709
 20
197.867929264293
 30
0.0
  0
VERTEX
  5
B9AB
  8
0
 10
384.83549193475591
 20
197.6450991820266
 30
0.0
  0
VERTEX
  5
B9AC
  8
0
 10
384.23340292039939
 20
197.62370234918191
 30
0.0
  0
VERTEX
  5
B9AD
  8
0
 10
383.66323134163332
 20
197.8023223277944
 30
0.0
  0
VERTEX
  5
B9AE
  8
0
 10
383.40261282660327
 20
197.9653556880142
 30
0.0
  0
SEQEND
  5
B9AF
  8
0
  0
ARC
  5
AFBB
  8
0
 10
400.0
 20
220.0
 30
0.0
 40
27.58620689655169
 50
306.98853992694632
 51
53.011459082681043
  0
POLYLINE
  5
AFBC
  8
0
 66
     1
 10
0.0
 20
0.0
 30
0.0
  0
VERTEX
  5
B9B0
  8
0
 10
413.75
 20
240.61463390076889
 30
0.0
  0
VERTEX
  5
B9B1
  8
0
 10
413.85221889359781
 20
241.20876877839049
 30
0.0
  0
VERTEX
  5
B9B2
  8
0
 10
414.14639714307009
 20
241.73368768375479
 30
0.0
  0
VERTEX
  5
B9B3
  8
0
 10
414.60156005006291
 20
242.132070735707
 30
0.0
  0
VERTEX
  5
B9B4
  8
0
 10
415.16450806524409
 20
242.35490081797329
 30
0.0
  0
VERTEX
  5
B9B5
  8
0
 10
415.7665970796005
 20
242.376297650818
 30
0.0
  0
VERTEX
  5
B9B6
  8
0
 10
416.33676865836668
 20
242.1976776722056
 30
0.0
  0
VERTEX
  5
B9B7
  8
0
 10
416.59738717339661
 20
242.0346443119858
 30
0.0
  0
SEQEND
  5
B9B8
  8
0
  0
LINE
  5
AFBD
  8
0
 10
413.75
 20
199.38536609923111
 30
0.0
 11
413.75
 21
240.61463390076889
 31
0.0
  0
POLYLINE
  5
AFBE
  8
0
 66
     1
 10
0.0
 20
0.0
 30
0.0
  0
VERTEX
  5
B9B9
  8
0
 10
416.59738679252018
 20
197.96535540112271
 30
0.0
  0
VERTEX
  5
B9BA
  8
0
 10
416.07235065224319
 20
197.69304987241151
 30
0.0
  0
VERTEX
  5
B9BB
  8
0
 10
415.48829352694872
 20
197.60802684599409
 30
0.0
  0
VERTEX
  5
B9BC
  8
0
 10
414.90803180925769
 20
197.71911018801461
 30
0.0
  0
VERTEX
  5
B9BD
  8
0
 10
414.39305316201518
 20
198.01682897019759
 30
0.0
  0
VERTEX
  5
B9BE
  8
0
 10
414.00240500668048
 20
198.47227698180839
 30
0.0
  0
VERTEX
  5
B9BF
  8
0
 10
413.78465612474008
 20
199.03605144183521
 30
0.0
  0
VERTEX
  5
B9C0
  8
0
 10
413.75
 20
199.38536609923111
 30
0.0
  0
SEQEND
  5
B9C1
  8
0
  0
CIRCLE
  5
AFBF
  8
0
 10
400.0
 20
220.0
 30
0.0
 40
40.0
  0
ARC
  5
AFC0
  8
0
 10
400.0
 20
220.0
 30
0.0
 40
33.972196240352318
 50
101.459258511592
 51
78.540741488407946
  0
LINE
  5
AFC1
  8
2
 10
569.99999999999989
 20
223.9999999999998
 30
0.0
 11
553.0
 21
223.99999999999989
 31
0.0
  0
LINE
  5
AFC2
  8
2
 10
552.99999999999989
 20
215.99999999999989
 30
0.0
 11
569.99999999999989
 21
215.99999999999989
 31
0.0
  0
LINE
  5
AFC5
  8
2
 10
549.99999999999989
 20
209.74999999976711
 30
0.0
 11
550.0
 21
230.24999999976711
 31
0.0
  0
LINE
  5
AFD1
  8
1
 10
532.0
 20
219.99999999999989
 30
0.0
 11
573.0
 21
220.0
 31
0.0
  0
LINE
  5
AFD9
  8
0
 10
534.68243243243217
 20
227.2175675675673
 30
0.0
 11
534.68243243243217
 21
204.31756756756729
 31
0.0
  0
LINE
  5
AFDA
  8
0
 10
534.68243243243217
 20
204.31756756756729
 30
0.0
 11
535.0
 21
204.31756756756729
 31
0.0
  0
ARC
  5
AFDB
  8
0
 10
542.43243243243228
 20
204.31756756756729
 30
0.0
 40
7.749999999999992
 50
180.0000008537736
 51
196.4588355538157
  0
LINE
  5
AFDC
  8
0
 10
534.68243243243217
 20
227.2175675675673
 30
0.0
 11
535.0
 21
227.2175675675673
 31
0.0
  0
ARC
  5
AFDF
  8
0
 10
537.78243243243207
 20
227.2175675675673
 30
0.0
 40
3.0999999999999739
 50
153.83902129672191
 51
180.0000008537736
  0
LINE
  5
AFE0
  8
0
 10
570.0
 20
210.99999999999989
 30
0.0
 11
570.0
 21
229.0
 31
0.0
  0
LINE
  5
AFE1
  8
0
 10
570.0
 20
229.0
 30
0.0
 11
569.79999999999995
 21
229.0
 31
0.0
  0
LINE
  5
AFE2
  8
0
 10
569.79999999999995
 20
210.99999999999989
 30
0.0
 11
570.0
 21
210.99999999999989
 31
0.0
  0
LINE
  5
AFE3
  8
0
 10
569.29999999999995
 20
232.49999999999989
 30
0.0
 11
565.74999999999989
 21
232.49999999999989
 31
0.0
  0
LINE
  5
AFE4
  8
0
 10
565.74999999999989
 20
207.49999999999989
 30
0.0
 11
569.29999999999995
 21
207.49999999999989
 31
0.0
  0
LINE
  5
AFE5
  8
0
 10
569.79999999999995
 20
208.0
 30
0.0
 11
569.79999999999995
 21
231.99999999999989
 31
0.0
  0
ARC
  5
AFE6
  8
0
 10
569.29999999999995
 20
231.99999999999989
 30
0.0
 40
0.5000000000000019
 50
0.0
 51
90.0
  0
ARC
  5
AFE7
  8
0
 10
569.29999999999995
 20
208.0
 30
0.0
 40
0.5000000000000018
 50
270.0
 51
0.0
  0
POLYLINE
  5
AFE8
  8
0
 66
     1
 10
0.0
 20
0.0
 30
0.0
  0
VERTEX
  5
B9C2
  8
0
 10
555.35820969668941
 20
199.38536609923111
 30
0.0
  0
VERTEX
  5
B9C3
  8
0
 10
557.32912426878477
 20
202.24655063298209
 30
0.0
  0
VERTEX
  5
B9C4
  8
0
 10
559.21507287105703
 20
205.16478681481601
 30
0.0
  0
VERTEX
  5
B9C5
  8
0
 10
560.97241126987228
 20
208.1595704924126
 30
0.0
  0
VERTEX
  5
B9C6
  8
0
 10
561.94829016054803
 20
210.01203043858001
 30
0.0
  0
VERTEX
  5
B9C7
  8
0
 10
562.83570588344423
 20
211.92050006766451
 30
0.0
  0
VERTEX
  5
B9C8
  8
0
 10
563.59408045913608
 20
213.8800624736312
 30
0.0
  0
VERTEX
  5
B9C9
  8
0
 10
564.18283590819897
 20
215.8858007504455
 30
0.0
  0
VERTEX
  5
B9CA
  8
0
 10
564.56139425120807
 20
217.93279799207249
 30
0.0
  0
VERTEX
  5
B9CB
  8
0
 10
564.68035046712487
 20
219.5325077896492
 30
0.0
  0
VERTEX
  5
B9CC
  8
0
 10
564.64312058614269
 20
221.14346700064041
 30
0.0
  0
VERTEX
  5
B9CD
  8
0
 10
564.45767489886975
 20
222.7452891051478
 30
0.0
  0
VERTEX
  5
B9CE
  8
0
 10
564.13198369591385
 20
224.31758758327271
 30
0.0
  0
VERTEX
  5
B9CF
  8
0
 10
563.57510700079877
 20
226.17656294797681
 30
0.0
  0
VERTEX
  5
B9D0
  8
0
 10
562.87657680642974
 20
227.99182976372239
 30
0.0
  0
VERTEX
  5
B9D1
  8
0
 10
562.06361089380425
 20
229.7649652742829
 30
0.0
  0
VERTEX
  5
B9D2
  8
0
 10
561.16342704392105
 20
231.4975467234317
 30
0.0
  0
VERTEX
  5
B9D3
  8
0
 10
560.20324303777761
 20
233.1911513549426
 30
0.0
  0
VERTEX
  5
B9D4
  8
0
 10
558.66126940940956
 20
235.71197180566671
 30
0.0
  0
VERTEX
  5
B9D5
  8
0
 10
557.03841794052926
 20
238.18274794097479
 30
0.0
  0
VERTEX
  5
B9D6
  8
0
 10
555.35820969668941
 20
240.61463390076901
 30
0.0
  0
SEQEND
  5
B9D7
  8
0
  0
LINE
  5
AFE9
  8
0
 10
565.74999999999989
 20
207.49999999999989
 30
0.0
 11
565.74999999999989
 21
232.49999999999989
 31
0.0
  0
LINE
  5
AFEA
  8
0
 10
565.74999999999989
 20
232.49999999999989
 30
0.0
 11
553.85196495466039
 21
246.55940649096539
 31
0.0
  0
LINE
  5
AFEB
  8
0
 10
553.85196495466039
 20
193.4405935090345
 30
0.0
 11
565.74999999999989
 21
207.49999999999989
 31
0.0
  0
POLYLINE
  5
AFEC
  8
0
 66
     1
 10
0.0
 20
0.0
 30
0.0
  0
VERTEX
  5
B9D8
  8
0
 10
553.85196495466039
 20
197.84266895354619
 30
0.0
  0
VERTEX
  5
B9D9
  8
0
 10
554.1280302206037
 20
198.0456339428759
 30
0.0
  0
VERTEX
  5
B9DA
  8
0
 10
554.42054142888355
 20
198.30142924555659
 30
0.0
  0
VERTEX
  5
B9DB
  8
0
 10
554.73058330767935
 20
198.61338790576849
 30
0.0
  0
VERTEX
  5
B9DC
  8
0
 10
555.04363619564117
 20
198.9719133741369
 30
0.0
  0
VERTEX
  5
B9DD
  8
0
 10
555.35820969668941
 20
199.38536609923111
 30
0.0
  0
SEQEND
  5
B9DE
  8
0
  0
POLYLINE
  5
AFED
  8
0
 66
     1
 10
0.0
 20
0.0
 30
0.0
  0
VERTEX
  5
B9DF
  8
0
 10
553.39307331252098
 20
197.6075883528006
 30
0.0
  0
VERTEX
  5
B9E0
  8
0
 10
553.58043587555289
 20
197.6733324988395
 30
0.0
  0
VERTEX
  5
B9E1
  8
0
 10
553.85196495466039
 20
197.84266895354619
 30
0.0
  0
SEQEND
  5
B9E2
  8
0
  0
POLYLINE
  5
AFEE
  8
0
 66
     1
 10
0.0
 20
0.0
 30
0.0
  0
VERTEX
  5
B9E3
  8
0
 10
555.35820969668941
 20
240.61463390076901
 30
0.0
  0
VERTEX
  5
B9E4
  8
0
 10
555.09085351812018
 20
240.96980947308211
 30
0.0
  0
VERTEX
  5
B9E5
  8
0
 10
554.80143907204149
 20
241.30945538237719
 30
0.0
  0
VERTEX
  5
B9E6
  8
0
 10
554.50606122609054
 20
241.61664692621289
 30
0.0
  0
VERTEX
  5
B9E7
  8
0
 10
554.20447146805213
 20
241.8912890138983
 30
0.0
  0
VERTEX
  5
B9E8
  8
0
 10
553.85196495466039
 20
242.15733104645361
 30
0.0
  0
SEQEND
  5
B9E9
  8
0
  0
POLYLINE
  5
AFEF
  8
0
 66
     1
 10
0.0
 20
0.0
 30
0.0
  0
VERTEX
  5
B9EA
  8
0
 10
553.3935660941205
 20
242.3924105228345
 30
0.0
  0
VERTEX
  5
B9EB
  8
0
 10
553.35157802123626
 20
242.38550651779499
 30
0.0
  0
VERTEX
  5
B9EC
  8
0
 10
553.26199006138415
 20
242.25121368888421
 30
0.0
  0
VERTEX
  5
B9ED
  8
0
 10
553.24244402184274
 20
242.03464402509411
 30
0.0
  0
SEQEND
  5
B9EE
  8
0
  0
POLYLINE
  5
AFF0
  8
0
 66
     1
 10
0.0
 20
0.0
 30
0.0
  0
VERTEX
  5
B9EF
  8
0
 10
553.24244402184274
 20
197.9653556880142
 30
0.0
  0
VERTEX
  5
B9F0
  8
0
 10
553.27533170459367
 20
197.70377947578029
 30
0.0
  0
VERTEX
  5
B9F1
  8
0
 10
553.38261382655105
 20
197.60796202531131
 30
0.0
  0
VERTEX
  5
B9F2
  8
0
 10
553.39307331252098
 20
197.6075883528006
 30
0.0
  0
SEQEND
  5
B9F3
  8
0
  0
LINE
  5
AFF1
  8
0
 10
553.24244402184274
 20
242.03464402509411
 30
0.0
 11
553.24244402184274
 21
197.9653556880142
 31
0.0
  0
POLYLINE
  5
AFF2
  8
0
 66
     1
 10
0.0
 20
0.0
 30
0.0
  0
VERTEX
  5
B9F4
  8
0
 10
553.85196495466039
 20
242.15733104645361
 30
0.0
  0
VERTEX
  5
B9F5
  8
0
 10
553.54548813264205
 20
242.34496800274309
 30
0.0
  0
VERTEX
  5
B9F6
  8
0
 10
553.3935660941205
 20
242.3924105228345
 30
0.0
  0
SEQEND
  5
B9F7
  8
0
  0
ARC
  5
AFF3
  8
0
 10
556.5999999999998
 20
248.88498241739461
 30
0.0
 40
3.5999999999999912
 50
180.0
 51
220.24019157209631
  0
ARC
  5
AFF4
  8
0
 10
556.5999999999998
 20
191.1150175826055
 30
0.0
 40
3.5999999999999912
 50
139.75980842790361
 51
180.0
  0
LINE
  5
AFF5
  8
0
 10
535.0
 20
182.98888373294881
 30
0.0
 11
535.0
 21
257.01111626705108
 31
0.0
  0
ARC
  5
AFF6
  8
0
 10
536.79999999999995
 20
257.01111626705108
 30
0.0
 40
1.8000000000000109
 50
105.00000000000109
 51
180.0
  0
ARC
  5
AFF7
  8
0
 10
536.79999999999995
 20
182.98888373294881
 30
0.0
 40
1.8000000000000109
 50
180.0
 51
254.99999999999881
  0
LINE
  5
AFF8
  8
0
 10
536.33412571881536
 20
181.25021724562851
 30
0.0
 11
538.71100214472767
 21
180.6133351267967
 31
0.0
  0
LINE
  5
AFF9
  8
0
 10
538.71100214472767
 20
259.38666487320307
 30
0.0
 11
536.33412571881536
 21
258.74978275437149
 31
0.0
  0
LINE
  5
AFFA
  8
0
 10
547.0
 20
259.99999999999989
 30
0.0
 11
543.36974495657296
 21
259.99999999999989
 31
0.0
  0
LINE
  5
AFFB
  8
0
 10
543.36974495657296
 20
179.99999999999989
 30
0.0
 11
547.0
 21
179.99999999999989
 31
0.0
  0
LINE
  5
AFFC
  8
0
 10
553.0
 20
185.99999999999989
 30
0.0
 11
553.0
 21
253.99999999999989
 31
0.0
  0
ARC
  5
AFFD
  8
0
 10
547.0
 20
253.99999999999989
 30
0.0
 40
6.0000000000000027
 50
0.0
 51
90.0
  0
ARC
  5
AFFE
  8
0
 10
547.0
 20
185.99999999999989
 30
0.0
 40
6.0
 50
270.0
 51
0.0
  0
ARC
  5
AFFF
  8
0
 10
543.36974495657307
 20
241.99999999999881
 30
0.0
 40
18.000000000001119
 50
90.0
 51
104.9999999999948
  0
ARC
  5
B000
  8
0
 10
543.3697449565733
 20
198.00000000000179
 30
0.0
 40
18.00000000000184
 50
255.00000000000509
 51
269.99999914622629
  0
LINE
  5
B001
  8
2
 10
395.99999999999989
 20
50.0
 30
0.0
 11
396.0
 21
66.999999999999943
 31
0.0
  0
LINE
  5
B002
  8
2
 10
404.0
 20
66.999999999999943
 30
0.0
 11
404.0
 21
50.0
 31
0.0
  0
LINE
  5
B005
  8
1
 10
395.0
 20
77.567567567567551
 30
0.0
 11
405.0
 21
77.567567567567551
 31
0.0
  0
LINE
  5
B006
  8
1
 10
400.0
 20
88.000000000000057
 30
0.0
 11
400.0
 21
47.0
 31
0.0
  0
LINE
  5
B014
  8
0
 10
391.0
 20
50.0
 30
0.0
 11
391.0
 21
50.199999999999989
 31
0.0
  0
LINE
  5
B015
  8
0
 10
409.0
 20
50.199999999999989
 30
0.0
 11
409.0
 21
50.0
 31
0.0
  0
LINE
  5
B016
  8
0
 10
409.0
 20
50.0
 30
0.0
 11
391.0
 21
50.0
 31
0.0
  0
LINE
  5
B017
  8
0
 10
411.99999999999812
 20
50.199999999999989
 30
0.0
 11
388.0
 21
50.199999999999989
 31
0.0
  0
ARC
  5
B018
  8
0
 10
388.0
 20
50.699999999999989
 30
0.0
 40
0.5000000000000019
 50
180.0
 51
270.0
  0
ARC
  5
B019
  8
0
 10
412.0
 20
50.699999999999989
 30
0.0
 40
0.5000000000000018
 50
270.0
 51
0.0
  0
LINE
  5
B01A
  8
0
 10
387.5
 20
50.699999999999989
 30
0.0
 11
387.5
 21
54.25
 31
0.0
  0
LINE
  5
B01B
  8
0
 10
412.5
 20
54.25
 30
0.0
 11
412.5
 21
50.699999999999989
 31
0.0
  0
POLYLINE
  5
B01C
  8
0
 66
     1
 10
0.0
 20
0.0
 30
0.0
  0
VERTEX
  5
B9F8
  8
0
 10
413.75
 20
64.641790303310586
 30
0.0
  0
VERTEX
  5
B9F9
  8
0
 10
413.78584088454869
 20
64.909146481879702
 30
0.0
  0
VERTEX
  5
B9FA
  8
0
 10
413.89140467366718
 20
65.198560927958454
 30
0.0
  0
VERTEX
  5
B9FB
  8
0
 10
414.05928749044142
 20
65.493938773909406
 30
0.0
  0
VERTEX
  5
B9FC
  8
0
 10
414.29058516978131
 20
65.795528531947866
 30
0.0
  0
VERTEX
  5
B9FD
  8
0
 10
414.64427376315382
 20
66.148035045339441
 30
0.0
  0
SEQEND
  5
B9FE
  8
0
  0
LINE
  5
B01D
  8
0
 10
386.25
 20
64.641790303310515
 30
0.0
 11
386.25
 21
55.307835821841479
 31
0.0
  0
POLYLINE
  5
B01E
  8
0
 66
     1
 10
0.0
 20
0.0
 30
0.0
  0
VERTEX
  5
B9FF
  8
0
 10
385.35572623684612
 20
66.148035045339441
 30
0.0
  0
VERTEX
  5
BA00
  8
0
 10
385.64081606799948
 20
65.871969779396181
 30
0.0
  0
VERTEX
  5
BA01
  8
0
 10
385.88132644988139
 20
65.579458571116334
 30
0.0
  0
VERTEX
  5
BA02
  8
0
 10
386.07364143528889
 20
65.269416692320533
 30
0.0
  0
VERTEX
  5
BA03
  8
0
 10
386.20125393716347
 20
64.956363804358659
 30
0.0
  0
VERTEX
  5
BA04
  8
0
 10
386.25
 20
64.641790303310515
 30
0.0
  0
SEQEND
  5
BA05
  8
0
  0
LINE
  5
B01F
  8
0
 10
387.5
 20
54.25
 30
0.0
 11
386.2417691391525
 21
55.314801340448518
 31
0.0
  0
LINE
  5
B020
  8
0
 10
413.75776782011229
 20
55.314409483587667
 30
0.0
 11
412.5
 21
54.25
 31
0.0
  0
LINE
  5
B021
  8
0
 10
413.75
 20
55.307835822365803
 30
0.0
 11
413.75
 21
64.641790303310586
 31
0.0
  0
LINE
  5
B022
  8
0
 10
412.5
 20
54.25
 30
0.0
 11
387.5
 21
54.25
 31
0.0
  0
POLYLINE
  5
B023
  8
0
 66
     1
 10
0.0
 20
0.0
 30
0.0
  0
VERTEX
  5
BA06
  8
0
 10
383.40261282660327
 20
66.757555978157257
 30
0.0
  0
VERTEX
  5
BA07
  8
0
 10
383.89536846693233
 20
66.724668295406161
 30
0.0
  0
VERTEX
  5
BA08
  8
0
 10
384.43577245988951
 20
66.617386173448892
 30
0.0
  0
VERTEX
  5
BA09
  8
0
 10
384.95121572770131
 20
66.419564124447049
 30
0.0
  0
VERTEX
  5
BA0A
  8
0
 10
385.35572623684612
 20
66.148035045339441
 30
0.0
  0
SEQEND
  5
BA0B
  8
0
  0
LINE
  5
B024
  8
0
 10
416.59738679252018
 20
66.757555978157257
 30
0.0
 11
427.58620689655169
 21
66.757555978157257
 31
0.0
  0
POLYLINE
  5
B025
  8
0
 66
     1
 10
0.0
 20
0.0
 30
0.0
  0
VERTEX
  5
BA0C
  8
0
 10
414.64427376315382
 20
66.148035045339441
 30
0.0
  0
VERTEX
  5
BA0D
  8
0
 10
415.11980998161567
 20
66.454511867358178
 30
0.0
  0
VERTEX
  5
BA0E
  8
0
 10
415.68431531777281
 20
66.648421978763665
 30
0.0
  0
VERTEX
  5
BA0F
  8
0
 10
416.22211229679129
 20
66.738009938615846
 30
0.0
  0
VERTEX
  5
BA10
  8
0
 10
416.59738679252018
 20
66.757555978157257
 30
0.0
  0
SEQEND
  5
BA11
  8
0
  0
ARC
  5
B026
  8
0
 10
371.11501758260539
 20
63.399999999999977
 30
0.0
 40
3.6000000000000179
 50
68.852448032473561
 51
90.0
  0
ARC
  5
B027
  8
0
 10
428.8849824173945
 20
63.400000000000091
 30
0.0
 40
3.5999999999999082
 50
90.0
 51
111.1475519675264
  0
LINE
  5
B028
  8
0
 10
372.41379310344831
 20
66.7575559781572
 30
0.0
 11
383.40261282660327
 21
66.757555978157257
 31
0.0
  0
LINE
  5
B029
  8
0
 10
437.01111626666108
 20
85.0
 30
0.0
 11
362.98888373294892
 21
85.0
 31
0.0
  0
ARC
  5
B02A
  8
0
 10
362.98888373294892
 20
83.199999999999974
 30
0.0
 40
1.8000000000000109
 50
90.0
 51
164.99999999999881
  0
ARC
  5
B02B
  8
0
 10
437.01111626705108
 20
83.199999999999974
 30
0.0
 40
1.8000000000000109
 50
15.000000000001201
 51
90.0
  0
LINE
  5
B02C
  8
0
 10
438.74978275437149
 20
83.665874281184529
 30
0.0
 11
439.38666487320319
 21
81.288997855272143
 31
0.0
  0
LINE
  5
B02D
  8
0
 10
360.6133351267967
 20
81.288997855272143
 30
0.0
 11
361.25021724562851
 21
83.665874281184529
 31
0.0
  0
LINE
  5
B02E
  8
0
 10
360.0
 20
73.0
 30
0.0
 11
360.0
 21
76.630255043426871
 31
0.0
  0
LINE
  5
B02F
  8
0
 10
440.0
 20
76.630255043426871
 30
0.0
 11
440.0
 21
73.0
 31
0.0
  0
LINE
  5
B030
  8
0
 10
433.9999999995344
 20
67.0
 30
0.0
 11
366.0
 21
67.0
 31
0.0
  0
ARC
  5
B031
  8
0
 10
366.0
 20
73.0
 30
0.0
 40
6.0000000000000027
 50
180.0
 51
270.0
  0
ARC
  5
B032
  8
0
 10
434.0
 20
73.0
 30
0.0
 40
6.0
 50
270.0
 51
0.0
  0
ARC
  5
B033
  8
0
 10
378.00000000000108
 20
76.6302550434267
 30
0.0
 40
18.000000000001119
 50
165.0000000000021
 51
180.0
  0
ARC
  5
B034
  8
0
 10
421.99999999999812
 20
76.630255043426644
 30
0.0
 40
18.00000000000184
 50
0.0000008537736463
 51
14.999999999997829
  0
LINE
  5
B035
  8
2
 10
391.0
 20
50.199999999999989
 30
0.0
 11
391.0
 21
65.999999999767155
 31
0.0
  0
LINE
  5
B036
  8
2
 10
409.0
 20
65.999999999767155
 30
0.0
 11
409.0
 21
50.199999999999989
 31
0.0
  0
LINE
  5
B037
  8
2
 10
391.99999999976723
 20
67.0
 30
0.0
 11
391.99999999976723
 21
65.999999999767155
 31
0.0
  0
LINE
  5
B038
  8
2
 10
407.99999999976723
 20
67.0
 30
0.0
 11
407.99999999976723
 21
65.999999999767155
 31
0.0
  0
LINE
  5
B039
  8
2
 10
389.74999999976723
 20
70.0
 30
0.0
 11
389.74999999976723
 21
67.0
 31
0.0
  0
LINE
  5
B03A
  8
2
 10
410.24999999976723
 20
70.0
 30
0.0
 11
410.24999999976723
 21
67.0
 31
0.0
  0
LINE
  5
B03E
  8
2
 10
410.24999999976723
 20
70.0
 30
0.0
 11
389.74999999976723
 21
70.0
 31
0.0
  0
LINE
  5
B04F
  8
2
 10
409.0
 20
65.999999999767155
 30
0.0
 11
407.99999999976723
 21
65.999999999767155
 31
0.0
  0
LINE
  5
B050
  8
2
 10
391.99999999976723
 20
65.999999999767155
 30
0.0
 11
391.0
 21
65.999999999767155
 31
0.0
  0
LINE
  5
B051
  8
2
 10
569.79999999999995
 20
210.99999999999989
 30
0.0
 11
554.00000000023283
 21
210.99999999999989
 31
0.0
  0
LINE
  5
B052
  8
2
 10
554.00000000023283
 20
229.0
 30
0.0
 11
569.79999999999995
 21
229.0
 31
0.0
  0
LINE
  5
B053
  8
2
 10
553.0
 20
211.99999999976711
 30
0.0
 11
554.00000000023283
 21
211.99999999976711
 31
0.0
  0
LINE
  5
B054
  8
2
 10
553.0
 20
227.99999999976711
 30
0.0
 11
554.00000000023283
 21
227.99999999976711
 31
0.0
  0
LINE
  5
B055
  8
2
 10
550.0
 20
209.74999999976711
 30
0.0
 11
553.0
 21
209.74999999976711
 31
0.0
  0
LINE
  5
B056
  8
2
 10
550.0
 20
230.24999999976711
 30
0.0
 11
553.0
 21
230.24999999976711
 31
0.0
  0
LINE
  5
B057
  8
2
 10
554.00000000023283
 20
229.0
 30
0.0
 11
554.00000000023283
 21
227.99999999976711
 31
0.0
  0
LINE
  5
B058
  8
2
 10
554.00000000023283
 20
211.99999999976711
 30
0.0
 11
554.00000000023283
 21
210.99999999999989
 31
0.0
  0
ARC
  5
B059
  8
0
 10
400.0
 20
220.0
 30
0.0
 40
10.25
 50
319.1213648534827
 51
40.878635146517269
  0
ARC
  5
B0D9
  8
0
  6
CONTINUOUS
 62
     7
 10
399.79266915721649
 20
249.0737955693524
 30
0.0
 40
7.783492895710741
 50
149.93613842134289
 51
170.87937351366489
  0
ARC
  5
B0DA
  8
0
  6
CONTINUOUS
 62
     7
 10
400.41453667039201
 20
249.16915597190399
 30
0.0
 40
7.5564206919774302
 50
8.7348031544456433
 51
30.225150915838739
  0
LINE
  5
B0DB
  8
0
  6
CONTINUOUS
 62
     7
 10
393.25070688044389
 20
253.29500202401741
 30
0.0
 11
393.0563084859217
 21
252.9730527503821
 31
0.0
  0
LINE
  5
B0DC
  8
0
  6
CONTINUOUS
 62
     7
 10
406.94369151407818
 20
252.9730527503819
 30
0.0
 11
406.749293119556
 21
253.29500202401741
 31
0.0
  0
ARC
  5
B0DD
  8
0
  6
CONTINUOUS
 62
     7
 10
400.0
 20
249.0
 30
0.0
 40
8.0000000000000071
 50
32.471176046618083
 51
147.5288239533819
  0
ARC
  5
B0E3
  8
0
  6
CONTINUOUS
 62
     7
 10
400.0
 20
249.0
 30
0.0
 40
5.0951357528750094
 50
301.75486330082612
 51
238.24513669917391
  0
ARC
  5
B0F0
  8
0
  6
CONTINUOUS
 62
     7
 10
400.0
 20
249.0
 30
0.0
 40
8.0000000000000089
 50
170.5929090737537
 51
230.74880529959111
  0
ARC
  5
B0F1
  8
0
  6
CONTINUOUS
 62
     7
 10
400.0200896206876
 20
248.9838856590741
 30
0.0
 40
7.9753801923897871
 50
309.21020429433833
 51
9.6200630257435034
  0
ARC
  5
B0F2
  8
0
  6
CONTINUOUS
 62
     7
 10
401.37142857142851
 20
252.08571428571429
 30
0.0
 40
0.9142857142857112
 50
0.0
 51
89.999999146226358
  0
LINE
  5
B0F3
  8
0
  6
CONTINUOUS
 62
     7
 10
401.3714285850524
 20
253.0
 30
0.0
 11
398.62857142857138
 21
253.0
 31
0.0
  0
ARC
  5
B0F4
  8
0
  6
CONTINUOUS
 62
     7
 10
398.62857142857138
 20
252.08571428571429
 30
0.0
 40
0.914285714285711
 50
90.0
 51
180.0
  0
LINE
  5
B0F5
  8
0
  6
CONTINUOUS
 62
     7
 10
402.28571428571422
 20
244.6675675675676
 30
0.0
 11
402.28571428571422
 21
252.08571428571429
 31
0.0
  0
LINE
  5
B0F6
  8
0
  6
CONTINUOUS
 62
     7
 10
397.71428571428572
 20
252.08571428571429
 30
0.0
 11
397.71428571428572
 21
244.6675675675676
 31
0.0
  0
POLYLINE
  5
B1B4
  8
0
 66
     1
 10
0.0
 20
0.0
 30
0.0
  0
VERTEX
  5
BA12
  8
0
 10
397.71428571428572
 20
250.1675675675676
 30
0.0
  0
VERTEX
  5
BA13
  8
0
 10
397.79378286683641
 20
250.66563492335251
 30
0.0
  0
VERTEX
  5
BA14
  8
0
 10
398.01941151112658
 20
251.10740840408889
 30
0.0
  0
VERTEX
  5
BA15
  8
0
 10
398.3674150481358
 20
251.4573101549023
 30
0.0
  0
VERTEX
  5
BA16
  8
0
 10
398.8166539260672
 20
251.6882130237324
 30
0.0
  0
VERTEX
  5
BA17
  8
0
 10
399.3071694413776
 20
251.76755174207051
 30
0.0
  0
VERTEX
  5
BA18
  8
0
 10
399.31428571428569
 20
251.7675675675676
 30
0.0
  0
SEQEND
  5
BA19
  8
0
  0
POLYLINE
  5
B1B6
  8
0
 66
     1
 10
0.0
 20
0.0
 30
0.0
  0
VERTEX
  5
BA1A
  8
0
 10
400.68571426187242
 20
251.7675675675676
 30
0.0
  0
VERTEX
  5
BA1B
  8
0
 10
400.6928305586224
 20
251.76755174207051
 30
0.0
  0
VERTEX
  5
BA1C
  8
0
 10
400.98006377142991
 20
251.740259012276
 30
0.0
  0
VERTEX
  5
BA1D
  8
0
 10
401.27490813665668
 20
251.655132895885
 30
0.0
  0
VERTEX
  5
BA1E
  8
0
 10
401.5419356815803
 20
251.51919063679259
 30
0.0
  0
VERTEX
  5
BA1F
  8
0
 10
401.79300402410831
 20
251.32251753845259
 30
0.0
  0
VERTEX
  5
BA20
  8
0
 10
402.12791903677748
 20
250.86042069486851
 30
0.0
  0
VERTEX
  5
BA21
  8
0
 10
402.27533274003031
 20
250.34953781155809
 30
0.0
  0
VERTEX
  5
BA22
  8
0
 10
402.28571428571428
 20
250.1675675675676
 30
0.0
  0
SEQEND
  5
BA23
  8
0
  0
LINE
  5
B1B7
  8
0
 10
399.31428571428569
 20
251.7675675675676
 30
0.0
 11
400.68571426187242
 21
251.7675675675676
 31
0.0
  0
LINE
  5
B1B8
  8
0
 10
395.19999999999999
 20
244.6675675675676
 30
0.0
 11
394.76432341242258
 21
241.56756756756761
 31
0.0
  0
LINE
  5
B1B9
  8
0
 10
405.2356765875773
 20
241.56756756756761
 30
0.0
 11
404.80000000000001
 21
244.6675675675676
 31
0.0
  0
LINE
  5
B1BA
  8
0
 10
395.19999999999999
 20
244.6675675675676
 30
0.0
 11
404.80000000000001
 21
244.6675675675676
 31
0.0
  0
LINE
  5
B22E
  8
0
 10
406.19999999999999
 20
229.90224631929939
 30
0.0
 11
406.19999999999999
 21
241.25756756756749
 31
0.0
  0
LINE
  5
B22F
  8
0
 10
393.80000000000001
 20
241.25756756756749
 30
0.0
 11
393.80000000000001
 21
229.90224631929939
 31
0.0
  0
LINE
  5
B230
  8
0
 10
394.11000000000001
 20
241.56756756756761
 30
0.0
 11
393.80000000000001
 21
241.25756756756749
 31
0.0
  0
LINE
  5
B231
  8
0
 10
406.19999999999999
 20
241.25756756756749
 30
0.0
 11
405.88999999999987
 21
241.56756756756761
 31
0.0
  0
LINE
  5
B232
  8
0
 10
393.80000000000001
 20
241.25756756756749
 30
0.0
 11
406.19999999999999
 21
241.25756756756749
 31
0.0
  0
ARC
  5
B233
  8
0
 10
400.0
 20
204.31756756756761
 30
0.0
 40
7.7499999999999956
 50
180.0
 51
0.0
  0
LINE
  5
B234
  8
0
 10
407.74999999999989
 20
204.31756756756761
 30
0.0
 11
407.74999999999989
 21
227.21756756756761
 31
0.0
  0
LINE
  5
B235
  8
0
 10
392.25
 20
227.21756756756761
 30
0.0
 11
392.25
 21
204.31756756756761
 31
0.0
  0
LINE
  5
B236
  8
0
 10
392.25
 20
204.31756756756761
 30
0.0
 11
407.74999999999989
 21
204.31756756756761
 31
0.0
  0
ARC
  5
B237
  8
0
 10
404.64999999999992
 20
227.21756756756761
 30
0.0
 40
3.0999999999999579
 50
0.0
 51
60.000000000003169
  0
ARC
  5
B238
  8
0
 10
395.35000000000002
 20
227.21756756756761
 30
0.0
 40
3.0999999999999819
 50
119.9999999999968
 51
180.0
  0
LINE
  5
B239
  8
0
 10
392.25
 20
227.21756756756761
 30
0.0
 11
407.74999999999989
 21
227.21756756756761
 31
0.0
  0
LINE
  5
B23A
  8
0
 10
393.80000000000001
 20
229.90224631929939
 30
0.0
 11
406.19999999999999
 21
229.90224631929939
 31
0.0
  0
LINE
  5
B3C9
  8
0
 10
394.11000000000001
 20
241.56756756756761
 30
0.0
 11
405.88999999999987
 21
241.56756756756761
 31
0.0
  0
ARC
  5
B3CA
  8
0
 10
400.0
 20
220.0
 30
0.0
 40
10.25
 50
139.12136485348421
 51
220.87863514651579
  0
ARC
  5
B520
  8
0
 10
400.0
 20
77.567567567567551
 30
0.0
 40
7.7499999999999929
 50
73.541164446187892
 51
106.45883555381209
  0
LINE
  5
B75F
  8
2
 10
209.7500000002328
 20
67.0
 30
0.0
 11
230.2500000002328
 21
67.0
 31
0.0
  0
LINE
  5
B760
  8
2
 10
389.74999999976723
 20
67.0
 30
0.0
 11
410.24999999976723
 21
67.0
 31
0.0
  0
LINE
  5
B761
  8
2
 10
67.0
 20
209.74999999976711
 30
0.0
 11
67.0
 21
230.24999999976711
 31
0.0
  0
LINE
  5
B762
  8
2
 10
552.99999999999989
 20
209.74999999976711
 30
0.0
 11
553.0
 21
230.24999999976711
 31
0.0
  0
ENDSEC
  0
EOF
