  0
SECTION
  2
HEADER
  9
$ACADVER
  1
AC1009
  9
$INSBASE
 10
0.0
 20
0.0
 30
0.0
  9
$EXTMIN
 10
0.0
 20
-2.960436562073669
 30
0.0
  9
$EXTMAX
 10
348.80430353813819
 20
216.014713
 30
0.0
  9
$LIMMIN
 10
0.0
 20
0.0
  9
$LIMMAX
 10
375.0
 20
270.0
  9
$ORTHOMODE
 70
     1
  9
$REGENMODE
 70
     1
  9
$FILLMODE
 70
     1
  9
$QTEXTMODE
 70
     0
  9
$MIRRTEXT
 70
     0
  9
$DRAGMODE
 70
     2
  9
$LTSCALE
 40
10.0
  9
$OSMODE
 70
    55
  9
$ATTMODE
 70
     1
  9
$TEXTSIZE
 40
4.0
  9
$TRACEWID
 40
0.05
  9
$TEXTSTYLE
  7
STANDARD
  9
$CLAYER
  8
0
  9
$CELTYPE
  6
BYLAYER
  9
$CECOLOR
 62
   256
  9
$DIMSCALE
 40
1.0
  9
$DIMASZ
 40
3.0
  9
$DIMEXO
 40
2.0
  9
$DIMDLI
 40
0.38
  9
$DIMRND
 40
0.0
  9
$DIMDLE
 40
0.0
  9
$DIMEXE
 40
2.0
  9
$DIMTP
 40
0.0
  9
$DIMTM
 40
0.0
  9
$DIMTXT
 40
3.2000000000000002
  9
$DIMCEN
 40
0.0
  9
$DIMTSZ
 40
0.0
  9
$DIMTOL
 70
     0
  9
$DIMLIM
 70
     0
  9
$DIMTIH
 70
     0
  9
$DIMTOH
 70
     0
  9
$DIMSE1
 70
     0
  9
$DIMSE2
 70
     0
  9
$DIMTAD
 70
     1
  9
$DIMZIN
 70
     0
  9
$DIMBLK
  1

  9
$DIMASO
 70
     1
  9
$DIMSHO
 70
     0
  9
$DIMPOST
  1

  9
$DIMAPOST
  1

  9
$DIMALT
 70
     0
  9
$DIMALTD
 70
     2
  9
$DIMALTF
 40
25.399999999999999
  9
$DIMLFAC
 40
1.0
  9
$DIMTOFL
 70
     0
  9
$DIMTVP
 40
1.6000000000000001
  9
$DIMTIX
 70
     1
  9
$DIMSOXD
 70
     0
  9
$DIMSAH
 70
     0
  9
$DIMBLK1
  1

  9
$DIMBLK2
  1

  9
$DIMSTYLE
  2
STANDARD
  9
$DIMCLRD
 70
     0
  9
$DIMCLRE
 70
     0
  9
$DIMCLRT
 70
     0
  9
$DIMTFAC
 40
1.0
  9
$DIMGAP
 40
0.09
  9
$LUNITS
 70
     2
  9
$LUPREC
 70
     1
  9
$SKETCHINC
 40
0.1
  9
$FILLETRAD
 40
0.0
  9
$AUNITS
 70
     0
  9
$AUPREC
 70
     0
  9
$MENU
  1
E:\r13\win\SUPPORT\ACAD
  9
$ELEVATION
 40
0.0
  9
$PELEVATION
 40
0.0
  9
$THICKNESS
 40
0.0
  9
$LIMCHECK
 70
     0
  9
$BLIPMODE
 70
     0
  9
$CHAMFERA
 40
0.0
  9
$CHAMFERB
 40
0.0
  9
$SKPOLY
 70
     0
  9
$TDCREATE
 40
2449840.6313310191
  9
$TDUPDATE
 40
2456598.40843294
  9
$TDINDWG
 40
0.0001518866
  9
$TDUSRTIMER
 40
0.0001518866
  9
$USRTIMER
 70
     1
  9
$ANGBASE
 50
0.0
  9
$ANGDIR
 70
     0
  9
$PDMODE
 70
     0
  9
$PDSIZE
 40
0.0
  9
$PLINEWID
 40
0.0
  9
$COORDS
 70
     1
  9
$SPLFRAME
 70
     0
  9
$SPLINETYPE
 70
     6
  9
$SPLINESEGS
 70
     8
  9
$ATTDIA
 70
     0
  9
$ATTREQ
 70
     1
  9
$HANDLING
 70
     1
  9
$HANDSEED
  5
2EA
  9
$SURFTAB1
 70
     6
  9
$SURFTAB2
 70
     6
  9
$SURFTYPE
 70
     6
  9
$SURFU
 70
     6
  9
$SURFV
 70
     6
  9
$UCSNAME
  2

  9
$UCSORG
 10
0.0
 20
0.0
 30
0.0
  9
$UCSXDIR
 10
1.0
 20
0.0
 30
0.0
  9
$UCSYDIR
 10
0.0
 20
1.0
 30
0.0
  9
$PUCSNAME
  2

  9
$PUCSORG
 10
0.0
 20
0.0
 30
0.0
  9
$PUCSXDIR
 10
1.0
 20
0.0
 30
0.0
  9
$PUCSYDIR
 10
0.0
 20
1.0
 30
0.0
  9
$USERI1
 70
     0
  9
$USERI2
 70
     1
  9
$USERI3
 70
     1
  9
$USERI4
 70
     0
  9
$USERI5
 70
     0
  9
$USERR1
 40
0.0
  9
$USERR2
 40
0.0
  9
$USERR3
 40
0.0
  9
$USERR4
 40
0.0
  9
$USERR5
 40
0.0
  9
$WORLDVIEW
 70
     1
  9
$SHADEDGE
 70
     3
  9
$SHADEDIF
 70
    70
  9
$TILEMODE
 70
     1
  9
$MAXACTVP
 70
    16
  9
$PLIMCHECK
 70
     0
  9
$PEXTMIN
 10
1.0000000000000000E+020
 20
1.0000000000000000E+020
 30
1.0000000000000000E+020
  9
$PEXTMAX
 10
-1.0000000000000000E+020
 20
-1.0000000000000000E+020
 30
-1.0000000000000000E+020
  9
$PLIMMIN
 10
0.0
 20
0.0
  9
$PLIMMAX
 10
12.0
 20
9.0
  9
$UNITMODE
 70
     0
  9
$VISRETAIN
 70
     0
  9
$PLINEGEN
 70
     0
  9
$PSLTSCALE
 70
     0
  0
ENDSEC
  0
SECTION
  2
TABLES
  0
TABLE
  2
VPORT
 70
     1
  0
VPORT
  2
*ACTIVE
 70
     0
 10
0.0
 20
0.0
 11
1.0
 21
1.0
 12
187.4942783906524
 22
197.0509055860143
 13
0.0
 23
0.0
 14
10.0
 24
10.0
 15
10.0
 25
10.0
 16
0.0
 26
0.0
 36
1.0
 17
0.0
 27
0.0
 37
0.0
 40
403.57315882993248
 41
1.7807262569832401
 42
50.0
 43
0.0
 44
0.0
 50
0.0
 51
0.0
 71
     0
 72
   100
 73
     1
 74
     0
 75
     0
 76
     0
 77
     0
 78
     2
  0
ENDTAB
  0
TABLE
  2
LTYPE
 70
     4
  0
LTYPE
  2
CONTINUOUS
 70
     0
  3
Solid Line
 72
    65
 73
     0
 40
0.0
  0
LTYPE
  2
CENTER
 70
     0
  3
____ _ ____ _ ____ _ ____ _ ____ _ ____ _ ____
 72
    65
 73
     4
 40
2.0
 49
1.25
 49
-0.25
 49
0.25
 49
-0.25
  0
LTYPE
  2
HIDDEN
 70
     0
  3
_ _ _ _ _ _ _ _ _ _ _ _ _ _ _ _ _ _ _ _ _ _ _
 72
    65
 73
     2
 40
0.375
 49
0.25
 49
-0.125
  0
LTYPE
  2
PHANTOM2
 70
     0
  3
___ _ _ ___ _ _ ___ _ _ ___ _ _
 72
    65
 73
     6
 40
1.25
 49
0.625
 49
-0.125
 49
0.125
 49
-0.125
 49
0.125
 49
-0.125
  0
ENDTAB
  0
TABLE
  2
LAYER
 70
     4
  0
LAYER
  2
0
 70
     0
 62
     7
  6
CONTINUOUS
  0
LAYER
  2
1
 70
     0
 62
     1
  6
CENTER
  0
LAYER
  2
3
 70
     0
 62
     3
  6
CONTINUOUS
  0
LAYER
  2
2
 70
     0
 62
     2
  6
HIDDEN
  0
ENDTAB
  0
TABLE
  2
STYLE
 70
     2
  0
STYLE
  2
STANDARD
 70
     0
 40
0.0
 41
1.0
 50
0.0
 71
     0
 42
4.0
  3
ROMANS
  4
BIGFONT
  0
STYLE
  2
STANDARD1
 70
     0
 40
0.0
 41
1.0
 50
0.0
 71
     0
 42
3.0
  3
txt
  4

  0
ENDTAB
  0
TABLE
  2
VIEW
 70
     1
  0
VIEW
  2
ALL
 70
     0
 40
270.0
 10
220.59942000000001
 20
135.0
 41
441.19884000000002
 11
0.0
 21
0.0
 31
1.0
 12
0.0
 22
0.0
 32
0.0
 42
0.0
 43
0.0
 44
0.0
 50
0.0
 71
     0
  0
ENDTAB
  0
TABLE
  2
UCS
 70
     0
  0
ENDTAB
  0
TABLE
  2
APPID
 70
     3
  0
APPID
  2
ACAD
 70
     0
  0
APPID
  2
ACAD_MLEADERVER
 70
     0
  0
APPID
  2
ACAD_NAV_VCDISPLAY
 70
     0
  0
ENDTAB
  0
TABLE
  2
DIMSTYLE
 70
     1
  0
DIMSTYLE
  2
STANDARD
 70
     0
  3

  4

  5

  6

  7

 40
1.0
 41
0.18
 42
0.0625
 43
0.38
 44
0.18
 45
0.0
 46
0.0
 47
0.0
 48
0.0
140
0.18
141
0.09
142
0.0
143
25.399999999999999
144
1.0
145
0.0
146
1.0
147
0.09
 71
     0
 72
     0
 73
     1
 74
     1
 75
     0
 76
     0
 77
     0
 78
     0
170
     0
171
     2
172
     0
173
     0
174
     0
175
     0
176
     0
177
     0
178
     0
  0
ENDTAB
  0
ENDSEC
  0
SECTION
  2
BLOCKS
  0
BLOCK
  8
0
  2
$MODEL_SPACE
 70
     0
 10
0.0
 20
0.0
 30
0.0
  3
$MODEL_SPACE
  1

  0
ENDBLK
  5
169
  8
0
  0
BLOCK
 67
     1
  8
0
  2
$PAPER_SPACE
 70
     0
 10
0.0
 20
0.0
 30
0.0
  3
$PAPER_SPACE
  1

  0
ENDBLK
  5
167
 67
     1
  8
0
  0
ENDSEC
  0
SECTION
  2
ENTITIES
  0
LINE
  5
3C
  8
0
 10
65.366761142986348
 20
199.014713
 30
0.0
 11
309.36676114298632
 21
199.014713
 31
0.0
  0
LINE
  5
3D
  8
0
 10
309.36676114298632
 20
211.014713
 30
0.0
 11
65.366761142986348
 21
211.014713
 31
0.0
  0
POLYLINE
  5
3E
  8
2
 66
     1
 10
0.0
 20
0.0
 30
0.0
  0
VERTEX
  5
3F
  8
2
 10
75.866761142986348
 20
211.014713
 30
0.0
 42
-0.4142140000000001
  0
VERTEX
  5
40
  8
2
 10
77.366761142986348
 20
209.514713
 30
0.0
  0
VERTEX
  5
41
  8
2
 10
77.366761142986348
 20
209.28554399999999
 30
0.0
 42
-0.181169
  0
VERTEX
  5
42
  8
2
 10
76.997530142986335
 20
208.29996800000001
 30
0.0
 42
0.374634
  0
VERTEX
  5
43
  8
2
 10
76.997530142986335
 20
201.72945799999999
 30
0.0
 42
-0.181169
  0
VERTEX
  5
44
  8
2
 10
77.366761142986348
 20
200.74388200000001
 30
0.0
  0
VERTEX
  5
45
  8
2
 10
77.366761142986348
 20
200.514713
 30
0.0
 42
-0.4142140000000001
  0
VERTEX
  5
46
  8
2
 10
75.866761142986348
 20
199.014713
 30
0.0
  0
SEQEND
  5
47
  8
2
  0
ARC
  5
48
  8
0
 10
65.366761142986348
 20
202.014713
 30
0.0
 40
3.0
 50
180.0
 51
270.0
  0
ARC
  5
49
  8
0
 10
65.366761142986348
 20
208.014713
 30
0.0
 40
3.0
 50
90.0
 51
180.0
  0
LINE
  5
4A
  8
0
 10
77.366761142986348
 20
211.014713
 30
0.0
 11
77.366761142986348
 21
199.014713
 31
0.0
  0
LINE
  5
4B
  8
0
 10
62.366761142986348
 20
202.014713
 30
0.0
 11
62.366761142986348
 21
208.014713
 31
0.0
  0
LINE
  5
4C
  8
0
 10
297.36676114298632
 20
209.514713
 30
0.0
 11
77.366761142986348
 21
209.514713
 31
0.0
  0
LINE
  5
4D
  8
0
 10
77.366761142986348
 20
200.514713
 30
0.0
 11
297.36676114298632
 21
200.514713
 31
0.0
  0
LINE
  5
4E
  8
0
 10
297.36676114298632
 20
205.514713
 30
0.0
 11
77.366761142986348
 21
205.514713
 31
0.0
  0
LINE
  5
4F
  8
0
 10
297.36676114298632
 20
206.514713
 30
0.0
 11
77.366761142986348
 21
206.514713
 31
0.0
  0
LINE
  5
50
  8
0
 10
297.36676114298632
 20
207.514713
 30
0.0
 11
77.366761142986348
 21
207.514713
 31
0.0
  0
LINE
  5
51
  8
0
 10
297.36676114298632
 20
208.514713
 30
0.0
 11
77.366761142986348
 21
208.514713
 31
0.0
  0
LINE
  5
52
  8
0
 10
297.36676114298632
 20
201.514713
 30
0.0
 11
77.366761142986348
 21
201.514713
 31
0.0
  0
LINE
  5
53
  8
0
 10
297.36676114298632
 20
202.514713
 30
0.0
 11
77.366761142986348
 21
202.514713
 31
0.0
  0
LINE
  5
54
  8
0
 10
297.36676114298632
 20
203.514713
 30
0.0
 11
77.366761142986348
 21
203.514713
 31
0.0
  0
LINE
  5
55
  8
0
 10
297.36676114298632
 20
204.514713
 30
0.0
 11
77.366761142986348
 21
204.514713
 31
0.0
  0
LINE
  5
56
  8
1
 10
69.866761142986348
 20
194.014713
 30
0.0
 11
69.866761142986348
 21
216.014713
 31
0.0
  0
CIRCLE
  5
57
  8
0
 10
69.866761142986348
 20
205.014713
 30
0.0
 40
4.5
  0
LINE
  5
58
  8
0
 10
67.866761142986348
 20
206.16941299999999
 30
0.0
 11
67.866761142986348
 21
203.86001200000001
 31
0.0
  0
LINE
  5
59
  8
0
 10
69.866761142986348
 20
207.32411400000001
 30
0.0
 11
67.866761142986348
 21
206.16941299999999
 31
0.0
  0
LINE
  5
5A
  8
0
 10
71.866761142986334
 20
206.16941299999999
 30
0.0
 11
69.866761142986348
 21
207.32411400000001
 31
0.0
  0
LINE
  5
5B
  8
0
 10
71.866761142986334
 20
203.86001200000001
 30
0.0
 11
71.866761142986334
 21
206.16941299999999
 31
0.0
  0
LINE
  5
5C
  8
0
 10
69.866761142986348
 20
202.70531199999999
 30
0.0
 11
71.866761142986334
 21
203.86001200000001
 31
0.0
  0
LINE
  5
5D
  8
0
 10
67.866761142986348
 20
203.86001200000001
 30
0.0
 11
69.866761142986348
 21
202.70531199999999
 31
0.0
  0
CIRCLE
  5
5E
  8
0
 10
69.866761142986348
 20
205.014713
 30
0.0
 40
4.2000000000000002
  0
CIRCLE
  5
5F
  8
0
 10
304.86676114298632
 20
205.014713
 30
0.0
 40
4.2000000000000002
  0
LINE
  5
60
  8
0
 10
306.86676114298632
 20
203.86001200000001
 30
0.0
 11
304.86676114298632
 21
202.70531199999999
 31
0.0
  0
LINE
  5
61
  8
0
 10
304.86676114298632
 20
202.70531199999999
 30
0.0
 11
302.86676114298632
 21
203.86001200000001
 31
0.0
  0
LINE
  5
62
  8
0
 10
302.86676114298632
 20
203.86001200000001
 30
0.0
 11
302.86676114298632
 21
206.16941299999999
 31
0.0
  0
LINE
  5
63
  8
0
 10
302.86676114298632
 20
206.16941299999999
 30
0.0
 11
304.86676114298632
 21
207.32411400000001
 31
0.0
  0
LINE
  5
64
  8
0
 10
304.86676114298632
 20
207.32411400000001
 30
0.0
 11
306.86676114298632
 21
206.16941299999999
 31
0.0
  0
LINE
  5
65
  8
0
 10
306.86676114298632
 20
206.16941299999999
 30
0.0
 11
306.86676114298632
 21
203.86001200000001
 31
0.0
  0
CIRCLE
  5
66
  8
0
 10
304.86676114298632
 20
205.014713
 30
0.0
 40
4.5
  0
LINE
  5
67
  8
0
 10
312.36676114298632
 20
202.014713
 30
0.0
 11
312.36676114298632
 21
208.014713
 31
0.0
  0
LINE
  5
68
  8
0
 10
297.36676114298632
 20
211.014713
 30
0.0
 11
297.36676114298632
 21
199.014713
 31
0.0
  0
ARC
  5
69
  8
0
 10
309.36676114298632
 20
208.014713
 30
0.0
 40
3.0
 50
0.0
 51
90.0
  0
ARC
  5
6A
  8
0
 10
309.36676114298632
 20
202.014713
 30
0.0
 40
3.0
 50
270.0
 51
0.0
  0
POLYLINE
  5
6B
  8
2
 66
     1
 10
0.0
 20
0.0
 30
0.0
  0
VERTEX
  5
6C
  8
2
 10
298.86676114298632
 20
211.014713
 30
0.0
 42
0.4142140000000001
  0
VERTEX
  5
6D
  8
2
 10
297.36676114298632
 20
209.514713
 30
0.0
  0
VERTEX
  5
6E
  8
2
 10
297.36676114298632
 20
209.28554399999999
 30
0.0
 42
0.181169
  0
VERTEX
  5
6F
  8
2
 10
297.73599214298628
 20
208.29996800000001
 30
0.0
 42
-0.374634
  0
VERTEX
  5
70
  8
2
 10
297.73599214298628
 20
201.72945799999999
 30
0.0
 42
0.181169
  0
VERTEX
  5
71
  8
2
 10
297.36676114298632
 20
200.74388200000001
 30
0.0
  0
VERTEX
  5
72
  8
2
 10
297.36676114298632
 20
200.514713
 30
0.0
 42
0.4142140000000001
  0
VERTEX
  5
73
  8
2
 10
298.86676114298632
 20
199.014713
 30
0.0
  0
SEQEND
  5
74
  8
2
  0
LINE
  5
75
  8
1
 10
304.86676114298632
 20
194.014713
 30
0.0
 11
304.86676114298632
 21
216.014713
 31
0.0
  0
LINE
  5
77
  8
0
 10
304.86678414298632
 20
102.49004100000001
 30
0.0
 11
304.86678414298632
 21
104.975048
 31
0.0
  0
LINE
  5
78
  8
0
 10
300.96677214298637
 20
102.075039
 30
0.0
 11
308.76679614298632
 21
102.075039
 31
0.0
  0
ARC
  5
79
  8
3
 10
302.86677814298628
 20
107.90950100000001
 30
0.0
 40
5.7767269999999993
 50
249.743842
 51
290.25615800000003
  0
LINE
  5
7A
  8
0
 10
300.86677214298629
 20
102.132775
 30
0.0
 11
300.96677214298637
 21
102.075039
 31
0.0
  0
LINE
  5
7B
  8
0
 10
300.86677214298629
 20
104.975048
 30
0.0
 11
300.86677214298629
 21
102.132775
 31
0.0
  0
LINE
  5
7C
  8
0
 10
308.86679614298629
 20
104.975048
 30
0.0
 11
308.86679614298629
 21
102.132775
 31
0.0
  0
LINE
  5
7D
  8
0
 10
308.86679614298629
 20
102.132775
 30
0.0
 11
308.76679614298632
 21
102.075039
 31
0.0
  0
ARC
  5
7E
  8
3
 10
306.8667901429863
 20
107.90950100000001
 30
0.0
 40
5.7767269999999993
 50
249.743842
 51
290.25615800000003
  0
LINE
  5
7F
  8
0
 10
307.3667921429863
 20
105.03278299999999
 30
0.0
 11
307.3667921429863
 21
106.407813
 31
0.0
  0
LINE
  5
80
  8
3
 10
306.93379014298631
 20
105.03278299999999
 30
0.0
 11
306.93379014298631
 21
106.407813
 31
0.0
  0
LINE
  5
81
  8
3
 10
302.79977814298633
 20
105.03278299999999
 30
0.0
 11
302.79977814298633
 21
106.407813
 31
0.0
  0
LINE
  5
82
  8
0
 10
302.36677614298628
 20
105.03278299999999
 30
0.0
 11
302.36677614298628
 21
106.407813
 31
0.0
  0
ARC
  5
83
  8
3
 10
306.8667901429863
 20
99.198321000000007
 30
0.0
 40
5.7767269999999993
 50
69.743842000000001
 51
110.256158
  0
LINE
  5
84
  8
0
 10
308.86679614298629
 20
104.975048
 30
0.0
 11
308.76679614298632
 21
105.03278299999999
 31
0.0
  0
LINE
  5
85
  8
0
 10
300.86677214298629
 20
104.975048
 30
0.0
 11
300.96677214298637
 21
105.03278299999999
 31
0.0
  0
ARC
  5
86
  8
3
 10
302.86677814298628
 20
99.198321000000007
 30
0.0
 40
5.7767269999999993
 50
69.743842000000001
 51
110.256158
  0
LINE
  5
87
  8
0
 10
300.96677214298637
 20
105.03278299999999
 30
0.0
 11
308.76679614298632
 21
105.03278299999999
 31
0.0
  0
LINE
  5
88
  8
0
 10
299.36676714298642
 20
106.407813
 30
0.0
 11
310.36680114298639
 21
106.407813
 31
0.0
  0
LINE
  5
89
  8
0
 10
299.36676714298642
 20
107.456524
 30
0.0
 11
310.36680114298639
 21
107.456524
 31
0.0
  0
LINE
  5
8A
  8
0
 10
310.36680114298639
 20
107.456524
 30
0.0
 11
310.36680114298639
 21
106.407813
 31
0.0
  0
LINE
  5
8B
  8
0
 10
299.36676714298642
 20
107.456524
 30
0.0
 11
299.36676714298642
 21
106.407813
 31
0.0
  0
LINE
  5
8C
  8
0
 10
72.366792142986355
 20
107.456524
 30
0.0
 11
72.366792142986355
 21
109.77506200000001
 31
0.0
  0
LINE
  5
8D
  8
3
 10
71.933790142986339
 20
107.456524
 30
0.0
 11
71.933790142986339
 21
109.77506200000001
 31
0.0
  0
LINE
  5
8E
  8
0
 10
67.366776142986339
 20
107.456524
 30
0.0
 11
67.366776142986339
 21
109.77506200000001
 31
0.0
  0
LINE
  5
8F
  8
3
 10
67.799778142986327
 20
107.456524
 30
0.0
 11
67.799778142986327
 21
109.77506200000001
 31
0.0
  0
LINE
  5
90
  8
0
 10
64.366767142986362
 20
107.456524
 30
0.0
 11
64.366767142986362
 21
106.407813
 31
0.0
  0
LINE
  5
91
  8
0
 10
75.366801142986333
 20
107.456524
 30
0.0
 11
75.366801142986333
 21
106.407813
 31
0.0
  0
LINE
  5
92
  8
0
 10
64.366767142986362
 20
107.456524
 30
0.0
 11
75.366801142986333
 21
107.456524
 31
0.0
  0
LINE
  5
93
  8
0
 10
64.366767142986362
 20
106.407813
 30
0.0
 11
75.366801142986333
 21
106.407813
 31
0.0
  0
LINE
  5
94
  8
0
 10
65.966772142986315
 20
105.03278299999999
 30
0.0
 11
73.766796142986323
 21
105.03278299999999
 31
0.0
  0
ARC
  5
95
  8
3
 10
67.866778142986334
 20
99.198321000000007
 30
0.0
 40
5.7767269999999993
 50
69.743842000000001
 51
110.256158
  0
LINE
  5
96
  8
0
 10
65.866772142986349
 20
104.975048
 30
0.0
 11
65.966772142986315
 21
105.03278299999999
 31
0.0
  0
LINE
  5
97
  8
0
 10
73.866796142986317
 20
104.975048
 30
0.0
 11
73.766796142986323
 21
105.03278299999999
 31
0.0
  0
ARC
  5
98
  8
3
 10
71.86679014298636
 20
99.198321000000007
 30
0.0
 40
5.7767269999999993
 50
69.743842000000001
 51
110.256158
  0
LINE
  5
99
  8
0
 10
32.099530109851457
 20
107.456524
 30
0.0
 11
32.099530109851457
 21
109.77506200000001
 31
0.0
  0
LINE
  5
9A
  8
3
 10
32.532531109851462
 20
107.456524
 30
0.0
 11
32.532531109851462
 21
109.77506200000001
 31
0.0
  0
LINE
  5
9B
  8
3
 10
36.666544109851458
 20
107.456524
 30
0.0
 11
36.666544109851458
 21
109.77506200000001
 31
0.0
  0
LINE
  5
9C
  8
0
 10
37.099545109851462
 20
107.456524
 30
0.0
 11
37.099545109851462
 21
109.77506200000001
 31
0.0
  0
LINE
  5
9D
  8
0
 10
38.499549109851472
 20
105.39005
 30
0.0
 11
30.69952510985145
 21
105.39005
 31
0.0
  0
LINE
  5
9E
  8
0
 10
39.218354109851461
 20
104.975048
 30
0.0
 11
38.499549109851472
 21
105.39005
 31
0.0
  0
ARC
  5
9F
  8
3
 10
38.063650109851451
 20
103.28765
 30
0.0
 40
2.044664
 50
64.384247000000002
 51
124.384247
  0
ARC
  5
A0
  8
3
 10
34.599537109851447
 20
97.689556999999994
 30
0.0
 40
7.6427579999999997
 50
72.412045999999989
 51
107.587954
  0
ARC
  5
A1
  8
3
 10
31.135425109851461
 20
103.28765
 30
0.0
 40
2.044664
 50
55.615753000000012
 51
115.615753
  0
LINE
  5
A2
  8
0
 10
29.980721109851459
 20
104.975048
 30
0.0
 11
30.69952510985145
 21
105.39005
 31
0.0
  0
LINE
  5
A3
  8
0
 10
29.099520109851461
 20
106.407813
 30
0.0
 11
40.099554109851447
 21
106.407813
 31
0.0
  0
LINE
  5
A4
  8
1
 10
304.86678414298632
 20
95.659634999999994
 30
0.0
 11
304.86678414298632
 21
152.890479
 31
0.0
  0
LINE
  5
A5
  8
1
 10
69.866784142986333
 20
95.659634999999994
 30
0.0
 11
69.866784142986333
 21
152.890479
 31
0.0
  0
LINE
  5
A6
  8
1
 10
34.599537109851447
 20
152.890479
 30
0.0
 11
34.599537109851447
 21
95.659634999999994
 31
0.0
  0
ARC
  5
A7
  8
0
 10
72.366792142986355
 20
118.70392200000001
 30
0.0
 40
5.0000150000000003
 50
0.0
 51
45.0
  0
ARC
  5
A8
  8
0
 10
72.366792142986355
 20
140.846125
 30
0.0
 40
5.0000150000000003
 50
315.0
 51
0.0
  0
ARC
  5
A9
  8
0
 10
301.3667731429864
 20
127.603444
 30
0.0
 40
2.0000059999999991
 50
315.0
 51
0.0
  0
ARC
  5
AA
  8
0
 10
301.3667731429864
 20
131.94660300000001
 30
0.0
 40
2.0000059999999991
 50
0.0
 51
45.0
  0
ARC
  5
AB
  8
0
 10
302.36677614298628
 20
140.846125
 30
0.0
 40
5.0000150000000003
 50
180.0
 51
225.0
  0
ARC
  5
AC
  8
0
 10
302.36677614298628
 20
118.70392200000001
 30
0.0
 40
5.0000150000000003
 50
135.0
 51
180.0
  0
LINE
  5
AD
  8
0
 10
77.366807142986346
 20
140.846125
 30
0.0
 11
77.366807142986346
 21
149.77508499999999
 31
0.0
  0
LINE
  5
AE
  8
0
 10
302.36677614298628
 20
125.77501100000001
 30
0.0
 11
302.36677614298628
 21
133.775036
 31
0.0
  0
LINE
  5
AF
  8
0
 10
297.36676114298632
 20
118.70392200000001
 30
0.0
 11
297.36676114298632
 21
109.77506200000001
 31
0.0
  0
LINE
  5
B0
  8
0
 10
302.7809911429863
 20
133.36082099999999
 30
0.0
 11
298.83123214298632
 21
137.31058100000001
 31
0.0
  0
LINE
  5
B1
  8
0
 10
302.7809911429863
 20
126.18922600000001
 30
0.0
 11
298.83123214298632
 21
122.239467
 31
0.0
  0
LINE
  5
B2
  8
0
 10
303.36677914298627
 20
131.94660300000001
 30
0.0
 11
303.36677914298627
 21
127.603444
 31
0.0
  0
ARC
  5
B3
  8
3
 10
31.135425109851461
 20
104.17743900000001
 30
0.0
 40
2.044664
 50
244.38424699999999
 51
304.38424700000002
  0
LINE
  5
B4
  8
0
 10
29.980721109851459
 20
102.49004100000001
 30
0.0
 11
30.69952510985145
 21
102.075039
 31
0.0
  0
ARC
  5
B5
  8
3
 10
34.599537109851447
 20
109.775532
 30
0.0
 40
7.6427579999999997
 50
252.412046
 51
287.58795400000002
  0
LINE
  5
B6
  8
0
 10
39.218354109851461
 20
102.49004100000001
 30
0.0
 11
38.499549109851472
 21
102.075039
 31
0.0
  0
ARC
  5
B7
  8
3
 10
38.063650109851451
 20
104.17743900000001
 30
0.0
 40
2.044664
 50
235.61575300000001
 51
295.61575299999998
  0
LINE
  5
B8
  8
0
 10
29.980721109851459
 20
104.975048
 30
0.0
 11
29.980721109851459
 21
102.49004100000001
 31
0.0
  0
LINE
  5
B9
  8
0
 10
32.290129109851463
 20
104.975048
 30
0.0
 11
32.290129109851463
 21
102.49004100000001
 31
0.0
  0
LINE
  5
BA
  8
0
 10
36.908945109851459
 20
102.49004100000001
 30
0.0
 11
36.908945109851459
 21
104.975048
 31
0.0
  0
LINE
  5
BB
  8
0
 10
39.218354109851461
 20
104.975048
 30
0.0
 11
39.218354109851461
 21
102.49004100000001
 31
0.0
  0
LINE
  5
BC
  8
0
 10
38.499549109851472
 20
102.075039
 30
0.0
 11
30.69952510985145
 21
102.075039
 31
0.0
  0
LINE
  5
BD
  8
0
 10
37.099545109851462
 20
99.675032000000016
 30
0.0
 11
37.099545109851462
 21
102.075039
 31
0.0
  0
LINE
  5
BE
  8
0
 10
32.099530109851457
 20
99.675032000000016
 30
0.0
 11
32.099530109851457
 21
102.075039
 31
0.0
  0
LINE
  5
BF
  8
0
 10
32.999532109851458
 20
98.775029000000004
 30
0.0
 11
36.199542109851471
 21
98.775029000000004
 31
0.0
  0
LINE
  5
C0
  8
3
 10
36.666544109851458
 20
99.242031000000011
 30
0.0
 11
36.666544109851458
 21
102.075039
 31
0.0
  0
LINE
  5
C1
  8
3
 10
32.532531109851462
 20
99.242031000000011
 30
0.0
 11
32.532531109851462
 21
102.075039
 31
0.0
  0
LINE
  5
C2
  8
0
 10
37.099545109851462
 20
99.675032000000016
 30
0.0
 11
36.199542109851471
 21
98.775029000000004
 31
0.0
  0
LINE
  5
C3
  8
0
 10
32.999532109851458
 20
98.775029000000004
 30
0.0
 11
32.099530109851457
 21
99.675032000000016
 31
0.0
  0
LINE
  5
C4
  8
0
 10
37.099545109851462
 20
99.675032000000016
 30
0.0
 11
32.099530109851457
 21
99.675032000000016
 31
0.0
  0
LINE
  5
C5
  8
0
 10
29.099520109851461
 20
107.456524
 30
0.0
 11
40.099554109851447
 21
107.456524
 31
0.0
  0
LINE
  5
C6
  8
0
 10
40.099554109851447
 20
107.456524
 30
0.0
 11
40.099554109851447
 21
106.407813
 31
0.0
  0
LINE
  5
C7
  8
0
 10
29.099520109851461
 20
107.456524
 30
0.0
 11
29.099520109851461
 21
106.407813
 31
0.0
  0
LINE
  5
C8
  8
0
 10
37.099545109851462
 20
105.39005
 30
0.0
 11
37.099545109851462
 21
106.407813
 31
0.0
  0
LINE
  5
C9
  8
3
 10
36.666544109851458
 20
105.39005
 30
0.0
 11
36.666544109851458
 21
106.407813
 31
0.0
  0
LINE
  5
CA
  8
3
 10
32.532531109851462
 20
105.39005
 30
0.0
 11
32.532531109851462
 21
106.407813
 31
0.0
  0
LINE
  5
CB
  8
0
 10
32.099530109851457
 20
105.39005
 30
0.0
 11
32.099530109851457
 21
106.407813
 31
0.0
  0
LINE
  5
CC
  8
0
 10
312.36680714298632
 20
146.77507600000001
 30
0.0
 11
312.36680714298632
 21
109.77506200000001
 31
0.0
  0
LINE
  5
CD
  8
0
 10
297.36676114298632
 20
149.77508499999999
 30
0.0
 11
297.36676114298632
 21
140.846125
 31
0.0
  0
ARC
  5
CE
  8
0
 10
309.36679814298628
 20
146.77507600000001
 30
0.0
 40
3.000008999999999
 50
0.0
 51
90.0
  0
LINE
  5
CF
  8
0
 10
302.36677614298628
 20
99.675032000000016
 30
0.0
 11
302.36677614298628
 21
102.075039
 31
0.0
  0
LINE
  5
D0
  8
0
 10
307.3667921429863
 20
99.675032000000016
 30
0.0
 11
307.3667921429863
 21
102.075039
 31
0.0
  0
LINE
  5
D1
  8
0
 10
306.46678914298627
 20
98.775029000000004
 30
0.0
 11
303.26677914298631
 21
98.775029000000004
 31
0.0
  0
LINE
  5
D2
  8
3
 10
302.79977814298633
 20
99.242031000000011
 30
0.0
 11
302.79977814298633
 21
102.075039
 31
0.0
  0
LINE
  5
D3
  8
3
 10
306.93379014298631
 20
99.242031000000011
 30
0.0
 11
306.93379014298631
 21
102.075039
 31
0.0
  0
LINE
  5
D4
  8
0
 10
302.36677614298628
 20
99.675032000000016
 30
0.0
 11
303.26677914298631
 21
98.775029000000004
 31
0.0
  0
LINE
  5
D5
  8
0
 10
306.46678914298627
 20
98.775029000000004
 30
0.0
 11
307.3667921429863
 21
99.675032000000016
 31
0.0
  0
LINE
  5
D6
  8
0
 10
302.36677614298628
 20
99.675032000000016
 30
0.0
 11
307.3667921429863
 21
99.675032000000016
 31
0.0
  0
LINE
  5
D7
  8
0
 10
312.36680714298632
 20
109.77506200000001
 30
0.0
 11
297.36676114298632
 21
109.77506200000001
 31
0.0
  0
LINE
  5
D8
  8
0
 10
302.36677614298628
 20
107.456524
 30
0.0
 11
302.36677614298628
 21
109.77506200000001
 31
0.0
  0
LINE
  5
D9
  8
3
 10
302.79977814298633
 20
107.456524
 30
0.0
 11
302.79977814298633
 21
109.77506200000001
 31
0.0
  0
LINE
  5
DA
  8
3
 10
306.93379014298631
 20
107.456524
 30
0.0
 11
306.93379014298631
 21
109.77506200000001
 31
0.0
  0
LINE
  5
DB
  8
0
 10
307.3667921429863
 20
107.456524
 30
0.0
 11
307.3667921429863
 21
109.77506200000001
 31
0.0
  0
LINE
  5
DC
  8
0
 10
67.366776142986339
 20
105.03278299999999
 30
0.0
 11
67.366776142986339
 21
106.407813
 31
0.0
  0
LINE
  5
DD
  8
3
 10
67.799778142986327
 20
105.03278299999999
 30
0.0
 11
67.799778142986327
 21
106.407813
 31
0.0
  0
LINE
  5
DE
  8
3
 10
71.933790142986339
 20
105.03278299999999
 30
0.0
 11
71.933790142986339
 21
106.407813
 31
0.0
  0
LINE
  5
DF
  8
0
 10
72.366792142986355
 20
105.03278299999999
 30
0.0
 11
72.366792142986355
 21
106.407813
 31
0.0
  0
ARC
  5
E0
  8
3
 10
71.86679014298636
 20
107.90950100000001
 30
0.0
 40
5.7767269999999993
 50
249.743842
 51
290.25615800000003
  0
LINE
  5
E1
  8
0
 10
73.866796142986317
 20
102.132775
 30
0.0
 11
73.766796142986323
 21
102.075039
 31
0.0
  0
LINE
  5
E2
  8
0
 10
73.866796142986317
 20
104.975048
 30
0.0
 11
73.866796142986317
 21
102.132775
 31
0.0
  0
LINE
  5
E3
  8
0
 10
65.866772142986349
 20
104.975048
 30
0.0
 11
65.866772142986349
 21
102.132775
 31
0.0
  0
LINE
  5
E4
  8
0
 10
65.866772142986349
 20
102.132775
 30
0.0
 11
65.966772142986315
 21
102.075039
 31
0.0
  0
ARC
  5
E5
  8
3
 10
67.866778142986334
 20
107.90950100000001
 30
0.0
 40
5.7767269999999993
 50
249.743842
 51
290.25615800000003
  0
LINE
  5
E6
  8
0
 10
65.966772142986315
 20
102.075039
 30
0.0
 11
73.766796142986323
 21
102.075039
 31
0.0
  0
LINE
  5
E7
  8
0
 10
69.866784142986333
 20
102.49004100000001
 30
0.0
 11
69.866784142986333
 21
104.975048
 31
0.0
  0
LINE
  5
E8
  8
0
 10
62.366761142986348
 20
109.77506200000001
 30
0.0
 11
77.366807142986346
 21
109.77506200000001
 31
0.0
  0
LINE
  5
E9
  8
0
 10
72.366792142986355
 20
99.675032000000016
 30
0.0
 11
67.366776142986339
 21
99.675032000000016
 31
0.0
  0
LINE
  5
EA
  8
0
 10
68.266779142986337
 20
98.775029000000004
 30
0.0
 11
67.366776142986339
 21
99.675032000000016
 31
0.0
  0
LINE
  5
EB
  8
0
 10
72.366792142986355
 20
99.675032000000016
 30
0.0
 11
71.466789142986357
 21
98.775029000000004
 31
0.0
  0
LINE
  5
EC
  8
3
 10
67.799778142986327
 20
99.242031000000011
 30
0.0
 11
67.799778142986327
 21
102.075039
 31
0.0
  0
LINE
  5
ED
  8
3
 10
71.933790142986339
 20
99.242031000000011
 30
0.0
 11
71.933790142986339
 21
102.075039
 31
0.0
  0
LINE
  5
EE
  8
0
 10
68.266779142986337
 20
98.775029000000004
 30
0.0
 11
71.466789142986357
 21
98.775029000000004
 31
0.0
  0
LINE
  5
EF
  8
0
 10
67.366776142986339
 20
99.675032000000016
 30
0.0
 11
67.366776142986339
 21
102.075039
 31
0.0
  0
LINE
  5
F0
  8
0
 10
72.366792142986355
 20
99.675032000000016
 30
0.0
 11
72.366792142986355
 21
102.075039
 31
0.0
  0
LINE
  5
F1
  8
1
 10
25.484125109851451
 20
145.275071
 30
0.0
 11
43.714950109851451
 21
145.275071
 31
0.0
  0
ARC
  5
F2
  8
0
 10
30.099523109851479
 20
148.275081
 30
0.0
 40
1.5000049999999989
 50
90.0
 51
180.0
  0
ARC
  5
F3
  8
0
 10
39.099551109851461
 20
148.275081
 30
0.0
 40
1.5000049999999989
 50
0.0
 51
90.0
  0
LINE
  5
F4
  8
2
 10
40.599556109851463
 20
140.775057
 30
0.0
 11
28.59951910985146
 21
140.775057
 31
0.0
  0
LINE
  5
F5
  8
0
 10
28.59951910985146
 20
148.275081
 30
0.0
 11
28.59951910985146
 21
109.77506200000001
 31
0.0
  0
LINE
  5
F6
  8
0
 10
39.099551109851461
 20
149.77508499999999
 30
0.0
 11
30.099523109851479
 21
149.77508499999999
 31
0.0
  0
LINE
  5
F7
  8
0
 10
40.599556109851463
 20
109.77506200000001
 30
0.0
 11
40.599556109851463
 21
148.275081
 31
0.0
  0
LINE
  5
F8
  8
0
 10
28.59951910985146
 20
109.77506200000001
 30
0.0
 11
40.599556109851463
 21
109.77506200000001
 31
0.0
  0
LINE
  5
F9
  8
1
 10
59.251367142986339
 20
145.275071
 30
0.0
 11
315.4822011429863
 21
145.275071
 31
0.0
  0
ARC
  5
FA
  8
0
 10
65.366770142986326
 20
146.77507600000001
 30
0.0
 40
3.000008999999999
 50
90.0
 51
180.0
  0
LINE
  5
FB
  8
0
 10
77.366807142986346
 20
140.775057
 30
0.0
 11
297.36676114298632
 21
140.775057
 31
0.0
  0
LINE
  5
FC
  8
0
 10
65.366770142986326
 20
149.77508499999999
 30
0.0
 11
309.36679814298628
 21
149.77508499999999
 31
0.0
  0
LINE
  5
FD
  8
0
 10
77.366807142986346
 20
109.77506200000001
 30
0.0
 11
77.366807142986346
 21
118.70392200000001
 31
0.0
  0
LINE
  5
FE
  8
0
 10
62.366761142986348
 20
146.77507600000001
 30
0.0
 11
62.366761142986348
 21
109.77506200000001
 31
0.0
  0
LINE
  5
FF
  8
1
 10
57.366761142986348
 20
205.014713
 30
0.0
 11
317.36676114298632
 21
205.014713
 31
0.0
  0
LINE
  5
100
  8
0
 10
72.366792142986355
 20
125.77501100000001
 30
0.0
 11
72.366792142986355
 21
133.775036
 31
0.0
  0
LINE
  5
101
  8
0
 10
71.366789142986335
 20
131.94660300000001
 30
0.0
 11
71.366789142986335
 21
127.603444
 31
0.0
  0
LINE
  5
102
  8
0
 10
72.366792142986355
 20
125.77501100000001
 30
0.0
 11
72.366792142986355
 21
133.775036
 31
0.0
  0
ARC
  5
103
  8
0
 10
73.366795142986319
 20
131.94660300000001
 30
0.0
 40
2.0000059999999991
 50
135.0
 51
180.0
  0
ARC
  5
104
  8
0
 10
73.366795142986319
 20
127.603444
 30
0.0
 40
2.0000059999999991
 50
180.0
 51
225.0
  0
LINE
  5
105
  8
0
 10
71.952577142986343
 20
133.36082099999999
 30
0.0
 11
75.90233714298634
 21
137.31058100000001
 31
0.0
  0
LINE
  5
106
  8
0
 10
71.952577142986343
 20
126.18922600000001
 30
0.0
 11
75.90233714298634
 21
122.239467
 31
0.0
  0
ARC
  5
107
  8
0
 10
73.366795142986319
 20
127.603444
 30
0.0
 40
2.0000059999999991
 50
180.0
 51
225.0
  0
ARC
  5
108
  8
0
 10
73.366795142986319
 20
131.94660300000001
 30
0.0
 40
2.0000059999999991
 50
135.0
 51
180.0
  0
LINE
  5
109
  8
0
 10
345.6889095381382
 20
109.77506200000001
 30
0.0
 11
333.6888725381383
 21
109.77506200000001
 31
0.0
  0
LINE
  5
10A
  8
0
 10
333.6888725381383
 20
109.77506200000001
 30
0.0
 11
333.6888725381383
 21
148.275081
 31
0.0
  0
LINE
  5
10B
  8
0
 10
335.18887753813817
 20
149.77508499999999
 30
0.0
 11
344.18890553813821
 21
149.77508499999999
 31
0.0
  0
LINE
  5
10C
  8
0
 10
345.6889095381382
 20
148.275081
 30
0.0
 11
345.6889095381382
 21
109.77506200000001
 31
0.0
  0
LINE
  5
10D
  8
2
 10
333.6888725381383
 20
140.775057
 30
0.0
 11
345.6889095381382
 21
140.775057
 31
0.0
  0
ARC
  5
10E
  8
0
 10
335.18887753813817
 20
148.275081
 30
0.0
 40
1.5000049999999989
 50
90.0
 51
180.0
  0
ARC
  5
10F
  8
0
 10
344.18890553813821
 20
148.275081
 30
0.0
 40
1.5000049999999989
 50
0.0
 51
90.0
  0
LINE
  5
110
  8
1
 10
348.80430353813819
 20
145.275071
 30
0.0
 11
330.57347853813832
 21
145.275071
 31
0.0
  0
LINE
  5
111
  8
0
 10
342.18889853813818
 20
105.39005
 30
0.0
 11
342.18889853813818
 21
106.407813
 31
0.0
  0
LINE
  5
112
  8
3
 10
341.75589753813819
 20
105.39005
 30
0.0
 11
341.75589753813819
 21
106.407813
 31
0.0
  0
LINE
  5
113
  8
3
 10
337.6218845381382
 20
105.39005
 30
0.0
 11
337.6218845381382
 21
106.407813
 31
0.0
  0
LINE
  5
114
  8
0
 10
337.18888353813833
 20
105.39005
 30
0.0
 11
337.18888353813833
 21
106.407813
 31
0.0
  0
LINE
  5
115
  8
0
 10
345.18890853813832
 20
107.456524
 30
0.0
 11
345.18890853813832
 21
106.407813
 31
0.0
  0
LINE
  5
116
  8
0
 10
334.18887453813818
 20
107.456524
 30
0.0
 11
334.18887453813818
 21
106.407813
 31
0.0
  0
LINE
  5
117
  8
0
 10
345.18890853813832
 20
107.456524
 30
0.0
 11
334.18887453813818
 21
107.456524
 31
0.0
  0
LINE
  5
118
  8
0
 10
337.18888353813833
 20
99.675032000000016
 30
0.0
 11
342.18889853813818
 21
99.675032000000016
 31
0.0
  0
LINE
  5
119
  8
0
 10
341.2888965381382
 20
98.775029000000004
 30
0.0
 11
342.18889853813818
 21
99.675032000000016
 31
0.0
  0
LINE
  5
11A
  8
0
 10
337.18888353813833
 20
99.675032000000016
 30
0.0
 11
338.0888865381383
 21
98.775029000000004
 31
0.0
  0
LINE
  5
11B
  8
3
 10
341.75589753813819
 20
99.242031000000011
 30
0.0
 11
341.75589753813819
 21
102.075039
 31
0.0
  0
LINE
  5
11C
  8
3
 10
337.6218845381382
 20
99.242031000000011
 30
0.0
 11
337.6218845381382
 21
102.075039
 31
0.0
  0
LINE
  5
11D
  8
0
 10
341.2888965381382
 20
98.775029000000004
 30
0.0
 11
338.0888865381383
 21
98.775029000000004
 31
0.0
  0
LINE
  5
11E
  8
0
 10
342.18889853813818
 20
99.675032000000016
 30
0.0
 11
342.18889853813818
 21
102.075039
 31
0.0
  0
LINE
  5
11F
  8
0
 10
337.18888353813833
 20
99.675032000000016
 30
0.0
 11
337.18888353813833
 21
102.075039
 31
0.0
  0
LINE
  5
120
  8
0
 10
335.78887953813819
 20
102.075039
 30
0.0
 11
343.58890353813831
 21
102.075039
 31
0.0
  0
LINE
  5
121
  8
0
 10
335.07007453813827
 20
104.975048
 30
0.0
 11
335.07007453813827
 21
102.49004100000001
 31
0.0
  0
LINE
  5
122
  8
0
 10
337.37948353813817
 20
102.49004100000001
 30
0.0
 11
337.37948353813817
 21
104.975048
 31
0.0
  0
LINE
  5
123
  8
0
 10
341.99829953813833
 20
104.975048
 30
0.0
 11
341.99829953813833
 21
102.49004100000001
 31
0.0
  0
LINE
  5
124
  8
0
 10
344.30770753813817
 20
104.975048
 30
0.0
 11
344.30770753813817
 21
102.49004100000001
 31
0.0
  0
ARC
  5
125
  8
3
 10
336.22477853813831
 20
104.17743900000001
 30
0.0
 40
2.044664
 50
244.38424699999999
 51
304.38424700000002
  0
LINE
  5
126
  8
0
 10
335.07007453813827
 20
102.49004100000001
 30
0.0
 11
335.78887953813819
 21
102.075039
 31
0.0
  0
ARC
  5
127
  8
3
 10
339.68889153813819
 20
109.775532
 30
0.0
 40
7.6427579999999997
 50
252.412046
 51
287.58795400000002
  0
LINE
  5
128
  8
0
 10
344.30770753813817
 20
102.49004100000001
 30
0.0
 11
343.58890353813831
 21
102.075039
 31
0.0
  0
ARC
  5
129
  8
3
 10
343.15300353813831
 20
104.17743900000001
 30
0.0
 40
2.044664
 50
235.61575300000001
 51
295.61575299999998
  0
LINE
  5
12A
  8
1
 10
339.68889153813819
 20
152.890479
 30
0.0
 11
339.68889153813819
 21
95.659634999999994
 31
0.0
  0
LINE
  5
12B
  8
0
 10
345.18890853813832
 20
106.407813
 30
0.0
 11
334.18887453813818
 21
106.407813
 31
0.0
  0
LINE
  5
12C
  8
0
 10
344.30770753813817
 20
104.975048
 30
0.0
 11
343.58890353813831
 21
105.39005
 31
0.0
  0
ARC
  5
12D
  8
3
 10
343.15300353813831
 20
103.28765
 30
0.0
 40
2.044664
 50
64.384247000000002
 51
124.384247
  0
ARC
  5
12E
  8
3
 10
339.68889153813819
 20
97.689556999999994
 30
0.0
 40
7.6427579999999997
 50
72.412045999999989
 51
107.587954
  0
ARC
  5
12F
  8
3
 10
336.22477853813831
 20
103.28765
 30
0.0
 40
2.044664
 50
55.615753000000012
 51
115.615753
  0
LINE
  5
130
  8
0
 10
335.07007453813827
 20
104.975048
 30
0.0
 11
335.78887953813819
 21
105.39005
 31
0.0
  0
LINE
  5
131
  8
0
 10
335.78887953813819
 20
105.39005
 30
0.0
 11
343.58890353813831
 21
105.39005
 31
0.0
  0
LINE
  5
132
  8
0
 10
337.18888353813833
 20
107.456524
 30
0.0
 11
337.18888353813833
 21
109.77506200000001
 31
0.0
  0
LINE
  5
133
  8
3
 10
337.6218845381382
 20
107.456524
 30
0.0
 11
337.6218845381382
 21
109.77506200000001
 31
0.0
  0
LINE
  5
134
  8
3
 10
341.75589753813819
 20
107.456524
 30
0.0
 11
341.75589753813819
 21
109.77506200000001
 31
0.0
  0
LINE
  5
135
  8
0
 10
342.18889853813818
 20
107.456524
 30
0.0
 11
342.18889853813818
 21
109.77506200000001
 31
0.0
  0
TEXT
  5
253
  8
0
 62
     3
 10
0.0
 20
0.0
 30
0.0
 40
10.0
  1
UN2-235
  7
STANDARD1
  0
ENDSEC
  0
EOF
