  0
SECTION
  2
HEADER
  9
$ACADVER
  1
AC1009
  9
$INSBASE
 10
0.0
 20
0.0
 30
0.0
  9
$EXTMIN
 10
0.0
 20
-2.960436562073669
 30
0.0
  9
$EXTMAX
 10
198.51714407900729
 20
167.37458771807019
 30
0.0
  9
$LIMMIN
 10
0.0
 20
0.0
  9
$LIMMAX
 10
375.0
 20
270.0
  9
$ORTHOMODE
 70
     1
  9
$REGENMODE
 70
     1
  9
$FILLMODE
 70
     1
  9
$QTEXTMODE
 70
     0
  9
$MIRRTEXT
 70
     0
  9
$DRAGMODE
 70
     2
  9
$LTSCALE
 40
6.0
  9
$OSMODE
 70
    55
  9
$ATTMODE
 70
     1
  9
$TEXTSIZE
 40
0.2
  9
$TRACEWID
 40
0.05
  9
$TEXTSTYLE
  7
STANDARD
  9
$CLAYER
  8
0
  9
$CELTYPE
  6
BYLAYER
  9
$CECOLOR
 62
   256
  9
$DIMSCALE
 40
1.0
  9
$DIMASZ
 40
3.0
  9
$DIMEXO
 40
1.0
  9
$DIMDLI
 40
6.0
  9
$DIMRND
 40
0.0
  9
$DIMDLE
 40
0.0
  9
$DIMEXE
 40
1.0
  9
$DIMTP
 40
495.0
  9
$DIMTM
 40
0.0
  9
$DIMTXT
 40
3.0
  9
$DIMCEN
 40
0.0
  9
$DIMTSZ
 40
0.0
  9
$DIMTOL
 70
     0
  9
$DIMLIM
 70
     0
  9
$DIMTIH
 70
     0
  9
$DIMTOH
 70
     0
  9
$DIMSE1
 70
     0
  9
$DIMSE2
 70
     0
  9
$DIMTAD
 70
     1
  9
$DIMZIN
 70
     0
  9
$DIMBLK
  1

  9
$DIMASO
 70
     0
  9
$DIMSHO
 70
     0
  9
$DIMPOST
  1

  9
$DIMAPOST
  1

  9
$DIMALT
 70
     0
  9
$DIMALTD
 70
     2
  9
$DIMALTF
 40
25.399999999999999
  9
$DIMLFAC
 40
1.0
  9
$DIMTOFL
 70
     1
  9
$DIMTVP
 40
0.0
  9
$DIMTIX
 70
     1
  9
$DIMSOXD
 70
     0
  9
$DIMSAH
 70
     0
  9
$DIMBLK1
  1

  9
$DIMBLK2
  1

  9
$DIMSTYLE
  2
STANDARD
  9
$DIMCLRD
 70
     0
  9
$DIMCLRE
 70
     0
  9
$DIMCLRT
 70
     4
  9
$DIMTFAC
 40
1.0
  9
$DIMGAP
 40
1.0
  9
$LUNITS
 70
     2
  9
$LUPREC
 70
     4
  9
$SKETCHINC
 40
0.1
  9
$FILLETRAD
 40
2.0
  9
$AUNITS
 70
     0
  9
$AUPREC
 70
     0
  9
$MENU
  1
C:\R13\WIN\SUPPORT\ACAD-I
  9
$ELEVATION
 40
0.0
  9
$PELEVATION
 40
0.0
  9
$THICKNESS
 40
0.0
  9
$LIMCHECK
 70
     0
  9
$BLIPMODE
 70
     0
  9
$CHAMFERA
 40
0.0
  9
$CHAMFERB
 40
0.0
  9
$SKPOLY
 70
     0
  9
$TDCREATE
 40
2450834.7095229169
  9
$TDUPDATE
 40
2456598.4097775472
  9
$TDINDWG
 40
0.0999099074
  9
$TDUSRTIMER
 40
0.0999099074
  9
$USRTIMER
 70
     1
  9
$ANGBASE
 50
0.0
  9
$ANGDIR
 70
     0
  9
$PDMODE
 70
     0
  9
$PDSIZE
 40
0.0
  9
$PLINEWID
 40
0.0
  9
$COORDS
 70
     1
  9
$SPLFRAME
 70
     0
  9
$SPLINETYPE
 70
     6
  9
$SPLINESEGS
 70
     8
  9
$ATTDIA
 70
     0
  9
$ATTREQ
 70
     1
  9
$HANDLING
 70
     1
  9
$HANDSEED
  5
EFE
  9
$SURFTAB1
 70
     6
  9
$SURFTAB2
 70
     6
  9
$SURFTYPE
 70
     6
  9
$SURFU
 70
     6
  9
$SURFV
 70
     6
  9
$UCSNAME
  2

  9
$UCSORG
 10
0.0
 20
0.0
 30
0.0
  9
$UCSXDIR
 10
1.0
 20
0.0
 30
0.0
  9
$UCSYDIR
 10
0.0
 20
1.0
 30
0.0
  9
$PUCSNAME
  2

  9
$PUCSORG
 10
0.0
 20
0.0
 30
0.0
  9
$PUCSXDIR
 10
1.0
 20
0.0
 30
0.0
  9
$PUCSYDIR
 10
0.0
 20
1.0
 30
0.0
  9
$USERI1
 70
     4
  9
$USERI2
 70
     1
  9
$USERI3
 70
     0
  9
$USERI4
 70
     0
  9
$USERI5
 70
     0
  9
$USERR1
 40
1.0
  9
$USERR2
 40
3.0
  9
$USERR3
 40
3.0
  9
$USERR4
 40
3.0
  9
$USERR5
 40
10.0
  9
$WORLDVIEW
 70
     1
  9
$SHADEDGE
 70
     3
  9
$SHADEDIF
 70
    70
  9
$TILEMODE
 70
     1
  9
$MAXACTVP
 70
    16
  9
$PLIMCHECK
 70
     0
  9
$PEXTMIN
 10
1.0000000000000000E+020
 20
1.0000000000000000E+020
 30
1.0000000000000000E+020
  9
$PEXTMAX
 10
-1.0000000000000000E+020
 20
-1.0000000000000000E+020
 30
-1.0000000000000000E+020
  9
$PLIMMIN
 10
0.0
 20
0.0
  9
$PLIMMAX
 10
12.0
 20
9.0
  9
$UNITMODE
 70
     0
  9
$VISRETAIN
 70
     0
  9
$PLINEGEN
 70
     0
  9
$PSLTSCALE
 70
     0
  0
ENDSEC
  0
SECTION
  2
TABLES
  0
TABLE
  2
VPORT
 70
     1
  0
VPORT
  2
*ACTIVE
 70
     0
 10
0.0
 20
0.0
 11
1.0
 21
1.0
 12
187.4942783906524
 22
197.0509055860143
 13
0.0
 23
0.0
 14
10.0
 24
10.0
 15
10.0
 25
10.0
 16
0.0
 26
0.0
 36
1.0
 17
0.0
 27
0.0
 37
0.0
 40
403.57315882993248
 41
1.7807262569832401
 42
50.0
 43
0.0
 44
0.0
 50
0.0
 51
0.0
 71
     0
 72
   100
 73
     1
 74
     0
 75
     0
 76
     0
 77
     0
 78
     0
  0
ENDTAB
  0
TABLE
  2
LTYPE
 70
     3
  0
LTYPE
  2
CONTINUOUS
 70
     0
  3
Solid Line
 72
    65
 73
     0
 40
0.0
  0
LTYPE
  2
CENTER
 70
     0
  3
____ _ ____ _ ____ _ ____ _ ____ _ ____ _ ____
 72
    65
 73
     4
 40
2.0
 49
1.25
 49
-0.25
 49
0.25
 49
-0.25
  0
LTYPE
  2
PHANTOM2
 70
     0
  3
___ _ _ ___ _ _ ___ _ _ ___ _ _
 72
    65
 73
     6
 40
1.25
 49
0.625
 49
-0.125
 49
0.125
 49
-0.125
 49
0.125
 49
-0.125
  0
ENDTAB
  0
TABLE
  2
LAYER
 70
     2
  0
LAYER
  2
0
 70
     0
 62
     7
  6
CONTINUOUS
  0
LAYER
  2
1
 70
     0
 62
     1
  6
CENTER
  0
ENDTAB
  0
TABLE
  2
STYLE
 70
     2
  0
STYLE
  2
STANDARD
 70
     0
 40
0.0
 41
1.0
 50
0.0
 71
     0
 42
0.2
  3
SIMPLEX
  4
BIGFONT
  0
STYLE
  2
STANDARD1
 70
     0
 40
0.0
 41
1.0
 50
0.0
 71
     0
 42
3.0
  3
txt
  4

  0
ENDTAB
  0
TABLE
  2
VIEW
 70
     0
  0
ENDTAB
  0
TABLE
  2
UCS
 70
     0
  0
ENDTAB
  0
TABLE
  2
APPID
 70
    33
  0
APPID
  2
ACAD
 70
     0
  0
APPID
  2
GENIUS_GENOREF_13
 70
     0
  0
APPID
  2
GENIUS_GENOENT_13
 70
     0
  0
APPID
  2
GENIUS_GENBH_13
 70
     0
  0
APPID
  2
GENIUS_GENOBJ_13
 70
     0
  0
APPID
  2
GENIUS_GENODEF_13
 70
     0
  0
APPID
  2
GENIUS_GENOLIS_13
 70
     0
  0
APPID
  2
GENIUS_GENOBJ-NBEHI-BHF_13
 70
     0
  0
APPID
  2
GENIUS_GENOBJ-NBEHI-BHB_13
 70
     0
  0
APPID
  2
GENIUS_GENOBJ-F-PART_13
 70
     0
  0
APPID
  2
GENIUS_GEFSTDP_13
 70
     0
  0
APPID
  2
GENIUS_GENOBJ-N-RSSYM_13
 70
     0
  0
APPID
  2
GENIUS_GENSYMENT_13
 70
     0
  0
APPID
  2
GENIUS_GENOBJ-N-TIT_13
 70
     0
  0
APPID
  2
GENIUS_GENTITLE_13
 70
     0
  0
APPID
  2
GENIUS_GENZVEED_13
 70
     0
  0
APPID
  2
GENIUS_GENOBJ-N-LEADER_13
 70
     0
  0
APPID
  2
GENIUS_GENOBJ-N-FIL_13
 70
     0
  0
APPID
  2
GENIUS_GENOBJ-N-SEC_13
 70
     0
  0
APPID
  2
GENIUS_GENOBJ-N-CRS_13
 70
     0
  0
APPID
  2
GENIUS_GENOBJ-N-ZOO_13
 70
     0
  0
APPID
  2
GENIUS_GENZOO_13
 70
     0
  0
APPID
  2
GENIUS_GENOBJ-F-TOL_13
 70
     0
  0
APPID
  2
GENIUS_GENFIL_13
 70
     0
  0
APPID
  2
GENIUS_GENOBJ-N-CHA_13
 70
     0
  0
APPID
  2
GENIUS_GENOBJ-N-CEN_13
 70
     0
  0
APPID
  2
GENIUS_GENOBJ-F-FEM_13
 70
     0
  0
APPID
  2
GENIUS_GEFFEM_13
 70
     0
  0
APPID
  2
GENIUS_GENOBJ-N-REV_13
 70
     0
  0
APPID
  2
GENIUS_GEFINERT_13
 70
     0
  0
APPID
  2
GENIUS_GENOBJ-F-INER_13
 70
     0
  0
APPID
  2
ACAD_MLEADERVER
 70
     0
  0
APPID
  2
ACAD_NAV_VCDISPLAY
 70
     0
  0
ENDTAB
  0
TABLE
  2
DIMSTYLE
 70
     1
  0
DIMSTYLE
  2
STANDARD
 70
     0
  3

  4

  5

  6

  7

 40
1.0
 41
0.18
 42
0.0625
 43
0.38
 44
0.18
 45
0.0
 46
0.0
 47
0.0
 48
0.0
140
0.18
141
0.09
142
0.0
143
25.399999999999999
144
1.0
145
0.0
146
1.0
147
0.09
 71
     0
 72
     0
 73
     1
 74
     1
 75
     0
 76
     0
 77
     0
 78
     0
170
     0
171
     2
172
     0
173
     0
174
     0
175
     0
176
     0
177
     0
178
     0
  0
ENDTAB
  0
ENDSEC
  0
SECTION
  2
BLOCKS
  0
BLOCK
  8
0
  2
$MODEL_SPACE
 70
     0
 10
0.0
 20
0.0
 30
0.0
  3
$MODEL_SPACE
  1

  0
ENDBLK
  5
CA2
  8
0
  0
BLOCK
 67
     1
  8
0
  2
$PAPER_SPACE
 70
     0
 10
0.0
 20
0.0
 30
0.0
  3
$PAPER_SPACE
  1

  0
ENDBLK
  5
CA0
 67
     1
  8
0
  0
BLOCK
  8
0
  2
STDGX5
 70
     0
 10
0.0
 20
0.0
 30
0.0
  3
STDGX5
  1

  0
ENDBLK
  5
4F
  8
0
  0
ENDSEC
  0
SECTION
  2
ENTITIES
  0
INSERT
  5
DE
  8
0
  2
STDGX5
 10
0.0
 20
0.0
 30
0.0
  0
INSERT
  5
DF
  8
0
  2
STDGX5
 10
0.0
 20
0.0
 30
0.0
  0
INSERT
  5
15C
  8
0
  2
STDGX5
 10
275.0
 20
0.0
 30
0.0
  0
INSERT
  5
15D
  8
0
  2
STDGX5
 10
275.0
 20
0.0
 30
0.0
  0
INSERT
  5
8D3
  8
0
  2
STDGX5
 10
384.67592110905792
 20
23.969387650926588
 30
0.0
  0
INSERT
  5
8D4
  8
0
  2
STDGX5
 10
384.67592110905792
 20
23.969387650926588
 30
0.0
  0
INSERT
  5
8D5
  8
0
  2
STDGX5
 10
659.67592110905775
 20
23.969387650926588
 30
0.0
  0
INSERT
  5
8D6
  8
0
  2
STDGX5
 10
659.67592110905775
 20
23.969387650926588
 30
0.0
  0
INSERT
  5
997
  8
0
  2
STDGX5
 10
399.01509554092252
 20
27.275509708351589
 30
0.0
  0
INSERT
  5
998
  8
0
  2
STDGX5
 10
399.01509554092252
 20
27.275509708351589
 30
0.0
  0
INSERT
  5
999
  8
0
  2
STDGX5
 10
674.01509554092252
 20
27.275509708351589
 30
0.0
  0
INSERT
  5
99A
  8
0
  2
STDGX5
 10
674.01509554092252
 20
27.275509708351589
 30
0.0
  0
POINT
  5
D4A
  8
0
 10
198.51714407900721
 20
150.37458771807019
 30
0.0
  0
LINE
  5
D4F
  8
1
 10
99.616004680107935
 20
128.88079804972551
 30
0.0
 11
99.616004680107935
 21
68.880798049725485
 31
0.0
  0
LINE
  5
D50
  8
1
 10
99.592459180108165
 20
156.67458771807009
 30
0.0
 11
99.592459180107653
 21
145.37458771807019
 31
0.0
  0
ARC
  5
D51
  8
0
 10
83.603686663004964
 20
154.37458570096709
 30
0.0
 40
2.6999979828977838
 50
179.99995719571231
 51
270.00004280428618
  0
ARC
  5
D53
  8
0
 10
81.403687808223523
 20
157.6532277172218
 30
0.0
 40
0.4999991281155668
 50
90.979936584829147
 51
179.9999999027817
  0
LINE
  5
D54
  8
0
 10
82.636754680107956
 20
158.17439271807021
 30
0.0
 11
81.395136680107996
 21
158.1531537180702
 31
0.0
  0
ARC
  5
D55
  8
0
 10
82.602549199595373
 20
160.1740992496932
 30
0.0
 40
1.9999990568779751
 50
270.97996307469703
 51
0.9800486832706788
  0
LINE
  5
D56
  8
0
 10
84.589895680107986
 20
160.9308677180702
 30
0.0
 11
84.602255680107959
 21
160.20830771807019
 31
0.0
  0
LINE
  5
D57
  8
0
 10
85.345708680107961
 20
160.94449371807019
 30
0.0
 11
84.589895680107986
 21
160.9308677180702
 31
0.0
  0
LINE
  5
D58
  8
0
 10
85.334721680107961
 20
161.55386971807019
 30
0.0
 11
85.345708680107961
 21
160.94449371807019
 31
0.0
  0
ARC
  5
D59
  8
0
 10
85.134754164405351
 20
161.55026556971731
 30
0.0
 40
0.1999999930540662
 50
1.0325683750623711
 51
72.903461029254672
  0
LINE
  5
D5A
  8
0
 10
84.572763680107968
 20
161.93236271807021
 30
0.0
 11
85.193550680107919
 21
161.7414277180701
 31
0.0
  0
LINE
  5
D5B
  8
0
 10
84.557260680108001
 20
162.8386407180702
 30
0.0
 11
84.572763680107968
 21
161.93236271807021
 31
0.0
  0
ARC
  5
D5C
  8
0
 10
84.677243265188437
 20
162.84069287340711
 30
0.0
 40
0.1200001336003733
 50
120.97991981986939
 51
180.97987867217361
  0
LINE
  5
D5D
  8
0
 10
85.051065680107953
 20
163.20509671807011
 30
0.0
 11
84.615474680108022
 21
162.94357471807021
 31
0.0
  0
LINE
  5
D5E
  8
0
 10
85.040416680108009
 20
163.8276557180701
 30
0.0
 11
85.051065680107953
 21
163.20509671807011
 31
0.0
  0
LINE
  5
D5F
  8
0
 10
84.717303680107975
 20
164.00690771807021
 30
0.0
 11
85.040416680108009
 21
163.8276557180701
 31
0.0
  0
ARC
  5
D60
  8
0
 10
84.775517547820854
 20
164.1118419591306
 30
0.0
 40
0.1200002055874232
 50
120.9800565843894
 51
240.9800103140941
  0
LINE
  5
D61
  8
0
 10
85.030541680107973
 20
164.40492171807011
 30
0.0
 11
84.713748680107955
 21
164.2147237180701
 31
0.0
  0
LINE
  5
D62
  8
0
 10
85.019892680107986
 20
165.02747971807011
 30
0.0
 11
85.030541680107973
 21
164.40492171807011
 31
0.0
  0
LINE
  5
D63
  8
0
 10
84.696779680107952
 20
165.2067317180701
 30
0.0
 11
85.019892680107986
 21
165.02747971807011
 31
0.0
  0
ARC
  5
D64
  8
0
 10
84.754993547820845
 20
165.31166595913061
 30
0.0
 40
0.1200002055874622
 50
120.98005658439411
 51
240.98001031408879
  0
LINE
  5
D65
  8
0
 10
85.010017680107964
 20
165.60474571807021
 30
0.0
 11
84.693224680107946
 21
165.4145477180702
 31
0.0
  0
LINE
  5
D66
  8
0
 10
84.999368680107963
 20
166.22730471807009
 30
0.0
 11
85.010017680107964
 21
165.60474571807021
 31
0.0
  0
LINE
  5
D67
  8
0
 10
84.676254680107917
 20
166.40655671807019
 30
0.0
 11
84.999368680107963
 21
166.22730471807009
 31
0.0
  0
ARC
  5
D68
  8
0
 10
84.734469047820809
 20
166.5114906704552
 30
0.0
 40
0.120000195713829
 50
120.9797809606514
 51
240.9797346903562
  0
LINE
  5
D69
  8
0
 10
84.989493680107998
 20
166.8045707180701
 30
0.0
 11
84.672700680107923
 21
166.6143727180702
 31
0.0
  0
LINE
  5
D6A
  8
0
 10
84.979742680107947
 20
167.37458771807019
 30
0.0
 11
84.989493680107998
 21
166.8045707180701
 31
0.0
  0
LINE
  5
D6B
  8
0
 10
84.455747680107976
 20
167.36514071807019
 30
0.0
 11
84.979742680107947
 21
167.37458771807019
 31
0.0
  0
LINE
  5
D6C
  8
0
 10
83.001763680107928
 20
164.7442417180701
 30
0.0
 11
84.455747680107976
 21
167.36514071807019
 31
0.0
  0
ARC
  5
D6D
  8
0
 10
83.43898958983057
 20
164.5016838765824
 30
0.0
 40
0.5000008025993353
 50
150.97999910274311
 51
221.14989782778639
  0
ARC
  5
D6E
  8
0
 10
81.556514432251646
 20
162.8566022432783
 30
0.0
 40
2.000000457228202
 50
299.6653990281265
 51
41.149998740219893
  0
ARC
  5
D6F
  8
0
 10
82.793849468319365
 20
160.68427652737299
 30
0.0
 40
0.4999989442646599
 50
119.6654392955508
 51
180.9801296236605
  0
LINE
  5
D70
  8
0
 10
82.304301680107955
 20
160.06898371807009
 30
0.0
 11
82.293923680107966
 21
160.67572371807009
 31
0.0
  0
ARC
  5
D71
  8
0
 10
81.804375559979306
 20
160.0604318509761
 30
0.0
 40
0.4999992600171539
 50
270.9799354109366
 51
0.9800210195096241
  0
LINE
  5
D72
  8
0
 10
81.569481680107955
 20
159.5563417180702
 30
0.0
 11
81.812926680108035
 21
159.5605057180702
 31
0.0
  0
ARC
  5
D73
  8
0
 10
81.603687727072256
 20
157.55663520605111
 30
0.0
 40
1.9999990469648721
 50
90.979979309582674
 51
180.00004262753581
  0
LINE
  5
D75
  8
0
 10
79.603688680107922
 20
154.37458771807019
 30
0.0
 11
79.603688680107922
 21
154.37458771807019
 31
0.0
  0
ARC
  5
D76
  8
0
 10
83.603685691807186
 20
154.3745847297694
 30
0.0
 40
3.9999970117003798
 50
179.99995719571299
 51
270.00004280428698
  0
LINE
  5
D77
  8
0
 10
89.303688680107911
 20
150.37458771807019
 30
0.0
 11
83.603688680107936
 21
150.37458771807019
 31
0.0
  0
LINE
  5
D78
  8
0
 10
89.537124680108008
 20
150.53021171807009
 30
0.0
 11
89.303688680107911
 21
150.37458771807019
 31
0.0
  0
ARC
  5
D79
  8
0
 10
89.603688680107979
 20
150.4303658616488
 30
0.0
 40
0.1199998380853597
 50
56.309894447203369
 51
123.6901055527966
  0
LINE
  5
D7A
  8
0
 10
89.903688680107933
 20
150.37458771807019
 30
0.0
 11
89.67025268010795
 21
150.53021171807009
 31
0.0
  0
LINE
  5
D7B
  8
0
 10
99.303688680107911
 20
150.37458771807019
 30
0.0
 11
89.903688680107933
 21
150.37458771807019
 31
0.0
  0
LINE
  5
D7C
  8
0
 10
99.537124680108008
 20
150.53021171807009
 30
0.0
 11
99.303688680107911
 21
150.37458771807019
 31
0.0
  0
ARC
  5
D7D
  8
0
 10
99.603688680107979
 20
150.4303658616488
 30
0.0
 40
0.1199998380853597
 50
56.309894447203369
 51
123.6901055527966
  0
LINE
  5
D7E
  8
0
 10
99.903688680107933
 20
150.37458771807019
 30
0.0
 11
99.67025268010795
 21
150.53021171807009
 31
0.0
  0
LINE
  5
D7F
  8
0
 10
109.3036886801079
 20
150.37458771807019
 30
0.0
 11
99.903688680107933
 21
150.37458771807019
 31
0.0
  0
LINE
  5
D80
  8
0
 10
109.53712468010799
 20
150.53021171807009
 30
0.0
 11
109.3036886801079
 21
150.37458771807019
 31
0.0
  0
ARC
  5
D81
  8
0
 10
109.60368868010799
 20
150.4303658616488
 30
0.0
 40
0.1199998380853597
 50
56.309894447203369
 51
123.6901055527966
  0
LINE
  5
D82
  8
0
 10
109.9036886801079
 20
150.37458771807019
 30
0.0
 11
109.67025268010789
 21
150.53021171807009
 31
0.0
  0
LINE
  5
D83
  8
0
 10
115.60368868010789
 20
150.37458771807019
 30
0.0
 11
109.9036886801079
 21
150.37458771807019
 31
0.0
  0
ARC
  5
D84
  8
0
 10
115.6036916684086
 20
154.3745847297694
 30
0.0
 40
3.9999970117003798
 50
269.99995719571302
 51
0.0000428042869966
  0
LINE
  5
D85
  8
0
 10
119.60368868010789
 20
154.37458771807019
 30
0.0
 11
119.60368868010789
 21
154.37458771807019
 31
0.0
  0
ARC
  5
D87
  8
0
 10
117.6036891331436
 20
157.55663469742561
 30
0.0
 40
1.999999546964548
 50
359.9999719435263
 51
89.02003526147945
  0
LINE
  5
D88
  8
0
 10
117.548068680108
 20
159.56015471807021
 30
0.0
 11
117.63789468010791
 21
159.5563417180702
 31
0.0
  0
LINE
  5
D89
  8
0
 10
117.5275776801079
 20
159.5605057180702
 30
0.0
 11
117.548068680108
 21
159.56015471807021
 31
0.0
  0
ARC
  5
D8A
  8
0
 10
117.5361288002366
 20
160.0604318509761
 30
0.0
 40
0.4999992600171733
 50
179.0199789804937
 51
269.02006458906669
  0
LINE
  5
D8B
  8
0
 10
117.04658168010791
 20
160.67572371807009
 30
0.0
 11
117.03620268010791
 21
160.06898371807009
 31
0.0
  0
ARC
  5
D8C
  8
0
 10
116.54665539189649
 20
160.6842756838472
 30
0.0
 40
0.49999942976318
 50
359.01996800333092
 51
60.334658331440679
  0
ARC
  5
D8D
  8
0
 10
117.7839899279643
 20
162.8566022432783
 30
0.0
 40
2.0000004572281949
 50
138.8500012597801
 51
240.3346009718735
  0
ARC
  5
D8E
  8
0
 10
115.9015152703853
 20
164.50168458840781
 30
0.0
 40
0.5000008945081595
 50
318.85000304914797
 51
29.019901774191521
  0
LINE
  5
D8F
  8
0
 10
114.884756680108
 20
167.36514071807019
 30
0.0
 11
116.338741680108
 21
164.7442417180701
 31
0.0
  0
LINE
  5
D90
  8
0
 10
114.360761680108
 20
167.37458771807019
 30
0.0
 11
114.884756680108
 21
167.36514071807019
 31
0.0
  0
LINE
  5
D91
  8
0
 10
114.3510106801079
 20
166.8045707180701
 30
0.0
 11
114.360761680108
 21
167.37458771807019
 31
0.0
  0
LINE
  5
D92
  8
0
 10
114.66780468010801
 20
166.6143727180702
 30
0.0
 11
114.3510106801079
 21
166.8045707180701
 31
0.0
  0
ARC
  5
D93
  8
0
 10
114.60603581239511
 20
166.51149095913061
 30
0.0
 40
0.1200002055874276
 50
299.01998968590578
 51
59.019943415610577
  0
LINE
  5
D94
  8
0
 10
114.34113668010789
 20
166.22730471807009
 30
0.0
 11
114.664249680108
 21
166.40655671807019
 31
0.0
  0
LINE
  5
D95
  8
0
 10
114.330486680108
 20
165.60474571807021
 30
0.0
 11
114.34113668010789
 21
166.22730471807009
 31
0.0
  0
LINE
  5
D96
  8
0
 10
114.647280680108
 20
165.4145477180702
 30
0.0
 11
114.330486680108
 21
165.60474571807021
 31
0.0
  0
ARC
  5
D97
  8
0
 10
114.585511812395
 20
165.31166595913061
 30
0.0
 40
0.1200002055874662
 50
299.01998968591113
 51
59.01994341560593
  0
LINE
  5
D98
  8
0
 10
114.3206126801079
 20
165.02747971807011
 30
0.0
 11
114.64372568010801
 21
165.2067317180701
 31
0.0
  0
LINE
  5
D99
  8
0
 10
114.309962680108
 20
164.40492171807011
 30
0.0
 11
114.3206126801079
 21
165.02747971807011
 31
0.0
  0
LINE
  5
D9A
  8
0
 10
114.6267566801079
 20
164.2147237180701
 30
0.0
 11
114.309962680108
 21
164.40492171807011
 31
0.0
  0
ARC
  5
D9B
  8
0
 10
114.5649878123951
 20
164.1118419591306
 30
0.0
 40
0.1200002055874276
 50
299.01998968590578
 51
59.019943415610577
  0
LINE
  5
D9C
  8
0
 10
114.3000886801079
 20
163.8276557180701
 30
0.0
 11
114.6232016801079
 21
164.00690771807021
 31
0.0
  0
LINE
  5
D9D
  8
0
 10
114.28943868010801
 20
163.20509671807011
 30
0.0
 11
114.3000886801079
 21
163.8276557180701
 31
0.0
  0
LINE
  5
D9E
  8
0
 10
114.72502968010789
 20
162.94357471807021
 30
0.0
 11
114.28943868010801
 21
163.20509671807011
 31
0.0
  0
ARC
  5
D9F
  8
0
 10
114.66326109502749
 20
162.84069287340711
 30
0.0
 40
0.1200001336003875
 50
359.0201213278263
 51
59.020080180130542
  0
LINE
  5
DA0
  8
0
 10
114.76774068010791
 20
161.93236271807021
 30
0.0
 11
114.783243680108
 21
162.8386407180702
 31
0.0
  0
LINE
  5
DA1
  8
0
 10
114.146953680108
 20
161.7414277180701
 30
0.0
 11
114.76774068010791
 21
161.93236271807021
 31
0.0
  0
ARC
  5
DA2
  8
0
 10
114.20575019581059
 20
161.5502655697174
 30
0.0
 40
0.1999999930540282
 50
107.0965389707579
 51
178.96743162495369
  0
LINE
  5
DA3
  8
0
 10
113.9947966801079
 20
160.94449371807019
 30
0.0
 11
114.005782680108
 21
161.55386971807019
 31
0.0
  0
LINE
  5
DA4
  8
0
 10
114.750609680108
 20
160.9308677180702
 30
0.0
 11
113.9947966801079
 21
160.94449371807019
 31
0.0
  0
LINE
  5
DA5
  8
0
 10
114.7382496801079
 20
160.20830771807019
 30
0.0
 11
114.750609680108
 21
160.9308677180702
 31
0.0
  0
ARC
  5
DA6
  8
0
 10
116.7379556606205
 20
160.17409874969391
 30
0.0
 40
1.999998565503303
 50
179.01993674989041
 51
269.02002235846442
  0
LINE
  5
DA7
  8
0
 10
117.81223968010789
 20
158.15543171807019
 30
0.0
 11
116.7037496801079
 21
158.17439271807021
 31
0.0
  0
ARC
  5
DA8
  8
0
 10
117.8036885433668
 20
157.65550470859631
 30
0.0
 40
0.500000136741079
 50
0.0000010856279487
 51
89.020064403580179
  0
ARC
  5
DAA
  8
0
 10
115.60369069721089
 20
154.37458570096709
 30
0.0
 40
2.69999798289777
 50
269.99995719571382
 51
0.0000428042876751
  0
LINE
  5
DAB
  8
0
 10
83.581229680107938
 20
151.67458771807009
 30
0.0
 11
115.60368868010789
 21
151.67458771807009
 31
0.0
  0
LINE
  5
DAC
  8
0
 10
79.61600468010792
 20
73.880798049725485
 30
0.0
 11
79.61600468010792
 21
123.8807980497255
 31
0.0
  0
LINE
  5
DAD
  8
0
 10
79.61600468010792
 20
123.8807980497255
 30
0.0
 11
119.61600468010791
 21
123.8807980497255
 31
0.0
  0
LINE
  5
DAE
  8
0
 10
119.61600468010791
 20
73.880798049725485
 30
0.0
 11
119.61600468010791
 21
123.8807980497255
 31
0.0
  0
LINE
  5
DAF
  8
0
 10
79.61600468010792
 20
73.880798049725485
 30
0.0
 11
119.61600468010791
 21
73.880798049725485
 31
0.0
  0
LINE
  5
DB0
  8
0
 10
89.581229680107967
 20
73.880798049725485
 30
0.0
 11
89.581229680107967
 21
123.8807980497255
 31
0.0
  0
LINE
  5
DB1
  8
0
 10
99.581229680107967
 20
73.880798049725485
 30
0.0
 11
99.581229680107967
 21
123.8807980497255
 31
0.0
  0
LINE
  5
DB2
  8
0
 10
109.5812296801079
 20
73.880798049725485
 30
0.0
 11
109.5812296801079
 21
123.8807980497255
 31
0.0
  0
POINT
  5
DB3
  8
0
 10
79.61600468010792
 20
73.880798049725485
 30
0.0
  0
LINE
  5
DB6
  8
0
 10
119.60368868010789
 20
157.55663371807009
 30
0.0
 11
119.60368868010789
 21
154.37458771807019
 31
0.0
  0
LINE
  5
DB7
  8
0
 10
118.3036886801079
 20
157.65550471807009
 30
0.0
 11
118.3036886801079
 21
154.3745877180701
 31
0.0
  0
LINE
  5
DB8
  8
0
 10
79.603688680107936
 20
157.55663371807009
 30
0.0
 11
79.603688680107922
 21
154.37458771807019
 31
0.0
  0
LINE
  5
DB9
  8
0
 10
80.903688680107976
 20
157.6532277180701
 30
0.0
 11
80.903688680107933
 21
154.3745877180701
 31
0.0
  0
LINE
  5
DBA
  8
0
 10
148.51714407900729
 20
150.37458771807019
 30
0.0
 11
198.51714407900721
 21
150.37458771807019
 31
0.0
  0
LINE
  5
DBB
  8
0
 10
148.51714407900729
 20
159.5563417180702
 30
0.0
 11
198.51714407900721
 21
159.5563417180702
 31
0.0
  0
LINE
  5
DBC
  8
0
 10
148.51714407900729
 20
160.93183274468021
 30
0.0
 11
198.51714407900721
 21
160.93183274468021
 31
0.0
  0
LINE
  5
DBD
  8
0
 10
148.51714407900729
 20
164.50168458840781
 30
0.0
 11
198.51714407900721
 21
164.50168458840781
 31
0.0
  0
LINE
  5
DBE
  8
0
 10
148.51714407900729
 20
167.37458771807019
 30
0.0
 11
198.51714407900729
 21
167.37458771807019
 31
0.0
  0
LINE
  5
DBF
  8
0
 10
198.51714407900729
 20
167.37458771807019
 30
0.0
 11
198.51714407900721
 21
150.37458771807019
 31
0.0
  0
LINE
  5
DC0
  8
0
 10
148.51714407900729
 20
167.37458771807019
 30
0.0
 11
148.51714407900729
 21
150.37458771807019
 31
0.0
  0
TEXT
  5
E6C
  8
0
 62
     3
 10
0.0
 20
0.0
 30
0.0
 40
10.0
  1
UPE4020N
  7
STANDARD1
  0
ENDSEC
  0
EOF
