  0
SECTION
  2
HEADER
  9
$ACADVER
  1
AC1009
  9
$INSBASE
 10
0.0
 20
0.0
 30
0.0
  9
$EXTMIN
 10
0.0
 20
-2.960436562073669
 30
0.0
  9
$EXTMAX
 10
211.4714679415674
 20
181.8190193088989
 30
0.0
  9
$LIMMIN
 10
0.0
 20
0.0
  9
$LIMMAX
 10
375.0
 20
270.0
  9
$ORTHOMODE
 70
     1
  9
$REGENMODE
 70
     1
  9
$FILLMODE
 70
     1
  9
$QTEXTMODE
 70
     0
  9
$MIRRTEXT
 70
     0
  9
$DRAGMODE
 70
     2
  9
$LTSCALE
 40
6.0
  9
$OSMODE
 70
    55
  9
$ATTMODE
 70
     1
  9
$TEXTSIZE
 40
0.2
  9
$TRACEWID
 40
0.05
  9
$TEXTSTYLE
  7
STANDARD
  9
$CLAYER
  8
0
  9
$CELTYPE
  6
BYLAYER
  9
$CECOLOR
 62
   256
  9
$DIMSCALE
 40
1.0
  9
$DIMASZ
 40
3.0
  9
$DIMEXO
 40
1.0
  9
$DIMDLI
 40
6.0
  9
$DIMRND
 40
0.0
  9
$DIMDLE
 40
0.0
  9
$DIMEXE
 40
1.0
  9
$DIMTP
 40
495.0
  9
$DIMTM
 40
0.0
  9
$DIMTXT
 40
3.0
  9
$DIMCEN
 40
0.0
  9
$DIMTSZ
 40
0.0
  9
$DIMTOL
 70
     0
  9
$DIMLIM
 70
     0
  9
$DIMTIH
 70
     0
  9
$DIMTOH
 70
     0
  9
$DIMSE1
 70
     0
  9
$DIMSE2
 70
     0
  9
$DIMTAD
 70
     1
  9
$DIMZIN
 70
     0
  9
$DIMBLK
  1

  9
$DIMASO
 70
     0
  9
$DIMSHO
 70
     0
  9
$DIMPOST
  1

  9
$DIMAPOST
  1

  9
$DIMALT
 70
     0
  9
$DIMALTD
 70
     2
  9
$DIMALTF
 40
25.399999999999999
  9
$DIMLFAC
 40
1.0
  9
$DIMTOFL
 70
     1
  9
$DIMTVP
 40
0.0
  9
$DIMTIX
 70
     1
  9
$DIMSOXD
 70
     0
  9
$DIMSAH
 70
     0
  9
$DIMBLK1
  1

  9
$DIMBLK2
  1

  9
$DIMSTYLE
  2
STANDARD
  9
$DIMCLRD
 70
     0
  9
$DIMCLRE
 70
     0
  9
$DIMCLRT
 70
     4
  9
$DIMTFAC
 40
1.0
  9
$DIMGAP
 40
1.0
  9
$LUNITS
 70
     2
  9
$LUPREC
 70
     4
  9
$SKETCHINC
 40
0.1
  9
$FILLETRAD
 40
2.0
  9
$AUNITS
 70
     0
  9
$AUPREC
 70
     0
  9
$MENU
  1
C:\R13\WIN\SUPPORT\ACAD-I
  9
$ELEVATION
 40
0.0
  9
$PELEVATION
 40
0.0
  9
$THICKNESS
 40
0.0
  9
$LIMCHECK
 70
     0
  9
$BLIPMODE
 70
     0
  9
$CHAMFERA
 40
0.0
  9
$CHAMFERB
 40
0.0
  9
$SKPOLY
 70
     0
  9
$TDCREATE
 40
2450834.7095229169
  9
$TDUPDATE
 40
2456598.4098652899
  9
$TDINDWG
 40
0.0981821065
  9
$TDUSRTIMER
 40
0.0981821065
  9
$USRTIMER
 70
     1
  9
$ANGBASE
 50
0.0
  9
$ANGDIR
 70
     0
  9
$PDMODE
 70
     0
  9
$PDSIZE
 40
0.0
  9
$PLINEWID
 40
0.0
  9
$COORDS
 70
     1
  9
$SPLFRAME
 70
     0
  9
$SPLINETYPE
 70
     6
  9
$SPLINESEGS
 70
     8
  9
$ATTDIA
 70
     0
  9
$ATTREQ
 70
     1
  9
$HANDLING
 70
     1
  9
$HANDSEED
  5
E82
  9
$SURFTAB1
 70
     6
  9
$SURFTAB2
 70
     6
  9
$SURFTYPE
 70
     6
  9
$SURFU
 70
     6
  9
$SURFV
 70
     6
  9
$UCSNAME
  2

  9
$UCSORG
 10
0.0
 20
0.0
 30
0.0
  9
$UCSXDIR
 10
1.0
 20
0.0
 30
0.0
  9
$UCSYDIR
 10
0.0
 20
1.0
 30
0.0
  9
$PUCSNAME
  2

  9
$PUCSORG
 10
0.0
 20
0.0
 30
0.0
  9
$PUCSXDIR
 10
1.0
 20
0.0
 30
0.0
  9
$PUCSYDIR
 10
0.0
 20
1.0
 30
0.0
  9
$USERI1
 70
     4
  9
$USERI2
 70
     1
  9
$USERI3
 70
     0
  9
$USERI4
 70
     0
  9
$USERI5
 70
     0
  9
$USERR1
 40
1.0
  9
$USERR2
 40
3.0
  9
$USERR3
 40
3.0
  9
$USERR4
 40
3.0
  9
$USERR5
 40
10.0
  9
$WORLDVIEW
 70
     1
  9
$SHADEDGE
 70
     3
  9
$SHADEDIF
 70
    70
  9
$TILEMODE
 70
     1
  9
$MAXACTVP
 70
    16
  9
$PLIMCHECK
 70
     0
  9
$PEXTMIN
 10
1.0000000000000000E+020
 20
1.0000000000000000E+020
 30
1.0000000000000000E+020
  9
$PEXTMAX
 10
-1.0000000000000000E+020
 20
-1.0000000000000000E+020
 30
-1.0000000000000000E+020
  9
$PLIMMIN
 10
0.0
 20
0.0
  9
$PLIMMAX
 10
12.0
 20
9.0
  9
$UNITMODE
 70
     0
  9
$VISRETAIN
 70
     0
  9
$PLINEGEN
 70
     0
  9
$PSLTSCALE
 70
     0
  0
ENDSEC
  0
SECTION
  2
TABLES
  0
TABLE
  2
VPORT
 70
     1
  0
VPORT
  2
*ACTIVE
 70
     0
 10
0.0
 20
0.0
 11
1.0
 21
1.0
 12
187.4942783906524
 22
197.0509055860143
 13
0.0
 23
0.0
 14
10.0
 24
10.0
 15
10.0
 25
10.0
 16
0.0
 26
0.0
 36
1.0
 17
0.0
 27
0.0
 37
0.0
 40
403.57315882993248
 41
1.7807262569832401
 42
50.0
 43
0.0
 44
0.0
 50
0.0
 51
0.0
 71
     0
 72
   100
 73
     1
 74
     0
 75
     0
 76
     0
 77
     0
 78
     0
  0
ENDTAB
  0
TABLE
  2
LTYPE
 70
     3
  0
LTYPE
  2
CONTINUOUS
 70
     0
  3
Solid Line
 72
    65
 73
     0
 40
0.0
  0
LTYPE
  2
CENTER
 70
     0
  3
____ _ ____ _ ____ _ ____ _ ____ _ ____ _ ____
 72
    65
 73
     4
 40
2.0
 49
1.25
 49
-0.25
 49
0.25
 49
-0.25
  0
LTYPE
  2
PHANTOM2
 70
     0
  3
___ _ _ ___ _ _ ___ _ _ ___ _ _
 72
    65
 73
     6
 40
1.25
 49
0.625
 49
-0.125
 49
0.125
 49
-0.125
 49
0.125
 49
-0.125
  0
ENDTAB
  0
TABLE
  2
LAYER
 70
     2
  0
LAYER
  2
0
 70
     0
 62
     7
  6
CONTINUOUS
  0
LAYER
  2
1
 70
     0
 62
     1
  6
CENTER
  0
ENDTAB
  0
TABLE
  2
STYLE
 70
     2
  0
STYLE
  2
STANDARD
 70
     0
 40
0.0
 41
1.0
 50
0.0
 71
     0
 42
0.2
  3
SIMPLEX
  4
BIGFONT
  0
STYLE
  2
STANDARD1
 70
     0
 40
0.0
 41
1.0
 50
0.0
 71
     0
 42
3.0
  3
txt
  4

  0
ENDTAB
  0
TABLE
  2
VIEW
 70
     0
  0
ENDTAB
  0
TABLE
  2
UCS
 70
     0
  0
ENDTAB
  0
TABLE
  2
APPID
 70
    33
  0
APPID
  2
ACAD
 70
     0
  0
APPID
  2
GENIUS_GENOREF_13
 70
     0
  0
APPID
  2
GENIUS_GENOENT_13
 70
     0
  0
APPID
  2
GENIUS_GENBH_13
 70
     0
  0
APPID
  2
GENIUS_GENOBJ_13
 70
     0
  0
APPID
  2
GENIUS_GENODEF_13
 70
     0
  0
APPID
  2
GENIUS_GENOLIS_13
 70
     0
  0
APPID
  2
GENIUS_GENOBJ-NBEHI-BHF_13
 70
     0
  0
APPID
  2
GENIUS_GENOBJ-NBEHI-BHB_13
 70
     0
  0
APPID
  2
GENIUS_GENOBJ-F-PART_13
 70
     0
  0
APPID
  2
GENIUS_GEFSTDP_13
 70
     0
  0
APPID
  2
GENIUS_GENOBJ-N-RSSYM_13
 70
     0
  0
APPID
  2
GENIUS_GENSYMENT_13
 70
     0
  0
APPID
  2
GENIUS_GENOBJ-N-TIT_13
 70
     0
  0
APPID
  2
GENIUS_GENTITLE_13
 70
     0
  0
APPID
  2
GENIUS_GENZVEED_13
 70
     0
  0
APPID
  2
GENIUS_GENOBJ-N-LEADER_13
 70
     0
  0
APPID
  2
GENIUS_GENOBJ-N-FIL_13
 70
     0
  0
APPID
  2
GENIUS_GENOBJ-N-SEC_13
 70
     0
  0
APPID
  2
GENIUS_GENOBJ-N-CRS_13
 70
     0
  0
APPID
  2
GENIUS_GENOBJ-N-ZOO_13
 70
     0
  0
APPID
  2
GENIUS_GENZOO_13
 70
     0
  0
APPID
  2
GENIUS_GENOBJ-F-TOL_13
 70
     0
  0
APPID
  2
GENIUS_GENFIL_13
 70
     0
  0
APPID
  2
GENIUS_GENOBJ-N-CHA_13
 70
     0
  0
APPID
  2
GENIUS_GENOBJ-N-CEN_13
 70
     0
  0
APPID
  2
GENIUS_GENOBJ-F-FEM_13
 70
     0
  0
APPID
  2
GENIUS_GEFFEM_13
 70
     0
  0
APPID
  2
GENIUS_GENOBJ-N-REV_13
 70
     0
  0
APPID
  2
GENIUS_GEFINERT_13
 70
     0
  0
APPID
  2
GENIUS_GENOBJ-F-INER_13
 70
     0
  0
APPID
  2
ACAD_MLEADERVER
 70
     0
  0
APPID
  2
ACAD_NAV_VCDISPLAY
 70
     0
  0
ENDTAB
  0
TABLE
  2
DIMSTYLE
 70
     1
  0
DIMSTYLE
  2
STANDARD
 70
     0
  3

  4

  5

  6

  7

 40
1.0
 41
0.18
 42
0.0625
 43
0.38
 44
0.18
 45
0.0
 46
0.0
 47
0.0
 48
0.0
140
0.18
141
0.09
142
0.0
143
25.399999999999999
144
1.0
145
0.0
146
1.0
147
0.09
 71
     0
 72
     0
 73
     1
 74
     1
 75
     0
 76
     0
 77
     0
 78
     0
170
     0
171
     2
172
     0
173
     0
174
     0
175
     0
176
     0
177
     0
178
     0
  0
ENDTAB
  0
ENDSEC
  0
SECTION
  2
BLOCKS
  0
BLOCK
  8
0
  2
$MODEL_SPACE
 70
     0
 10
0.0
 20
0.0
 30
0.0
  3
$MODEL_SPACE
  1

  0
ENDBLK
  5
CA2
  8
0
  0
BLOCK
 67
     1
  8
0
  2
$PAPER_SPACE
 70
     0
 10
0.0
 20
0.0
 30
0.0
  3
$PAPER_SPACE
  1

  0
ENDBLK
  5
CA0
 67
     1
  8
0
  0
BLOCK
  8
0
  2
STDGX5
 70
     0
 10
0.0
 20
0.0
 30
0.0
  3
STDGX5
  1

  0
ENDBLK
  5
4F
  8
0
  0
ENDSEC
  0
SECTION
  2
ENTITIES
  0
INSERT
  5
DE
  8
0
  2
STDGX5
 10
0.0
 20
0.0
 30
0.0
  0
INSERT
  5
DF
  8
0
  2
STDGX5
 10
0.0
 20
0.0
 30
0.0
  0
INSERT
  5
15C
  8
0
  2
STDGX5
 10
275.0
 20
0.0
 30
0.0
  0
INSERT
  5
15D
  8
0
  2
STDGX5
 10
275.0
 20
0.0
 30
0.0
  0
INSERT
  5
8D3
  8
0
  2
STDGX5
 10
384.67592110905792
 20
23.969387650926588
 30
0.0
  0
INSERT
  5
8D4
  8
0
  2
STDGX5
 10
384.67592110905792
 20
23.969387650926588
 30
0.0
  0
INSERT
  5
8D5
  8
0
  2
STDGX5
 10
659.67592110905775
 20
23.969387650926588
 30
0.0
  0
INSERT
  5
8D6
  8
0
  2
STDGX5
 10
659.67592110905775
 20
23.969387650926588
 30
0.0
  0
INSERT
  5
997
  8
0
  2
STDGX5
 10
399.01509554092252
 20
27.275509708351589
 30
0.0
  0
INSERT
  5
998
  8
0
  2
STDGX5
 10
399.01509554092252
 20
27.275509708351589
 30
0.0
  0
INSERT
  5
999
  8
0
  2
STDGX5
 10
674.01509554092252
 20
27.275509708351589
 30
0.0
  0
INSERT
  5
99A
  8
0
  2
STDGX5
 10
674.01509554092252
 20
27.275509708351589
 30
0.0
  0
POINT
  5
CC4
  8
0
 10
211.4714679415674
 20
144.8190193088989
 30
0.0
  0
ARC
  5
CCA
  8
0
 10
79.881912461342807
 20
148.819017291796
 30
0.0
 40
2.6999979828978131
 50
179.99995719571319
 51
270.00004280428669
  0
ARC
  5
CCC
  8
0
 10
77.681914106561294
 20
172.09765879942501
 30
0.0
 40
0.4999996281157975
 50
90.979878300590073
 51
179.99994161854241
  0
LINE
  5
CCD
  8
0
 10
78.914981478445753
 20
172.61882430889889
 30
0.0
 11
77.673363478445793
 21
172.59758530889891
 31
0.0
  0
ARC
  5
CCE
  8
0
 10
78.880775997933171
 20
174.61853084052191
 30
0.0
 40
1.999999056877918
 50
270.97996307469703
 51
0.9800486832707068
  0
LINE
  5
CCF
  8
0
 10
80.868122478445756
 20
175.3752993088988
 30
0.0
 11
80.880482478445714
 21
174.6527393088989
 31
0.0
  0
LINE
  5
CD0
  8
0
 10
81.623935478445759
 20
175.38892530889891
 30
0.0
 11
80.868122478445756
 21
175.3752993088988
 31
0.0
  0
LINE
  5
CD1
  8
0
 10
81.612948478445759
 20
175.9983013088989
 30
0.0
 11
81.623935478445759
 21
175.38892530889891
 31
0.0
  0
ARC
  5
CD2
  8
0
 10
81.412980962743106
 20
175.99469716054611
 30
0.0
 40
0.1999999930540997
 50
1.032568375029514
 51
72.903461029223536
  0
LINE
  5
CD3
  8
0
 10
80.850990478445766
 20
176.37679430889889
 30
0.0
 11
81.471777478445773
 21
176.18585930889901
 31
0.0
  0
LINE
  5
CD4
  8
0
 10
80.835487478445785
 20
177.28307230889899
 30
0.0
 11
80.850990478445766
 21
176.37679430889889
 31
0.0
  0
ARC
  5
CD5
  8
0
 10
80.955470063526207
 20
177.28512446423591
 30
0.0
 40
0.1200001336003636
 50
120.9799198198881
 51
180.9798786721874
  0
LINE
  5
CD6
  8
0
 10
81.329292478445808
 20
177.64952830889879
 30
0.0
 11
80.893701478445763
 21
177.38800630889889
 31
0.0
  0
LINE
  5
CD7
  8
0
 10
81.318643478445736
 20
178.27208730889879
 30
0.0
 11
81.329292478445808
 21
177.64952830889879
 31
0.0
  0
LINE
  5
CD8
  8
0
 10
80.995529478445846
 20
178.45133930889889
 30
0.0
 11
81.318643478445736
 21
178.27208730889879
 31
0.0
  0
ARC
  5
CD9
  8
0
 10
81.053743846158739
 20
178.55627326128399
 30
0.0
 40
0.1200001957138924
 50
120.97978096064909
 51
240.97973469035759
  0
LINE
  5
CDA
  8
0
 10
81.308768478445785
 20
178.84935330889891
 30
0.0
 11
80.991975478445823
 21
178.65915530889899
 31
0.0
  0
LINE
  5
CDB
  8
0
 10
81.298118478445787
 20
179.47191130889891
 30
0.0
 11
81.308768478445785
 21
178.84935330889891
 31
0.0
  0
LINE
  5
CDC
  8
0
 10
80.975005478445794
 20
179.6511633088989
 30
0.0
 11
81.298118478445787
 21
179.47191130889891
 31
0.0
  0
ARC
  5
CDD
  8
0
 10
81.033219846158687
 20
179.75609726128391
 30
0.0
 40
0.120000195713829
 50
120.9797809606514
 51
240.9797346903562
  0
LINE
  5
CDE
  8
0
 10
81.288244478445776
 20
180.04917730889889
 30
0.0
 11
80.9714514784458
 21
179.85897930889891
 31
0.0
  0
LINE
  5
CDF
  8
0
 10
81.277594478445764
 20
180.67173630889889
 30
0.0
 11
81.288244478445776
 21
180.04917730889889
 31
0.0
  0
LINE
  5
CE0
  8
0
 10
80.954481478445786
 20
180.85098830889891
 30
0.0
 11
81.277594478445764
 21
180.67173630889889
 31
0.0
  0
ARC
  5
CE1
  8
0
 10
81.012695346158637
 20
180.9559225499593
 30
0.0
 40
0.1200002055873598
 50
120.9800565843917
 51
240.98001031409279
  0
LINE
  5
CE2
  8
0
 10
81.267720478445796
 20
181.24900230889889
 30
0.0
 11
80.950926478445794
 21
181.0588043088988
 31
0.0
  0
LINE
  5
CE3
  8
0
 10
81.257969478445744
 20
181.8190193088989
 30
0.0
 11
81.267720478445796
 21
181.24900230889889
 31
0.0
  0
LINE
  5
CE4
  8
0
 10
80.733974478445845
 20
181.8095733088989
 30
0.0
 11
81.257969478445744
 21
181.8190193088989
 31
0.0
  0
LINE
  5
CE5
  8
0
 10
79.27999047844574
 20
179.1886733088989
 30
0.0
 11
80.733974478445845
 21
181.8095733088989
 31
0.0
  0
ARC
  5
CE6
  8
0
 10
79.717216388168481
 20
178.94611546741109
 30
0.0
 40
0.5000008025994343
 50
150.9799991027466
 51
221.1498978277894
  0
ARC
  5
CE7
  8
0
 10
77.834741230589572
 20
177.30103383410699
 30
0.0
 40
2.0000004572281251
 50
299.66539902812588
 51
41.149998740219743
  0
ARC
  5
CE8
  8
0
 10
79.072076266657206
 20
175.12870811820181
 30
0.0
 40
0.499998944264631
 50
119.6654392955496
 51
180.98012962365729
  0
LINE
  5
CE9
  8
0
 10
78.582528478445823
 20
174.51341530889891
 30
0.0
 11
78.57215047844582
 21
175.120155308899
 31
0.0
  0
ARC
  5
CEA
  8
0
 10
78.082602358317075
 20
174.50486344180479
 30
0.0
 40
0.4999992600172396
 50
270.97993541093967
 51
0.9800210195127133
  0
LINE
  5
CEB
  8
0
 10
77.84770847844581
 20
174.00077330889891
 30
0.0
 11
78.091153478445804
 21
174.0049373088988
 31
0.0
  0
ARC
  5
CEC
  8
0
 10
77.881914025410111
 20
172.00106628825429
 30
0.0
 40
1.9999995469645571
 50
90.979964738520536
 51
180.00002805647361
  0
LINE
  5
CED
  8
0
 10
75.881914478445793
 20
165.10411330889889
 30
0.0
 11
75.881914478445793
 21
172.0010653088988
 31
0.0
  0
LINE
  5
CEE
  8
0
 10
76.037538478445782
 20
164.87067730889891
 30
0.0
 11
75.881914478445793
 21
165.10411330889889
 31
0.0
  0
ARC
  5
CEF
  8
0
 10
75.937692622024315
 20
164.80411330889891
 30
0.0
 40
0.119999838085474
 50
326.30989444720711
 51
33.690105552792872
  0
LINE
  5
CF0
  8
0
 10
75.881914478445793
 20
164.50411330889901
 30
0.0
 11
76.037538478445782
 21
164.73754930889891
 31
0.0
  0
ARC
  5
CF2
  8
0
 10
79.881911490145058
 20
148.81901632059819
 30
0.0
 40
3.9999970117003798
 50
179.99995719571299
 51
270.00004280428698
  0
LINE
  5
CF3
  8
0
 10
85.581914478445782
 20
144.8190193088989
 30
0.0
 11
79.881914478445793
 21
144.8190193088989
 31
0.0
  0
LINE
  5
CF4
  8
0
 10
85.815350478445822
 20
144.97464330889881
 30
0.0
 11
85.581914478445782
 21
144.8190193088989
 31
0.0
  0
ARC
  5
CF5
  8
0
 10
85.881914978445806
 20
144.87479670247851
 30
0.0
 40
0.1200007394723289
 50
56.309894447202957
 51
123.69010555279699
  0
LINE
  5
CF6
  8
0
 10
86.181914478445748
 20
144.8190193088989
 30
0.0
 11
85.948479478445819
 21
144.97464330889881
 31
0.0
  0
LINE
  5
CF7
  8
0
 10
95.581914478445782
 20
144.8190193088989
 30
0.0
 11
86.181914478445748
 21
144.8190193088989
 31
0.0
  0
LINE
  5
CF8
  8
0
 10
95.815350478445822
 20
144.97464330889881
 30
0.0
 11
95.581914478445782
 21
144.8190193088989
 31
0.0
  0
ARC
  5
CF9
  8
0
 10
95.881914978445806
 20
144.87479670247851
 30
0.0
 40
0.1200007394723289
 50
56.309894447202957
 51
123.69010555279699
  0
LINE
  5
CFA
  8
0
 10
96.181914478445748
 20
144.8190193088989
 30
0.0
 11
95.948479478445819
 21
144.97464330889881
 31
0.0
  0
LINE
  5
CFB
  8
0
 10
105.5819144784458
 20
144.8190193088989
 30
0.0
 11
96.181914478445748
 21
144.8190193088989
 31
0.0
  0
LINE
  5
CFC
  8
0
 10
105.81535047844579
 20
144.97464330889881
 30
0.0
 11
105.5819144784458
 21
144.8190193088989
 31
0.0
  0
ARC
  5
CFD
  8
0
 10
105.88191497844581
 20
144.87479670247851
 30
0.0
 40
0.1200007394723289
 50
56.309894447202957
 51
123.69010555279699
  0
LINE
  5
CFE
  8
0
 10
106.18191447844571
 20
144.8190193088989
 30
0.0
 11
105.9484794784458
 21
144.97464330889881
 31
0.0
  0
LINE
  5
CFF
  8
0
 10
111.88191447844579
 20
144.8190193088989
 30
0.0
 11
106.18191447844571
 21
144.8190193088989
 31
0.0
  0
ARC
  5
D00
  8
0
 10
111.8819174667465
 20
148.81901632059819
 30
0.0
 40
3.9999970117003798
 50
269.99995719571302
 51
0.0000428042869966
  0
LINE
  5
D02
  8
0
 10
115.7262914784458
 20
164.73754930889891
 30
0.0
 11
115.88191447844579
 21
164.50411330889901
 31
0.0
  0
ARC
  5
D03
  8
0
 10
115.8261373348672
 20
164.80411330889891
 30
0.0
 40
0.119999838085474
 50
146.30989444720711
 51
213.6901055527928
  0
LINE
  5
D04
  8
0
 10
115.88191447844579
 20
165.10411330889889
 30
0.0
 11
115.7262914784458
 21
164.87067730889891
 31
0.0
  0
LINE
  5
D05
  8
0
 10
115.88191447844579
 20
172.0010653088988
 30
0.0
 11
115.88191447844579
 21
165.10411330889889
 31
0.0
  0
ARC
  5
D06
  8
0
 10
113.8819154314814
 20
172.0010667968798
 30
0.0
 40
1.9999990469648621
 50
359.99995737246411
 51
89.020020690417326
  0
LINE
  5
D07
  8
0
 10
113.8262944784457
 20
174.00458630889889
 30
0.0
 11
113.9161214784458
 21
174.00077330889891
 31
0.0
  0
LINE
  5
D08
  8
0
 10
113.80580447844579
 20
174.0049373088988
 30
0.0
 11
113.8262944784457
 21
174.00458630889889
 31
0.0
  0
ARC
  5
D09
  8
0
 10
113.81435559857449
 20
174.50486344180479
 30
0.0
 40
0.4999992600172311
 50
179.01997898048731
 51
269.02006458906033
  0
LINE
  5
D0A
  8
0
 10
113.32480747844571
 20
175.120155308899
 30
0.0
 11
113.3144294784458
 21
174.51341530889891
 31
0.0
  0
ARC
  5
D0B
  8
0
 10
112.82488169023441
 20
175.12870811820181
 30
0.0
 40
0.4999989442646356
 50
359.01987037634262
 51
60.334560704450361
  0
ARC
  5
D0C
  8
0
 10
114.062216726302
 20
177.30103383410699
 30
0.0
 40
2.0000004572281118
 50
138.85000125977911
 51
240.33460097187299
  0
ARC
  5
D0D
  8
0
 10
112.1797415687231
 20
178.94611546741109
 30
0.0
 40
0.5000008025994238
 50
318.85010217222219
 51
29.02000089726511
  0
LINE
  5
D0E
  8
0
 10
111.1629834784458
 20
181.8095733088989
 30
0.0
 11
112.6169674784458
 21
179.1886733088989
 31
0.0
  0
LINE
  5
D0F
  8
0
 10
110.6389884784457
 20
181.8190193088989
 30
0.0
 11
111.1629834784458
 21
181.8095733088989
 31
0.0
  0
LINE
  5
D10
  8
0
 10
110.6292374784458
 20
181.24900230889889
 30
0.0
 11
110.6389884784457
 21
181.8190193088989
 31
0.0
  0
LINE
  5
D11
  8
0
 10
110.9460314784457
 20
181.0588043088988
 30
0.0
 11
110.6292374784458
 21
181.24900230889889
 31
0.0
  0
ARC
  5
D12
  8
0
 10
110.8842626107329
 20
180.9559225499593
 30
0.0
 40
0.120000205587353
 50
299.01998968592562
 51
59.019943415626869
  0
LINE
  5
D13
  8
0
 10
110.61936347844571
 20
180.67173630889889
 30
0.0
 11
110.9424764784458
 21
180.85098830889891
 31
0.0
  0
LINE
  5
D14
  8
0
 10
110.60871347844569
 20
180.04917730889889
 30
0.0
 11
110.61936347844571
 21
180.67173630889889
 31
0.0
  0
LINE
  5
D15
  8
0
 10
110.9255064784458
 20
179.85897930889891
 30
0.0
 11
110.60871347844569
 21
180.04917730889889
 31
0.0
  0
ARC
  5
D16
  8
0
 10
110.8637381107329
 20
179.75609726128391
 30
0.0
 40
0.1200001957138233
 50
299.02026530964378
 51
59.020219039348547
  0
LINE
  5
D17
  8
0
 10
110.5988394784457
 20
179.47191130889891
 30
0.0
 11
110.9219524784458
 21
179.6511633088989
 31
0.0
  0
LINE
  5
D18
  8
0
 10
110.5881894784457
 20
178.84935330889891
 30
0.0
 11
110.5988394784457
 21
179.47191130889891
 31
0.0
  0
LINE
  5
D19
  8
0
 10
110.9049824784457
 20
178.65915530889899
 30
0.0
 11
110.5881894784457
 21
178.84935330889891
 31
0.0
  0
ARC
  5
D1A
  8
0
 10
110.8432141107329
 20
178.55627326128399
 30
0.0
 40
0.1200001957139006
 50
299.02026530965429
 51
59.020219039362509
  0
LINE
  5
D1B
  8
0
 10
110.57831447844571
 20
178.27208730889879
 30
0.0
 11
110.90142847844579
 21
178.45133930889889
 31
0.0
  0
LINE
  5
D1C
  8
0
 10
110.5676654784457
 20
177.64952830889879
 30
0.0
 11
110.57831447844571
 21
178.27208730889879
 31
0.0
  0
LINE
  5
D1D
  8
0
 10
111.00325647844571
 20
177.38800630889889
 30
0.0
 11
110.5676654784457
 21
177.64952830889879
 31
0.0
  0
ARC
  5
D1E
  8
0
 10
110.94148789336531
 20
177.28512446423579
 30
0.0
 40
0.120000133600415
 50
359.0201213278537
 51
59.02008018015615
  0
LINE
  5
D1F
  8
0
 10
111.0459674784458
 20
176.37679430889889
 30
0.0
 11
111.0614704784458
 21
177.28307230889899
 31
0.0
  0
LINE
  5
D20
  8
0
 10
110.4251804784457
 20
176.18585930889901
 30
0.0
 11
111.0459674784458
 21
176.37679430889889
 31
0.0
  0
ARC
  5
D21
  8
0
 10
110.48397699414841
 20
175.99469716054611
 30
0.0
 40
0.1999999930541124
 50
107.09653897077639
 51
178.96743162497049
  0
LINE
  5
D22
  8
0
 10
110.27302347844569
 20
175.38892530889891
 30
0.0
 11
110.2840094784457
 21
175.9983013088989
 31
0.0
  0
LINE
  5
D23
  8
0
 10
111.0288354784457
 20
175.3752993088988
 30
0.0
 11
110.27302347844569
 21
175.38892530889891
 31
0.0
  0
LINE
  5
D24
  8
0
 10
111.0164754784458
 20
174.6527393088989
 30
0.0
 11
111.0288354784457
 21
175.3752993088988
 31
0.0
  0
ARC
  5
D25
  8
0
 10
113.0161819589583
 20
174.61853084052191
 30
0.0
 40
1.999999056877936
 50
179.0199513167293
 51
269.02003692530297
  0
LINE
  5
D26
  8
0
 10
114.0904664784458
 20
172.5998633088989
 30
0.0
 11
112.9819764784457
 21
172.61882430889889
 31
0.0
  0
ARC
  5
D27
  8
0
 10
114.0819148417046
 20
172.0999368080505
 30
0.0
 40
0.4999996367413578
 50
359.9999428013906
 51
89.020006119343094
  0
ARC
  5
D29
  8
0
 10
111.88191649554869
 20
148.81901729179589
 30
0.0
 40
2.6999979828977838
 50
269.99995719571382
 51
0.0000428042873736
  0
LINE
  5
D2A
  8
0
 10
79.859456478445765
 20
146.11901930889891
 30
0.0
 11
111.88191447844579
 21
146.11901930889891
 31
0.0
  0
LINE
  5
D2B
  8
1
 10
95.836998478445736
 20
110.38774101010149
 30
0.0
 11
95.836998478445736
 21
50.387741010101543
 31
0.0
  0
LINE
  5
D2C
  8
1
 10
95.870685478446006
 20
151.11901930889891
 30
0.0
 11
95.870685478445495
 21
139.8190193088989
 31
0.0
  0
LINE
  5
D2D
  8
0
 10
75.836998478445736
 20
55.387741010101543
 30
0.0
 11
75.836998478445736
 21
105.38774101010149
 31
0.0
  0
LINE
  5
D2E
  8
0
 10
75.836998478445736
 20
105.38774101010149
 30
0.0
 11
115.83699847844569
 21
105.38774101010149
 31
0.0
  0
LINE
  5
D2F
  8
0
 10
115.83699847844569
 20
55.387741010101543
 30
0.0
 11
115.83699847844569
 21
105.38774101010149
 31
0.0
  0
LINE
  5
D30
  8
0
 10
75.836998478445736
 20
55.387741010101543
 30
0.0
 11
115.83699847844569
 21
55.387741010101543
 31
0.0
  0
LINE
  5
D31
  8
0
 10
85.802224478445808
 20
55.387741010101543
 30
0.0
 11
85.802224478445808
 21
105.38774101010149
 31
0.0
  0
LINE
  5
D32
  8
0
 10
95.802224478445808
 20
55.387741010101543
 30
0.0
 11
95.802224478445808
 21
105.38774101010149
 31
0.0
  0
LINE
  5
D33
  8
0
 10
105.80222447844579
 20
55.387741010101543
 30
0.0
 11
105.80222447844579
 21
105.38774101010149
 31
0.0
  0
POINT
  5
D34
  8
0
 10
75.894230478445792
 20
55.387741010101543
 30
0.0
  0
LINE
  5
D38
  8
0
 10
114.5819144784458
 20
172.09993630889889
 30
0.0
 11
114.5819144784458
 21
148.8190193088989
 31
0.0
  0
LINE
  5
D39
  8
0
 10
115.88191447844579
 20
164.50411330889901
 30
0.0
 11
115.88191447844579
 21
148.8190193088989
 31
0.0
  0
LINE
  5
D3A
  8
0
 10
77.181914478445762
 20
172.0976593088989
 30
0.0
 11
77.181914478445734
 21
148.8190193088989
 31
0.0
  0
LINE
  5
D3B
  8
0
 10
75.881914478445793
 20
164.50411330889901
 30
0.0
 11
75.881914478445793
 21
148.8190193088989
 31
0.0
  0
LINE
  5
D3C
  8
0
 10
161.4714679415674
 20
144.8190193088989
 30
0.0
 11
211.4714679415674
 21
144.8190193088989
 31
0.0
  0
LINE
  5
D3D
  8
0
 10
161.4714679415674
 20
164.80411330889891
 30
0.0
 11
211.4714679415674
 21
164.80411330889891
 31
0.0
  0
LINE
  5
D3E
  8
0
 10
161.4714679415674
 20
174.00077330889891
 30
0.0
 11
211.4714679415674
 21
174.00077330889891
 31
0.0
  0
LINE
  5
D3F
  8
0
 10
161.4714679415674
 20
175.37626419845549
 30
0.0
 11
211.4714679415674
 21
175.3762641984554
 31
0.0
  0
LINE
  5
D40
  8
0
 10
161.4714679415674
 20
178.94611546741109
 30
0.0
 11
211.4714679415674
 21
178.946115467411
 31
0.0
  0
LINE
  5
D41
  8
0
 10
161.4714679415674
 20
181.8190193088989
 30
0.0
 11
211.4714679415674
 21
181.8190193088989
 31
0.0
  0
LINE
  5
D42
  8
0
 10
211.4714679415674
 20
181.8190193088989
 30
0.0
 11
211.4714679415674
 21
144.8190193088989
 31
0.0
  0
LINE
  5
D43
  8
0
 10
161.4714679415674
 20
181.8190193088989
 30
0.0
 11
161.4714679415674
 21
144.8190193088989
 31
0.0
  0
TEXT
  5
DF0
  8
0
 62
     3
 10
0.0
 20
0.0
 30
0.0
 40
10.0
  1
UPE4040N-3M
  7
STANDARD1
  0
ENDSEC
  0
EOF
