  0
SECTION
  2
HEADER
  9
$ACADVER
  1
AC1009
  9
$INSBASE
 10
0.0
 20
0.0
 30
0.0
  9
$EXTMIN
 10
0.0
 20
-2.960436562073669
 30
0.0
  9
$EXTMAX
 10
273.72950438979791
 20
231.74489909971999
 30
0.0
  9
$LIMMIN
 10
0.0
 20
0.0
  9
$LIMMAX
 10
375.0
 20
270.0
  9
$ORTHOMODE
 70
     1
  9
$REGENMODE
 70
     1
  9
$FILLMODE
 70
     1
  9
$QTEXTMODE
 70
     0
  9
$MIRRTEXT
 70
     0
  9
$DRAGMODE
 70
     2
  9
$LTSCALE
 40
6.0
  9
$OSMODE
 70
    55
  9
$ATTMODE
 70
     1
  9
$TEXTSIZE
 40
0.2
  9
$TRACEWID
 40
0.05
  9
$TEXTSTYLE
  7
STANDARD
  9
$CLAYER
  8
0
  9
$CELTYPE
  6
BYLAYER
  9
$CECOLOR
 62
   256
  9
$DIMSCALE
 40
1.0
  9
$DIMASZ
 40
3.0
  9
$DIMEXO
 40
1.0
  9
$DIMDLI
 40
6.0
  9
$DIMRND
 40
0.0
  9
$DIMDLE
 40
0.0
  9
$DIMEXE
 40
1.0
  9
$DIMTP
 40
495.0
  9
$DIMTM
 40
0.0
  9
$DIMTXT
 40
3.0
  9
$DIMCEN
 40
0.0
  9
$DIMTSZ
 40
0.0
  9
$DIMTOL
 70
     0
  9
$DIMLIM
 70
     0
  9
$DIMTIH
 70
     0
  9
$DIMTOH
 70
     0
  9
$DIMSE1
 70
     0
  9
$DIMSE2
 70
     0
  9
$DIMTAD
 70
     1
  9
$DIMZIN
 70
     0
  9
$DIMBLK
  1

  9
$DIMASO
 70
     0
  9
$DIMSHO
 70
     0
  9
$DIMPOST
  1

  9
$DIMAPOST
  1

  9
$DIMALT
 70
     0
  9
$DIMALTD
 70
     2
  9
$DIMALTF
 40
25.399999999999999
  9
$DIMLFAC
 40
1.0
  9
$DIMTOFL
 70
     1
  9
$DIMTVP
 40
0.0
  9
$DIMTIX
 70
     1
  9
$DIMSOXD
 70
     0
  9
$DIMSAH
 70
     0
  9
$DIMBLK1
  1

  9
$DIMBLK2
  1

  9
$DIMSTYLE
  2
STANDARD
  9
$DIMCLRD
 70
     0
  9
$DIMCLRE
 70
     0
  9
$DIMCLRT
 70
     4
  9
$DIMTFAC
 40
1.0
  9
$DIMGAP
 40
1.0
  9
$LUNITS
 70
     2
  9
$LUPREC
 70
     4
  9
$SKETCHINC
 40
0.1
  9
$FILLETRAD
 40
2.0
  9
$AUNITS
 70
     0
  9
$AUPREC
 70
     0
  9
$MENU
  1
C:\R13\WIN\SUPPORT\ACAD-I
  9
$ELEVATION
 40
0.0
  9
$PELEVATION
 40
0.0
  9
$THICKNESS
 40
0.0
  9
$LIMCHECK
 70
     0
  9
$BLIPMODE
 70
     0
  9
$CHAMFERA
 40
0.0
  9
$CHAMFERB
 40
0.0
  9
$SKPOLY
 70
     0
  9
$TDCREATE
 40
2450834.7095229169
  9
$TDUPDATE
 40
2456598.4100041441
  9
$TDINDWG
 40
0.0989997685
  9
$TDUSRTIMER
 40
0.0989997685
  9
$USRTIMER
 70
     1
  9
$ANGBASE
 50
0.0
  9
$ANGDIR
 70
     0
  9
$PDMODE
 70
     0
  9
$PDSIZE
 40
0.0
  9
$PLINEWID
 40
0.0
  9
$COORDS
 70
     1
  9
$SPLFRAME
 70
     0
  9
$SPLINETYPE
 70
     6
  9
$SPLINESEGS
 70
     8
  9
$ATTDIA
 70
     0
  9
$ATTREQ
 70
     1
  9
$HANDLING
 70
     1
  9
$HANDSEED
  5
F2B
  9
$SURFTAB1
 70
     6
  9
$SURFTAB2
 70
     6
  9
$SURFTYPE
 70
     6
  9
$SURFU
 70
     6
  9
$SURFV
 70
     6
  9
$UCSNAME
  2

  9
$UCSORG
 10
0.0
 20
0.0
 30
0.0
  9
$UCSXDIR
 10
1.0
 20
0.0
 30
0.0
  9
$UCSYDIR
 10
0.0
 20
1.0
 30
0.0
  9
$PUCSNAME
  2

  9
$PUCSORG
 10
0.0
 20
0.0
 30
0.0
  9
$PUCSXDIR
 10
1.0
 20
0.0
 30
0.0
  9
$PUCSYDIR
 10
0.0
 20
1.0
 30
0.0
  9
$USERI1
 70
     4
  9
$USERI2
 70
     1
  9
$USERI3
 70
     0
  9
$USERI4
 70
     0
  9
$USERI5
 70
     0
  9
$USERR1
 40
1.0
  9
$USERR2
 40
3.0
  9
$USERR3
 40
3.0
  9
$USERR4
 40
3.0
  9
$USERR5
 40
10.0
  9
$WORLDVIEW
 70
     1
  9
$SHADEDGE
 70
     3
  9
$SHADEDIF
 70
    70
  9
$TILEMODE
 70
     1
  9
$MAXACTVP
 70
    16
  9
$PLIMCHECK
 70
     0
  9
$PEXTMIN
 10
1.0000000000000000E+020
 20
1.0000000000000000E+020
 30
1.0000000000000000E+020
  9
$PEXTMAX
 10
-1.0000000000000000E+020
 20
-1.0000000000000000E+020
 30
-1.0000000000000000E+020
  9
$PLIMMIN
 10
0.0
 20
0.0
  9
$PLIMMAX
 10
12.0
 20
9.0
  9
$UNITMODE
 70
     0
  9
$VISRETAIN
 70
     0
  9
$PLINEGEN
 70
     0
  9
$PSLTSCALE
 70
     0
  0
ENDSEC
  0
SECTION
  2
TABLES
  0
TABLE
  2
VPORT
 70
     1
  0
VPORT
  2
*ACTIVE
 70
     0
 10
0.0
 20
0.0
 11
1.0
 21
1.0
 12
187.4942783906524
 22
197.0509055860143
 13
0.0
 23
0.0
 14
10.0
 24
10.0
 15
10.0
 25
10.0
 16
0.0
 26
0.0
 36
1.0
 17
0.0
 27
0.0
 37
0.0
 40
403.57315882993248
 41
1.7807262569832401
 42
50.0
 43
0.0
 44
0.0
 50
0.0
 51
0.0
 71
     0
 72
   100
 73
     1
 74
     0
 75
     0
 76
     0
 77
     0
 78
     0
  0
ENDTAB
  0
TABLE
  2
LTYPE
 70
     3
  0
LTYPE
  2
CONTINUOUS
 70
     0
  3
Solid Line
 72
    65
 73
     0
 40
0.0
  0
LTYPE
  2
CENTER
 70
     0
  3
____ _ ____ _ ____ _ ____ _ ____ _ ____ _ ____
 72
    65
 73
     4
 40
2.0
 49
1.25
 49
-0.25
 49
0.25
 49
-0.25
  0
LTYPE
  2
PHANTOM2
 70
     0
  3
___ _ _ ___ _ _ ___ _ _ ___ _ _
 72
    65
 73
     6
 40
1.25
 49
0.625
 49
-0.125
 49
0.125
 49
-0.125
 49
0.125
 49
-0.125
  0
ENDTAB
  0
TABLE
  2
LAYER
 70
     2
  0
LAYER
  2
0
 70
     0
 62
     7
  6
CONTINUOUS
  0
LAYER
  2
1
 70
     0
 62
     1
  6
CENTER
  0
ENDTAB
  0
TABLE
  2
STYLE
 70
     2
  0
STYLE
  2
STANDARD
 70
     0
 40
0.0
 41
1.0
 50
0.0
 71
     0
 42
0.2
  3
SIMPLEX
  4
BIGFONT
  0
STYLE
  2
STANDARD1
 70
     0
 40
0.0
 41
1.0
 50
0.0
 71
     0
 42
3.0
  3
txt
  4

  0
ENDTAB
  0
TABLE
  2
VIEW
 70
     0
  0
ENDTAB
  0
TABLE
  2
UCS
 70
     0
  0
ENDTAB
  0
TABLE
  2
APPID
 70
    33
  0
APPID
  2
ACAD
 70
     0
  0
APPID
  2
GENIUS_GENOREF_13
 70
     0
  0
APPID
  2
GENIUS_GENOENT_13
 70
     0
  0
APPID
  2
GENIUS_GENBH_13
 70
     0
  0
APPID
  2
GENIUS_GENOBJ_13
 70
     0
  0
APPID
  2
GENIUS_GENODEF_13
 70
     0
  0
APPID
  2
GENIUS_GENOLIS_13
 70
     0
  0
APPID
  2
GENIUS_GENOBJ-NBEHI-BHF_13
 70
     0
  0
APPID
  2
GENIUS_GENOBJ-NBEHI-BHB_13
 70
     0
  0
APPID
  2
GENIUS_GENOBJ-F-PART_13
 70
     0
  0
APPID
  2
GENIUS_GEFSTDP_13
 70
     0
  0
APPID
  2
GENIUS_GENOBJ-N-RSSYM_13
 70
     0
  0
APPID
  2
GENIUS_GENSYMENT_13
 70
     0
  0
APPID
  2
GENIUS_GENOBJ-N-TIT_13
 70
     0
  0
APPID
  2
GENIUS_GENTITLE_13
 70
     0
  0
APPID
  2
GENIUS_GENZVEED_13
 70
     0
  0
APPID
  2
GENIUS_GENOBJ-N-LEADER_13
 70
     0
  0
APPID
  2
GENIUS_GENOBJ-N-FIL_13
 70
     0
  0
APPID
  2
GENIUS_GENOBJ-N-SEC_13
 70
     0
  0
APPID
  2
GENIUS_GENOBJ-N-CRS_13
 70
     0
  0
APPID
  2
GENIUS_GENOBJ-N-ZOO_13
 70
     0
  0
APPID
  2
GENIUS_GENZOO_13
 70
     0
  0
APPID
  2
GENIUS_GENOBJ-F-TOL_13
 70
     0
  0
APPID
  2
GENIUS_GENFIL_13
 70
     0
  0
APPID
  2
GENIUS_GENOBJ-N-CHA_13
 70
     0
  0
APPID
  2
GENIUS_GENOBJ-N-CEN_13
 70
     0
  0
APPID
  2
GENIUS_GENOBJ-F-FEM_13
 70
     0
  0
APPID
  2
GENIUS_GEFFEM_13
 70
     0
  0
APPID
  2
GENIUS_GENOBJ-N-REV_13
 70
     0
  0
APPID
  2
GENIUS_GEFINERT_13
 70
     0
  0
APPID
  2
GENIUS_GENOBJ-F-INER_13
 70
     0
  0
APPID
  2
ACAD_MLEADERVER
 70
     0
  0
APPID
  2
ACAD_NAV_VCDISPLAY
 70
     0
  0
ENDTAB
  0
TABLE
  2
DIMSTYLE
 70
     1
  0
DIMSTYLE
  2
STANDARD
 70
     0
  3

  4

  5

  6

  7

 40
1.0
 41
0.18
 42
0.0625
 43
0.38
 44
0.18
 45
0.0
 46
0.0
 47
0.0
 48
0.0
140
0.18
141
0.09
142
0.0
143
25.399999999999999
144
1.0
145
0.0
146
1.0
147
0.09
 71
     0
 72
     0
 73
     1
 74
     1
 75
     0
 76
     0
 77
     0
 78
     0
170
     0
171
     2
172
     0
173
     0
174
     0
175
     0
176
     0
177
     0
178
     0
  0
ENDTAB
  0
ENDSEC
  0
SECTION
  2
BLOCKS
  0
BLOCK
  8
0
  2
$MODEL_SPACE
 70
     0
 10
0.0
 20
0.0
 30
0.0
  3
$MODEL_SPACE
  1

  0
ENDBLK
  5
DD3
  8
0
  0
BLOCK
 67
     1
  8
0
  2
$PAPER_SPACE
 70
     0
 10
0.0
 20
0.0
 30
0.0
  3
$PAPER_SPACE
  1

  0
ENDBLK
  5
DD1
 67
     1
  8
0
  0
BLOCK
  8
0
  2
STDGX5
 70
     0
 10
0.0
 20
0.0
 30
0.0
  3
STDGX5
  1

  0
ENDBLK
  5
4F
  8
0
  0
ENDSEC
  0
SECTION
  2
ENTITIES
  0
INSERT
  5
DE
  8
0
  2
STDGX5
 10
0.0
 20
0.0
 30
0.0
  0
INSERT
  5
DF
  8
0
  2
STDGX5
 10
0.0
 20
0.0
 30
0.0
  0
INSERT
  5
15C
  8
0
  2
STDGX5
 10
275.0
 20
0.0
 30
0.0
  0
INSERT
  5
15D
  8
0
  2
STDGX5
 10
275.0
 20
0.0
 30
0.0
  0
INSERT
  5
8D3
  8
0
  2
STDGX5
 10
384.67592110905792
 20
23.969387650926588
 30
0.0
  0
INSERT
  5
8D4
  8
0
  2
STDGX5
 10
384.67592110905792
 20
23.969387650926588
 30
0.0
  0
INSERT
  5
8D5
  8
0
  2
STDGX5
 10
659.67592110905775
 20
23.969387650926588
 30
0.0
  0
INSERT
  5
8D6
  8
0
  2
STDGX5
 10
659.67592110905775
 20
23.969387650926588
 30
0.0
  0
INSERT
  5
997
  8
0
  2
STDGX5
 10
399.01509554092252
 20
27.275509708351589
 30
0.0
  0
INSERT
  5
998
  8
0
  2
STDGX5
 10
399.01509554092252
 20
27.275509708351589
 30
0.0
  0
INSERT
  5
999
  8
0
  2
STDGX5
 10
674.01509554092252
 20
27.275509708351589
 30
0.0
  0
INSERT
  5
99A
  8
0
  2
STDGX5
 10
674.01509554092252
 20
27.275509708351589
 30
0.0
  0
LINE
  5
CFC
  8
0
 10
223.72950438979791
 20
228.05167030226551
 30
0.0
 11
223.72950438979791
 21
151.0516703026401
 31
0.0
  0
ARC
  5
D01
  8
0
 10
182.10111424385821
 20
155.05167030263939
 30
0.0
 40
4.0
 50
270.00000000133861
 51
0.2170418219528999
1001
GENIUS_GENODEF_13
1002
{
1000
HIER
1070
     0
1002
}
1002
{
1000
MANEDIT
1070
     0
1002
}
1002
{
1000
NOSEL
1070
     0
1002
}
1002
{
1000
BEHIND
1070
     0
1002
}
1002
{
1000
REACTOR
1002
}
1001
GENIUS_GENOBJ-N-FIL_13
1002
{
1000
OWNER
1000
GEN
1002
}
  0
LINE
  5
D02
  8
0
 10
125.80117281154099
 20
151.0516703022731
 30
0.0
 11
110.128866474745
 21
151.05167030263939
 31
0.0
  0
LINE
  5
D03
  8
0
 10
110.1288664748366
 20
153.5516703022665
 30
0.0
 11
182.10111424386
 21
153.5516703022663
 31
0.0
  0
ARC
  5
D04
  8
0
 10
110.1288664748366
 20
155.0516703022665
 30
0.0
 40
1.5
 50
179.7829581780471
 51
270.0
1001
GENIUS_GENODEF_13
1002
{
1000
HIER
1070
     0
1002
}
1002
{
1000
MANEDIT
1070
     0
1002
}
1002
{
1000
NOSEL
1070
     0
1002
}
1002
{
1000
BEHIND
1070
     0
1002
}
1002
{
1000
REACTOR
1002
}
1001
GENIUS_GENOBJ-N-FIL_13
1002
{
1000
OWNER
1000
GEN
1002
}
  0
ARC
  5
D05
  8
0
 10
110.1288664748384
 20
155.05167030263939
 30
0.0
 40
4.0
 50
179.7829581780471
 51
269.99999999866071
1001
GENIUS_GENODEF_13
1002
{
1000
HIER
1070
     0
1002
}
1002
{
1000
MANEDIT
1070
     0
1002
}
1002
{
1000
NOSEL
1070
     0
1002
}
1002
{
1000
BEHIND
1070
     0
1002
}
1002
{
1000
REACTOR
1002
}
1001
GENIUS_GENOBJ-N-FIL_13
1002
{
1000
OWNER
1000
GEN
1002
}
  0
LINE
  5
D06
  8
0
 10
165.80117281171559
 20
151.05167030226579
 30
0.0
 11
146.40117281243931
 21
151.0516703022663
 31
0.0
  0
LINE
  5
D07
  8
0
 10
126.40117281229951
 20
151.0516703022663
 30
0.0
 11
145.8011728116706
 21
151.0516703022663
 31
0.0
  0
LINE
  5
D08
  8
0
 10
125.80117281154099
 20
151.0516703022731
 30
0.0
 11
126.034608788288
 21
151.2072942865702
 31
0.0
  0
ARC
  5
D09
  8
0
 10
126.1011728118343
 20
151.10744825124951
 30
0.0
 40
0.12
 50
89.999999998878437
 51
123.6900675255918
  0
ARC
  5
D0A
  8
0
 10
126.10117281200731
 20
151.10744825124951
 30
0.0
 40
0.12
 50
56.309932473069459
 51
89.999999999782844
  0
LINE
  5
D0B
  8
0
 10
126.40117281229951
 20
151.0516703022663
 30
0.0
 11
126.1677368355561
 21
151.20729428656881
 31
0.0
  0
LINE
  5
D0C
  8
0
 10
146.40117281243931
 20
151.0516703022663
 30
0.0
 11
146.16773683569619
 21
151.20729428656881
 31
0.0
  0
ARC
  5
D0D
  8
0
 10
146.10117281214741
 20
151.10744825124951
 30
0.0
 40
0.12
 50
56.309932473069459
 51
89.999999999782844
  0
ARC
  5
D0E
  8
0
 10
146.10117281197441
 20
151.10744825124951
 30
0.0
 40
0.12
 50
89.999999998878437
 51
123.6900675255918
  0
LINE
  5
D0F
  8
0
 10
145.8011728116706
 20
151.0516703022663
 30
0.0
 11
146.03460878842799
 21
151.2072942865702
 31
0.0
  0
LINE
  5
D10
  8
0
 10
166.40117281247481
 20
151.0516703022731
 30
0.0
 11
182.1011142439516
 21
151.0516703026401
 31
0.0
  0
LINE
  5
D11
  8
0
 10
165.80117281171559
 20
151.05167030226579
 30
0.0
 11
166.03460878845959
 21
151.20729428656881
 31
0.0
  0
ARC
  5
D12
  8
0
 10
166.10117281200851
 20
151.10744825124951
 30
0.0
 40
0.12
 50
90.000000000217113
 51
123.69006752693051
  0
ARC
  5
D13
  8
0
 10
166.10117281218149
 20
151.10744825124951
 30
0.0
 40
0.12
 50
56.309932474408171
 51
90.000000001121563
  0
LINE
  5
D14
  8
0
 10
166.40117281247481
 20
151.0516703022731
 30
0.0
 11
166.16773683572779
 21
151.2072942865702
 31
0.0
  0
ARC
  5
D15
  8
0
 10
182.10111424386
 20
155.0516703022665
 30
0.0
 40
1.5
 50
270.0
 51
0.2170418219529254
1001
GENIUS_GENODEF_13
1002
{
1000
HIER
1070
     0
1002
}
1002
{
1000
MANEDIT
1070
     0
1002
}
1002
{
1000
NOSEL
1070
     0
1002
}
1002
{
1000
BEHIND
1070
     0
1002
}
1002
{
1000
REACTOR
1002
}
1001
GENIUS_GENOBJ-N-FIL_13
1002
{
1000
OWNER
1000
GEN
1002
}
  0
LINE
  5
D17
  8
0
 10
106.26238197520691
 20
110.47809459835391
 30
0.0
 11
186.26238197520689
 21
110.47809459835391
 31
0.0
  0
LINE
  5
D18
  8
0
 10
106.26238197520691
 20
60.478094598353891
 30
0.0
 11
186.26238197520689
 21
60.478094598353891
 31
0.0
  0
LINE
  5
D19
  8
0
 10
106.3170554803615
 20
204.76243834817689
 30
0.0
 11
106.2662951366989
 21
191.36253449077941
 31
0.0
  0
LINE
  5
D1A
  8
0
 10
106.2640222854896
 20
190.76253879567301
 30
0.0
 11
106.2132619418272
 21
177.36263493827491
 31
0.0
  0
ARC
  5
D1B
  8
0
 10
106.29212494223709
 20
177.06233404389309
 30
0.0
 40
0.119999999999898
 50
322.11502152916609
 51
37.450894826874972
  0
LINE
  5
D1C
  8
0
 10
106.2109890906182
 20
176.7626392431676
 30
0.0
 11
106.38683435519999
 21
176.9886446478022
 31
0.0
  0
LINE
  5
D1D
  8
0
 10
106.2132619418272
 20
177.36263493827491
 30
0.0
 11
106.3873899165547
 21
177.13530379562761
 31
0.0
  0
LINE
  5
D1E
  8
0
 10
106.2662951366984
 20
191.36253449077989
 30
0.0
 11
106.4404231114259
 21
191.1352033481331
 31
0.0
  0
LINE
  5
D1F
  8
0
 10
106.2640222854896
 20
190.76253879567261
 30
0.0
 11
106.4398675500712
 21
190.9885442003077
 31
0.0
  0
ARC
  5
D20
  8
0
 10
106.3451581371083
 20
191.06223359639881
 30
0.0
 40
0.119999999999898
 50
322.11502152916609
 51
37.450894826874972
  0
LINE
  5
D21
  8
0
 10
106.3682335822201
 20
218.2726235640958
 30
0.0
 11
106.3193283315708
 21
205.36243404328559
 31
0.0
  0
LINE
  5
D22
  8
0
 10
106.3170554803615
 20
204.76243834817689
 30
0.0
 11
106.4929007449433
 21
204.98844375281271
 31
0.0
  0
LINE
  5
D23
  8
0
 10
106.3193283315708
 20
205.36243404328559
 30
0.0
 11
106.493456306298
 21
205.1351029006386
 31
0.0
  0
ARC
  5
D24
  8
0
 10
106.3981913319804
 20
205.0621331489036
 30
0.0
 40
0.119999999999898
 50
322.11502152916609
 51
37.450894826874972
  0
LINE
  5
D25
  8
0
 10
106.26238197520691
 20
60.478094598353827
 30
0.0
 11
106.26238197520691
 21
110.47809459835381
 31
0.0
  0
LINE
  5
D26
  8
0
 10
126.26238197508199
 20
60.478094598353891
 30
0.0
 11
126.26238197508199
 21
110.47809459835391
 31
0.0
  0
LINE
  5
D27
  8
0
 10
146.26238197508209
 20
60.478094598353827
 30
0.0
 11
146.26238197508209
 21
110.47809459835381
 31
0.0
  0
LINE
  5
D28
  8
0
 10
166.26238197508209
 20
60.478094598353827
 30
0.0
 11
166.26238197508209
 21
110.47809459835381
 31
0.0
  0
LINE
  5
D29
  8
0
 10
185.91306044296999
 20
204.72674652702571
 30
0.0
 11
185.96368558199771
 21
191.36253449077941
 31
0.0
  0
LINE
  5
D2A
  8
0
 10
185.96595843320699
 20
190.76253879567301
 30
0.0
 11
186.01658277913029
 21
177.3985361261185
 31
0.0
  0
ARC
  5
D2B
  8
0
 10
185.91022068177841
 20
177.0623340438934
 30
0.0
 40
0.119999999999898
 50
142.54910517312541
 51
217.88497847083431
  0
LINE
  5
D2C
  8
0
 10
186.01658277913029
 20
177.3985361261185
 30
0.0
 11
185.8149557074608
 21
177.13530379562789
 31
0.0
  0
LINE
  5
D2D
  8
0
 10
186.01912683271311
 20
176.7269474220171
 30
0.0
 11
185.81551126881561
 21
176.98864464780249
 31
0.0
  0
ARC
  5
D2F
  8
0
 10
185.88482258158831
 20
191.06223359639881
 30
0.0
 40
0.119999999999898
 50
142.54910517312501
 51
217.88497847083389
  0
LINE
  5
D30
  8
0
 10
185.96595843320699
 20
190.76253879567261
 30
0.0
 11
185.7901131686254
 21
190.9885442003077
 31
0.0
  0
LINE
  5
D31
  8
0
 10
185.96368558199819
 20
191.36253449077989
 30
0.0
 11
185.78955760727069
 21
191.1352033481331
 31
0.0
  0
LINE
  5
D33
  8
0
 10
185.86174713647651
 20
218.2726235640958
 30
0.0
 11
185.91051638938669
 21
205.39833523113029
 31
0.0
  0
ARC
  5
D34
  8
0
 10
185.80415429203489
 20
205.0621331489038
 30
0.0
 40
0.119999999999898
 50
142.54910517312541
 51
217.88497847083431
  0
LINE
  5
D35
  8
0
 10
185.91306044296999
 20
204.72674652702571
 30
0.0
 11
185.70944487907201
 21
204.98844375281291
 31
0.0
  0
LINE
  5
D36
  8
0
 10
185.91051638938669
 20
205.39833523113029
 30
0.0
 11
185.70888931771731
 21
205.1351029006388
 31
0.0
  0
LINE
  5
D39
  8
0
 10
186.26238197520689
 20
60.478094598353827
 30
0.0
 11
186.26238197520689
 21
110.47809459835381
 31
0.0
  0
ARC
  5
D3A
  8
0
 10
108.40109379624801
 20
223.56496088767801
 30
0.0
 40
1.999999999999857
 50
298.46836019215829
 51
39.95296020423141
  0
ARC
  5
D3B
  8
0
 10
109.3644239724088
 20
217.26126648287331
 30
0.0
 40
0.5
 50
89.782958178046215
 51
179.7829581780471
1001
GENIUS_GENODEF_13
1002
{
1000
HIER
1070
     0
1002
}
1002
{
1000
MANEDIT
1070
     0
1002
}
1002
{
1000
NOSEL
1070
     0
1002
}
1002
{
1000
BEHIND
1070
     0
1002
}
1002
{
1000
REACTOR
1002
}
1001
GENIUS_GENOBJ-N-FIL_13
1002
{
1000
OWNER
1000
GEN
1002
}
  0
LINE
  5
D3C
  8
0
 10
109.3791157264093
 20
217.76121441629229
 30
0.0
 11
109.3663180150829
 21
217.76126289546289
 31
0.0
1001
GENIUS_GENOREF_13
1005
D5B
  0
ARC
  5
D3D
  8
0
 10
109.3866918971047
 20
219.7612000666503
 30
0.0
 40
2.0
 50
269.78295817805952
 51
359.78295817804809
1001
GENIUS_GENOREF_13
1005
D5B
1001
GENIUS_GENODEF_13
1002
{
1000
HIER
1070
     0
1002
}
1002
{
1000
MANEDIT
1070
     0
1002
}
1002
{
1000
NOSEL
1070
     0
1002
}
1002
{
1000
BEHIND
1070
     0
1002
}
1002
{
1000
REACTOR
1002
}
1001
GENIUS_GENOBJ-N-FIL_13
1002
{
1000
OWNER
1000
GEN
1002
}
  0
LINE
  5
D3E
  8
0
 10
111.3866775474628
 20
219.75362389595441
 30
0.0
 11
111.3934961010889
 21
221.55361098127531
 31
0.0
1001
GENIUS_GENOREF_13
1005
D5B
  0
ARC
  5
D3F
  8
0
 10
108.3682192325779
 20
218.26504739340001
 30
0.0
 40
2.0
 50
89.782958178050833
 51
179.78295817804729
1001
GENIUS_GENODEF_13
1002
{
1000
HIER
1070
     0
1002
}
1002
{
1000
MANEDIT
1070
     0
1002
}
1002
{
1000
NOSEL
1070
     0
1002
}
1002
{
1000
BEHIND
1070
     0
1002
}
1002
{
1000
REACTOR
1002
}
1001
GENIUS_GENOBJ-N-FIL_13
1002
{
1000
OWNER
1000
GEN
1002
}
  0
LINE
  5
D40
  8
0
 10
108.5885916796354
 20
220.26422694751781
 30
0.0
 11
108.3757954032737
 21
220.26503304375791
 31
0.0
1001
GENIUS_GENOREF_13
1005
D5B
  0
ARC
  5
D41
  8
0
 10
109.5927772666988
 20
221.36725970092471
 30
0.0
 40
0.5
 50
118.4683601921644
 51
179.78295817804721
1001
GENIUS_GENODEF_13
1002
{
1000
HIER
1070
     0
1002
}
1002
{
1000
MANEDIT
1070
     0
1002
}
1002
{
1000
NOSEL
1070
     0
1002
}
1002
{
1000
BEHIND
1070
     0
1002
}
1002
{
1000
REACTOR
1002
}
1001
GENIUS_GENOBJ-N-FIL_13
1002
{
1000
OWNER
1000
GEN
1002
}
  0
LINE
  5
D42
  8
0
 10
109.09048213489881
 20
220.7623293174334
 30
0.0
 11
109.09278085410941
 21
221.3691537435987
 31
0.0
1001
GENIUS_GENOREF_13
1005
D5B
  0
ARC
  5
D43
  8
0
 10
108.5904857223094
 20
220.76422336010739
 30
0.0
 40
0.5
 50
269.78295817805059
 51
359.78295817804798
1001
GENIUS_GENOREF_13
1005
D5B
1001
GENIUS_GENODEF_13
1002
{
1000
HIER
1070
     0
1002
}
1002
{
1000
MANEDIT
1070
     0
1002
}
1002
{
1000
NOSEL
1070
     0
1002
}
1002
{
1000
BEHIND
1070
     0
1002
}
1002
{
1000
REACTOR
1002
}
1001
GENIUS_GENOBJ-N-FIL_13
1002
{
1000
OWNER
1000
GEN
1002
}
  0
ARC
  5
D44
  8
0
 10
111.945802205909
 20
222.16134336084141
 30
0.0
 40
0.2
 50
359.78295817804627
 51
71.682958178046647
1001
GENIUS_GENOREF_13
1005
D5B
1001
GENIUS_GENODEF_13
1002
{
1000
HIER
1070
     0
1002
}
1002
{
1000
MANEDIT
1070
     0
1002
}
1002
{
1000
NOSEL
1070
     0
1002
}
1002
{
1000
BEHIND
1070
     0
1002
}
1002
{
1000
REACTOR
1002
}
1001
GENIUS_GENOBJ-N-FIL_13
1002
{
1000
OWNER
1000
GEN
1002
}
  0
LINE
  5
D45
  8
0
 10
112.1434907199732
 20
221.5507699172644
 30
0.0
 11
112.1458007709446
 21
222.16058574377189
 31
0.0
1001
GENIUS_GENOREF_13
1005
D5B
  0
LINE
  5
D46
  8
0
 10
111.39728418643691
 20
222.55360380645419
 30
0.0
 11
112.0086571729688
 21
222.35120976944461
 31
0.0
  0
LINE
  5
D47
  8
0
 10
111.39728418643691
 20
222.55360380645419
 30
0.0
 11
111.4008098255334
 21
223.4843150964179
 31
0.0
1001
GENIUS_GENOREF_13
1005
D5B
  0
LINE
  5
D48
  8
0
 10
111.3934961010889
 20
221.55361098127531
 30
0.0
 11
112.1434907199732
 21
221.5507699172644
 31
0.0
1001
GENIUS_GENOREF_13
1005
D5B
  0
ARC
  5
D49
  8
0
 10
111.5208089645549
 20
223.48386052617599
 30
0.0
 40
0.12
 50
119.7829581780867
 51
179.78295817804769
1001
GENIUS_GENODEF_13
1002
{
1000
HIER
1070
     0
1002
}
1002
{
1000
MANEDIT
1070
     0
1002
}
1002
{
1000
NOSEL
1070
     0
1002
}
1002
{
1000
BEHIND
1070
     0
1002
}
1002
{
1000
REACTOR
1002
}
1001
GENIUS_GENOBJ-N-FIL_13
1002
{
1000
OWNER
1000
GEN
1002
}
  0
LINE
  5
D4A
  8
0
 10
111.4612030644211
 20
223.58801011412169
 30
0.0
 11
111.90216221042191
 21
223.84037565236281
 31
0.0
  0
LINE
  5
D4B
  8
0
 10
111.90216221042191
 20
223.84037565236281
 30
0.0
 11
111.9045208607441
 21
224.46302091577169
 31
0.0
1001
GENIUS_GENOREF_13
1005
D5B
  0
ARC
  5
D4C
  8
0
 10
110.317523578936
 20
225.1703570655817
 30
0.0
 40
0.5
 50
149.78295817805139
 51
219.95296020423081
1001
GENIUS_GENODEF_13
1002
{
1000
HIER
1070
     0
1002
}
1002
{
1000
MANEDIT
1070
     0
1002
}
1002
{
1000
NOSEL
1070
     0
1002
}
1002
{
1000
BEHIND
1070
     0
1002
}
1002
{
1000
REACTOR
1002
}
1001
GENIUS_GENOBJ-N-FIL_13
1002
{
1000
OWNER
1000
GEN
1002
}
  0
LINE
  5
D4D
  8
0
 10
109.8854610051694
 20
225.42199556094801
 30
0.0
 11
111.4181186558508
 21
228.0535643449395
 31
0.0
  0
LINE
  5
D4E
  8
0
 10
111.9157993176748
 20
227.4403498230065
 30
0.0
 11
111.9181150684401
 21
228.05167030226551
 31
0.0
1001
GENIUS_GENOREF_13
1005
D5B
  0
LINE
  5
D4F
  8
0
 10
111.4181186558508
 20
228.0535643449395
 30
0.0
 11
111.9181150684401
 21
228.05167030226551
 31
0.0
1001
GENIUS_GENOREF_13
1005
D5B
  0
LINE
  5
D50
  8
0
 10
111.911253615257
 20
226.24035843279199
 30
0.0
 11
111.9136122655792
 21
226.8630036962015
 31
0.0
1001
GENIUS_GENOREF_13
1005
D5B
  0
LINE
  5
D51
  8
0
 10
111.90670791283971
 20
225.04036704257709
 30
0.0
 11
111.9090665631619
 21
225.66301230598631
 31
0.0
1001
GENIUS_GENOREF_13
1005
D5B
  0
ARC
  5
D52
  8
0
 10
111.65470765708039
 20
227.15266166179461
 30
0.0
 40
0.12
 50
119.78295817804459
 51
239.78295817804681
1001
GENIUS_GENODEF_13
1002
{
1000
HIER
1070
     0
1002
}
1002
{
1000
MANEDIT
1070
     0
1002
}
1002
{
1000
NOSEL
1070
     0
1002
}
1002
{
1000
BEHIND
1070
     0
1002
}
1002
{
1000
REACTOR
1002
}
1001
GENIUS_GENOBJ-N-FIL_13
1002
{
1000
OWNER
1000
GEN
1002
}
  0
LINE
  5
D53
  8
0
 10
111.5943144181925
 20
227.04896664409051
 30
0.0
 11
111.9136122655796
 21
226.8630036962013
 31
0.0
  0
LINE
  5
D54
  8
0
 10
111.595101756947
 20
227.25681124974031
 30
0.0
 11
111.9157993176748
 21
227.4403498230067
 31
0.0
  0
ARC
  5
D55
  8
0
 10
111.65016195466271
 20
225.95267027157971
 30
0.0
 40
0.12
 50
119.78295817804459
 51
239.78295817804681
1001
GENIUS_GENODEF_13
1002
{
1000
HIER
1070
     0
1002
}
1002
{
1000
MANEDIT
1070
     0
1002
}
1002
{
1000
NOSEL
1070
     0
1002
}
1002
{
1000
BEHIND
1070
     0
1002
}
1002
{
1000
REACTOR
1002
}
1001
GENIUS_GENOBJ-N-FIL_13
1002
{
1000
OWNER
1000
GEN
1002
}
  0
LINE
  5
D56
  8
0
 10
111.5897687157747
 20
225.84897525387569
 30
0.0
 11
111.9090665631619
 21
225.66301230598631
 31
0.0
  0
LINE
  5
D57
  8
0
 10
111.5905560545292
 20
226.0568198595254
 30
0.0
 11
111.91125361525719
 21
226.24035843279179
 31
0.0
  0
LINE
  5
D58
  8
0
 10
111.58522301335719
 20
224.6489838636609
 30
0.0
 11
111.9045208607441
 21
224.46302091577169
 31
0.0
  0
LINE
  5
D59
  8
0
 10
111.5860103521116
 20
224.85682846931061
 30
0.0
 11
111.90670791283939
 21
225.04036704257709
 31
0.0
  0
ARC
  5
D5A
  8
0
 10
111.6456162522452
 20
224.752678881365
 30
0.0
 40
0.12
 50
119.78295817804459
 51
239.78295817804681
1001
GENIUS_GENODEF_13
1002
{
1000
HIER
1070
     0
1002
}
1002
{
1000
MANEDIT
1070
     0
1002
}
1002
{
1000
NOSEL
1070
     0
1002
}
1002
{
1000
BEHIND
1070
     0
1002
}
1002
{
1000
REACTOR
1002
}
1001
GENIUS_GENOBJ-N-FIL_13
1002
{
1000
OWNER
1000
GEN
1002
}
  0
ARC
  5
D5C
  8
0
 10
183.82888692244859
 20
223.5649608876779
 30
0.0
 40
1.999999999999857
 50
140.04703979576851
 51
241.5316398078416
  0
ARC
  5
D5D
  8
0
 10
182.86555674628761
 20
217.26126648287331
 30
0.0
 40
0.5
 50
0.2170418219528956
 51
90.217041821953799
1001
GENIUS_GENODEF_13
1002
{
1000
HIER
1070
     0
1002
}
1002
{
1000
MANEDIT
1070
     0
1002
}
1002
{
1000
NOSEL
1070
     0
1002
}
1002
{
1000
BEHIND
1070
     0
1002
}
1002
{
1000
REACTOR
1002
}
1001
GENIUS_GENOBJ-N-FIL_13
1002
{
1000
OWNER
1000
GEN
1002
}
  0
LINE
  5
D5E
  8
0
 10
182.85086499228731
 20
217.76121441629229
 30
0.0
 11
182.8636627036137
 21
217.76126289546289
 31
0.0
1001
GENIUS_GENOREF_13
1005
CF2
  0
ARC
  5
D5F
  8
0
 10
182.84328882159181
 20
219.7612000666503
 30
0.0
 40
2.0
 50
180.21704182195211
 51
270.21704182194048
1001
GENIUS_GENOREF_13
1005
CF2
1001
GENIUS_GENODEF_13
1002
{
1000
HIER
1070
     0
1002
}
1002
{
1000
MANEDIT
1070
     0
1002
}
1002
{
1000
NOSEL
1070
     0
1002
}
1002
{
1000
BEHIND
1070
     0
1002
}
1002
{
1000
REACTOR
1002
}
1001
GENIUS_GENOBJ-N-FIL_13
1002
{
1000
OWNER
1000
GEN
1002
}
  0
LINE
  5
D60
  8
0
 10
180.8433031712338
 20
219.75362389595441
 30
0.0
 11
180.83648461760771
 21
221.55361098127531
 31
0.0
1001
GENIUS_GENOREF_13
1005
CF2
  0
ARC
  5
D61
  8
0
 10
183.8617614861187
 20
218.26504739340001
 30
0.0
 40
2.0
 50
0.2170418219528955
 51
90.217041821949167
1001
GENIUS_GENODEF_13
1002
{
1000
HIER
1070
     0
1002
}
1002
{
1000
MANEDIT
1070
     0
1002
}
1002
{
1000
NOSEL
1070
     0
1002
}
1002
{
1000
BEHIND
1070
     0
1002
}
1002
{
1000
REACTOR
1002
}
1001
GENIUS_GENOBJ-N-FIL_13
1002
{
1000
OWNER
1000
GEN
1002
}
  0
LINE
  5
D62
  8
0
 10
183.6413890390611
 20
220.26422694751781
 30
0.0
 11
183.85418531542291
 21
220.26503304375791
 31
0.0
1001
GENIUS_GENOREF_13
1005
CF2
  0
ARC
  5
D63
  8
0
 10
182.63720345199769
 20
221.36725970092471
 30
0.0
 40
0.5
 50
0.2170418219528956
 51
61.531639807835383
1001
GENIUS_GENODEF_13
1002
{
1000
HIER
1070
     0
1002
}
1002
{
1000
MANEDIT
1070
     0
1002
}
1002
{
1000
NOSEL
1070
     0
1002
}
1002
{
1000
BEHIND
1070
     0
1002
}
1002
{
1000
REACTOR
1002
}
1001
GENIUS_GENOBJ-N-FIL_13
1002
{
1000
OWNER
1000
GEN
1002
}
  0
LINE
  5
D64
  8
0
 10
183.1394985837978
 20
220.7623293174334
 30
0.0
 11
183.13719986458719
 21
221.3691537435987
 31
0.0
1001
GENIUS_GENOREF_13
1005
CF2
  0
ARC
  5
D65
  8
0
 10
183.6394949963871
 20
220.76422336010739
 30
0.0
 40
0.5
 50
180.21704182195211
 51
270.21704182194952
1001
GENIUS_GENOREF_13
1005
CF2
1001
GENIUS_GENODEF_13
1002
{
1000
HIER
1070
     0
1002
}
1002
{
1000
MANEDIT
1070
     0
1002
}
1002
{
1000
NOSEL
1070
     0
1002
}
1002
{
1000
BEHIND
1070
     0
1002
}
1002
{
1000
REACTOR
1002
}
1001
GENIUS_GENOBJ-N-FIL_13
1002
{
1000
OWNER
1000
GEN
1002
}
  0
ARC
  5
D66
  8
0
 10
180.28417851278749
 20
222.16134336084141
 30
0.0
 40
0.2
 50
108.3170418219534
 51
180.2170418219537
1001
GENIUS_GENOREF_13
1005
CF2
1001
GENIUS_GENODEF_13
1002
{
1000
HIER
1070
     0
1002
}
1002
{
1000
MANEDIT
1070
     0
1002
}
1002
{
1000
NOSEL
1070
     0
1002
}
1002
{
1000
BEHIND
1070
     0
1002
}
1002
{
1000
REACTOR
1002
}
1001
GENIUS_GENOBJ-N-FIL_13
1002
{
1000
OWNER
1000
GEN
1002
}
  0
LINE
  5
D67
  8
0
 10
180.08648999872341
 20
221.5507699172644
 30
0.0
 11
180.08417994775201
 21
222.16058574377189
 31
0.0
1001
GENIUS_GENOREF_13
1005
CF2
  0
LINE
  5
D68
  8
0
 10
180.83269653225969
 20
222.55360380645419
 30
0.0
 11
180.22132354572781
 21
222.35120976944461
 31
0.0
  0
LINE
  5
D69
  8
0
 10
180.83269653225969
 20
222.55360380645419
 30
0.0
 11
180.82917089316319
 21
223.4843150964179
 31
0.0
1001
GENIUS_GENOREF_13
1005
CF2
  0
LINE
  5
D6A
  8
0
 10
180.83648461760771
 20
221.55361098127531
 30
0.0
 11
180.08648999872341
 21
221.5507699172644
 31
0.0
1001
GENIUS_GENOREF_13
1005
CF2
  0
ARC
  5
D6B
  8
0
 10
180.70917175414169
 20
223.48386052617599
 30
0.0
 40
0.12
 50
0.2170418219520812
 51
60.217041821913469
1001
GENIUS_GENODEF_13
1002
{
1000
HIER
1070
     0
1002
}
1002
{
1000
MANEDIT
1070
     0
1002
}
1002
{
1000
NOSEL
1070
     0
1002
}
1002
{
1000
BEHIND
1070
     0
1002
}
1002
{
1000
REACTOR
1002
}
1001
GENIUS_GENOBJ-N-FIL_13
1002
{
1000
OWNER
1000
GEN
1002
}
  0
LINE
  5
D6C
  8
0
 10
180.76877765427551
 20
223.58801011412169
 30
0.0
 11
180.32781850827459
 21
223.84037565236281
 31
0.0
  0
LINE
  5
D6D
  8
0
 10
180.32781850827459
 20
223.84037565236281
 30
0.0
 11
180.3254598579525
 21
224.46302091577169
 31
0.0
1001
GENIUS_GENOREF_13
1005
CF2
  0
ARC
  5
D6E
  8
0
 10
181.91245713976051
 20
225.1703570655817
 30
0.0
 40
0.5
 50
320.04703979576942
 51
30.21704182194858
1001
GENIUS_GENODEF_13
1002
{
1000
HIER
1070
     0
1002
}
1002
{
1000
MANEDIT
1070
     0
1002
}
1002
{
1000
NOSEL
1070
     0
1002
}
1002
{
1000
BEHIND
1070
     0
1002
}
1002
{
1000
REACTOR
1002
}
1001
GENIUS_GENOBJ-N-FIL_13
1002
{
1000
OWNER
1000
GEN
1002
}
  0
LINE
  5
D6F
  8
0
 10
182.34451971352721
 20
225.42199556094801
 30
0.0
 11
180.8118620628459
 21
228.0535643449395
 31
0.0
  0
LINE
  5
D70
  8
0
 10
180.31418140102181
 20
227.4403498230065
 30
0.0
 11
180.31186565025649
 21
228.05167030226551
 31
0.0
1001
GENIUS_GENOREF_13
1005
CF2
  0
LINE
  5
D71
  8
0
 10
180.8118620628459
 20
228.0535643449395
 30
0.0
 11
180.31186565025649
 21
228.05167030226551
 31
0.0
1001
GENIUS_GENOREF_13
1005
CF2
  0
LINE
  5
D72
  8
0
 10
180.31872710343961
 20
226.24035843279199
 30
0.0
 11
180.31636845311741
 21
226.8630036962015
 31
0.0
1001
GENIUS_GENOREF_13
1005
CF2
  0
LINE
  5
D73
  8
0
 10
180.3232728058569
 20
225.04036704257709
 30
0.0
 11
180.32091415553469
 21
225.66301230598631
 31
0.0
1001
GENIUS_GENOREF_13
1005
CF2
  0
ARC
  5
D74
  8
0
 10
180.57527306161609
 20
227.15266166179461
 30
0.0
 40
0.12
 50
300.21704182195327
 51
60.217041821955391
1001
GENIUS_GENODEF_13
1002
{
1000
HIER
1070
     0
1002
}
1002
{
1000
MANEDIT
1070
     0
1002
}
1002
{
1000
NOSEL
1070
     0
1002
}
1002
{
1000
BEHIND
1070
     0
1002
}
1002
{
1000
REACTOR
1002
}
1001
GENIUS_GENOBJ-N-FIL_13
1002
{
1000
OWNER
1000
GEN
1002
}
  0
LINE
  5
D75
  8
0
 10
180.63566630050411
 20
227.04896664409051
 30
0.0
 11
180.31636845311701
 21
226.8630036962013
 31
0.0
  0
LINE
  5
D76
  8
0
 10
180.63487896174959
 20
227.25681124974031
 30
0.0
 11
180.31418140102181
 21
227.4403498230067
 31
0.0
  0
ARC
  5
D77
  8
0
 10
180.57981876403389
 20
225.95267027157959
 30
0.0
 40
0.12
 50
300.21704182195327
 51
60.217041821955391
1001
GENIUS_GENODEF_13
1002
{
1000
HIER
1070
     0
1002
}
1002
{
1000
MANEDIT
1070
     0
1002
}
1002
{
1000
NOSEL
1070
     0
1002
}
1002
{
1000
BEHIND
1070
     0
1002
}
1002
{
1000
REACTOR
1002
}
1001
GENIUS_GENOBJ-N-FIL_13
1002
{
1000
OWNER
1000
GEN
1002
}
  0
LINE
  5
D78
  8
0
 10
180.64021200292191
 20
225.84897525387569
 30
0.0
 11
180.32091415553469
 21
225.66301230598631
 31
0.0
  0
LINE
  5
D79
  8
0
 10
180.63942466416739
 20
226.0568198595254
 30
0.0
 11
180.31872710343939
 21
226.24035843279179
 31
0.0
  0
LINE
  5
D7A
  8
0
 10
180.6447577053394
 20
224.6489838636609
 30
0.0
 11
180.3254598579525
 21
224.46302091577169
 31
0.0
  0
LINE
  5
D7B
  8
0
 10
180.64397036658499
 20
224.85682846931061
 30
0.0
 11
180.32327280585719
 21
225.04036704257709
 31
0.0
  0
ARC
  5
D7C
  8
0
 10
180.5843644664514
 20
224.752678881365
 30
0.0
 40
0.12
 50
300.21704182195327
 51
60.217041821955391
1001
GENIUS_GENODEF_13
1002
{
1000
HIER
1070
     0
1002
}
1002
{
1000
MANEDIT
1070
     0
1002
}
1002
{
1000
NOSEL
1070
     0
1002
}
1002
{
1000
BEHIND
1070
     0
1002
}
1002
{
1000
REACTOR
1002
}
1001
GENIUS_GENOBJ-N-FIL_13
1002
{
1000
OWNER
1000
GEN
1002
}
  0
LINE
  5
D7E
  8
1
 10
146.26238197520689
 20
115.47809459835391
 30
0.0
 11
146.26238197520689
 21
55.478094598353891
 31
0.0
  0
LINE
  5
D7F
  8
1
 10
146.10117281197441
 20
146.22744825124951
 30
0.0
 11
146.10117281197441
 21
231.74489909971999
 31
0.0
  0
LINE
  5
DDD
  8
0
 10
186.01912683271311
 20
176.7269474220171
 30
0.0
 11
186.101085544574
 21
155.0668226440313
 31
0.0
  0
LINE
  5
DDE
  8
0
 10
183.36555315887711
 20
217.26316052554731
 30
0.0
 11
183.6011034816284
 21
155.05735243028849
 31
0.0
  0
LINE
  5
DDF
  8
0
 10
108.8644275598194
 20
217.26316052554731
 30
0.0
 11
108.6288772370682
 21
155.05735243028849
 31
0.0
  0
LINE
  5
DE0
  8
0
 10
106.2109890906182
 20
176.7626392431676
 30
0.0
 11
106.1288951741226
 21
155.0668226440313
 31
0.0
  0
LINE
  5
DE2
  8
0
 10
223.72950438979791
 20
177.0618794736516
 30
0.0
 11
273.72950438979791
 21
177.0618794736516
 31
0.0
  0
LINE
  5
DE3
  8
0
 10
223.72950438979791
 20
191.06177902615701
 30
0.0
 11
273.7295043897978
 21
191.06177902615701
 31
0.0
  0
LINE
  5
DE4
  8
0
 10
223.72950438979791
 20
205.061678578662
 30
0.0
 11
273.7295043897978
 21
205.061678578662
 31
0.0
  0
LINE
  5
DE5
  8
0
 10
223.72950438979791
 20
220.26503304375791
 30
0.0
 11
273.7295043897978
 21
220.26503304375791
 31
0.0
  0
LINE
  5
DE6
  8
0
 10
223.72950438979791
 20
225.1703570655817
 30
0.0
 11
273.72950438979791
 21
225.1703570655817
 31
0.0
  0
LINE
  5
DE8
  8
0
 10
223.7295043897978
 20
221.62383816449179
 30
0.0
 11
273.72950438979791
 21
221.62383816449179
 31
0.0
  0
LINE
  5
DEB
  8
0
 10
223.7295043897978
 20
151.05167030263939
 30
0.0
 11
273.72950438979791
 21
151.05167030263939
 31
0.0
  0
LINE
  5
DEC
  8
0
 10
223.72950438979791
 20
228.05167030226551
 30
0.0
 11
273.72950438979791
 21
228.05167030226551
 31
0.0
  0
LINE
  5
DED
  8
0
 10
273.72950438979791
 20
151.0516703026401
 30
0.0
 11
273.72950438979791
 21
228.05167030226551
 31
0.0
  0
TEXT
  5
E99
  8
0
 62
     3
 10
0.0
 20
0.0
 30
0.0
 40
10.0
  1
UPE8080N
  7
STANDARD1
  0
ENDSEC
  0
EOF
