  0
SECTION
  2
HEADER
  9
$ACADVER
  1
AC1009
  9
$INSBASE
 10
0.0
 20
0.0
 30
0.0
  9
$EXTMIN
 10
0.0
 20
-2.960436562073669
 30
0.0
  9
$EXTMAX
 10
566.69849726234929
 20
680.03196705574487
 30
0.0
  9
$LIMMIN
 10
0.0
 20
0.0
  9
$LIMMAX
 10
770.0
 20
540.0
  9
$ORTHOMODE
 70
     1
  9
$REGENMODE
 70
     1
  9
$FILLMODE
 70
     1
  9
$QTEXTMODE
 70
     0
  9
$MIRRTEXT
 70
     1
  9
$DRAGMODE
 70
     2
  9
$LTSCALE
 40
20.0
  9
$OSMODE
 70
    37
  9
$ATTMODE
 70
     1
  9
$TEXTSIZE
 40
4.0
  9
$TRACEWID
 40
0.05
  9
$TEXTSTYLE
  7
STANDARD
  9
$CLAYER
  8
0
  9
$CELTYPE
  6
BYLAYER
  9
$CECOLOR
 62
   256
  9
$DIMSCALE
 40
2.0
  9
$DIMASZ
 40
3.0
  9
$DIMEXO
 40
2.0
  9
$DIMDLI
 40
0.38
  9
$DIMRND
 40
0.0
  9
$DIMDLE
 40
0.0
  9
$DIMEXE
 40
2.0
  9
$DIMTP
 40
0.0
  9
$DIMTM
 40
0.0
  9
$DIMTXT
 40
3.0
  9
$DIMCEN
 40
0.0
  9
$DIMTSZ
 40
0.0
  9
$DIMTOL
 70
     0
  9
$DIMLIM
 70
     0
  9
$DIMTIH
 70
     0
  9
$DIMTOH
 70
     0
  9
$DIMSE1
 70
     0
  9
$DIMSE2
 70
     0
  9
$DIMTAD
 70
     1
  9
$DIMZIN
 70
     8
  9
$DIMBLK
  1

  9
$DIMASO
 70
     0
  9
$DIMSHO
 70
     0
  9
$DIMPOST
  1

  9
$DIMAPOST
  1

  9
$DIMALT
 70
     0
  9
$DIMALTD
 70
     2
  9
$DIMALTF
 40
25.399999999999999
  9
$DIMLFAC
 40
1.0
  9
$DIMTOFL
 70
     0
  9
$DIMTVP
 40
1.6000000000000001
  9
$DIMTIX
 70
     1
  9
$DIMSOXD
 70
     0
  9
$DIMSAH
 70
     0
  9
$DIMBLK1
  1

  9
$DIMBLK2
  1

  9
$DIMSTYLE
  2
STANDARD
  9
$DIMCLRD
 70
     4
  9
$DIMCLRE
 70
     4
  9
$DIMCLRT
 70
     4
  9
$DIMTFAC
 40
1.0
  9
$DIMGAP
 40
0.09
  9
$LUNITS
 70
     2
  9
$LUPREC
 70
     1
  9
$SKETCHINC
 40
0.1
  9
$FILLETRAD
 40
3.0
  9
$AUNITS
 70
     0
  9
$AUPREC
 70
     0
  9
$MENU
  1
E:\r13\win\SUPPORT\ACAD
  9
$ELEVATION
 40
0.0
  9
$PELEVATION
 40
0.0
  9
$THICKNESS
 40
0.0
  9
$LIMCHECK
 70
     0
  9
$BLIPMODE
 70
     0
  9
$CHAMFERA
 40
1.1999999999999991
  9
$CHAMFERB
 40
1.1999999999999991
  9
$SKPOLY
 70
     0
  9
$TDCREATE
 40
2450059.5671413201
  9
$TDUPDATE
 40
2456776.7140734601
  9
$TDINDWG
 40
0.1906341088
  9
$TDUSRTIMER
 40
0.1906341088
  9
$USRTIMER
 70
     1
  9
$ANGBASE
 50
0.0
  9
$ANGDIR
 70
     0
  9
$PDMODE
 70
     0
  9
$PDSIZE
 40
0.0
  9
$PLINEWID
 40
0.0
  9
$COORDS
 70
     1
  9
$SPLFRAME
 70
     0
  9
$SPLINETYPE
 70
     6
  9
$SPLINESEGS
 70
     8
  9
$ATTDIA
 70
     0
  9
$ATTREQ
 70
     1
  9
$HANDLING
 70
     1
  9
$HANDSEED
  5
1B10
  9
$SURFTAB1
 70
     6
  9
$SURFTAB2
 70
     6
  9
$SURFTYPE
 70
     6
  9
$SURFU
 70
     6
  9
$SURFV
 70
     6
  9
$UCSNAME
  2

  9
$UCSORG
 10
0.0
 20
0.0
 30
0.0
  9
$UCSXDIR
 10
1.0
 20
0.0
 30
0.0
  9
$UCSYDIR
 10
0.0
 20
1.0
 30
0.0
  9
$PUCSNAME
  2

  9
$PUCSORG
 10
0.0
 20
0.0
 30
0.0
  9
$PUCSXDIR
 10
1.0
 20
0.0
 30
0.0
  9
$PUCSYDIR
 10
0.0
 20
1.0
 30
0.0
  9
$USERI1
 70
     3
  9
$USERI2
 70
     1
  9
$USERI3
 70
     1
  9
$USERI4
 70
     0
  9
$USERI5
 70
     0
  9
$USERR1
 40
2.0
  9
$USERR2
 40
3.0
  9
$USERR3
 40
3.0
  9
$USERR4
 40
3.0
  9
$USERR5
 40
10.0
  9
$WORLDVIEW
 70
     1
  9
$SHADEDGE
 70
     3
  9
$SHADEDIF
 70
    70
  9
$TILEMODE
 70
     1
  9
$MAXACTVP
 70
    16
  9
$PLIMCHECK
 70
     0
  9
$PEXTMIN
 10
1.0000000000000000E+020
 20
1.0000000000000000E+020
 30
1.0000000000000000E+020
  9
$PEXTMAX
 10
-1.0000000000000000E+020
 20
-1.0000000000000000E+020
 30
-1.0000000000000000E+020
  9
$PLIMMIN
 10
0.0
 20
0.0
  9
$PLIMMAX
 10
12.0
 20
9.0
  9
$UNITMODE
 70
     0
  9
$VISRETAIN
 70
     0
  9
$PLINEGEN
 70
     0
  9
$PSLTSCALE
 70
     0
  0
ENDSEC
  0
SECTION
  2
TABLES
  0
TABLE
  2
VPORT
 70
     1
  0
VPORT
  2
*ACTIVE
 70
     0
 10
0.0
 20
0.0
 11
1.0
 21
1.0
 12
614.63774496368683
 22
338.53576842736391
 13
0.0
 23
0.0
 14
10.0
 24
10.0
 15
10.0
 25
10.0
 16
0.0
 26
0.0
 36
1.0
 17
0.0
 27
0.0
 37
0.0
 40
689.08524359205705
 41
2.6019575856443709
 42
50.0
 43
0.0
 44
0.0
 50
0.0
 51
0.0
 71
     0
 72
 10000
 73
     1
 74
     1
 75
     0
 76
     0
 77
     0
 78
     2
  0
ENDTAB
  0
TABLE
  2
LTYPE
 70
     4
  0
LTYPE
  2
CONTINUOUS
 70
     0
  3
実線
 72
    65
 73
     0
 40
0.0
  0
LTYPE
  2
CENTER
 70
     0
  3
____ _ ____ _ ____ _ ____ _ ____ _ ____ _ ____
 72
    65
 73
     4
 40
2.0
 49
1.25
 49
-0.25
 49
0.25
 49
-0.25
  0
LTYPE
  2
HIDDEN
 70
     0
  3
_ _ _ _ _ _ _ _ _ _ _ _ _ _ _ _ _ _ _ _ _ _ _
 72
    65
 73
     2
 40
0.375
 49
0.25
 49
-0.125
  0
LTYPE
  2
PHANTOM2
 70
     0
  3
___ _ _ ___ _ _ ___ _ _ ___ _ _
 72
    65
 73
     6
 40
1.25
 49
0.625
 49
-0.125
 49
0.125
 49
-0.125
 49
0.125
 49
-0.125
  0
ENDTAB
  0
TABLE
  2
LAYER
 70
     5
  0
LAYER
  2
0
 70
     0
 62
     7
  6
CONTINUOUS
  0
LAYER
  2
2
 70
     0
 62
     2
  6
HIDDEN
  0
LAYER
  2
1
 70
     0
 62
     1
  6
CENTER
  0
LAYER
  2
DEFPOINTS
 70
     0
 62
     7
  6
CONTINUOUS
  0
LAYER
  2
3
 70
     0
 62
     3
  6
CONTINUOUS
  0
ENDTAB
  0
TABLE
  2
STYLE
 70
     2
  0
STYLE
  2
STANDARD
 70
     0
 40
0.0
 41
1.0
 50
0.0
 71
     0
 42
4.0
  3
SIMPLEX
  4
BIGFONT
  0
STYLE
  2
STANDARD1
 70
     0
 40
0.0
 41
1.0
 50
0.0
 71
     0
 42
3.0
  3
txt
  4

  0
ENDTAB
  0
TABLE
  2
VIEW
 70
     1
  0
VIEW
  2
ALL
 70
     0
 40
270.0
 10
220.59941989218049
 20
135.0
 41
441.19883978436093
 11
0.0
 21
0.0
 31
1.0
 12
0.0
 22
0.0
 32
0.0
 42
50.0
 43
0.0
 44
0.0
 50
0.0
 71
     0
  0
ENDTAB
  0
TABLE
  2
UCS
 70
     0
  0
ENDTAB
  0
TABLE
  2
APPID
 70
     4
  0
APPID
  2
ACAD
 70
     0
  0
APPID
  2
ACAD_MLEADERVER
 70
     0
  0
APPID
  2
ACAD_EXEMPT_FROM_CAD_STANDARDS
 70
     0
  0
APPID
  2
ACAD_NAV_VCDISPLAY
 70
     0
  0
ENDTAB
  0
TABLE
  2
DIMSTYLE
 70
     1
  0
DIMSTYLE
  2
STANDARD
 70
     0
  3

  4

  5

  6

  7

 40
1.0
 41
0.18
 42
0.0625
 43
0.38
 44
0.18
 45
0.0
 46
0.0
 47
0.0
 48
0.0
140
0.18
141
0.09
142
0.0
143
25.399999999999999
144
1.0
145
0.0
146
1.0
147
0.09
 71
     0
 72
     0
 73
     1
 74
     1
 75
     0
 76
     0
 77
     0
 78
     0
170
     0
171
     2
172
     0
173
     0
174
     0
175
     0
176
     0
177
     0
178
     0
  0
ENDTAB
  0
ENDSEC
  0
SECTION
  2
BLOCKS
  0
BLOCK
  8
0
  2
$MODEL_SPACE
 70
     0
 10
0.0
 20
0.0
 30
0.0
  3
$MODEL_SPACE
  1

  0
ENDBLK
  5
FFD
  8
0
  0
BLOCK
 67
     1
  8
0
  2
$PAPER_SPACE
 70
     0
 10
0.0
 20
0.0
 30
0.0
  3
$PAPER_SPACE
  1

  0
ENDBLK
  5
FFB
 67
     1
  8
0
  0
ENDSEC
  0
SECTION
  2
ENTITIES
  0
ARC
  5
1159
  8
0
 10
280.69849726234929
 20
394.03196705574499
 30
0.0
 40
23.5
 50
131.22855474531869
 51
168.77144525468421
  0
CIRCLE
  5
115A
  8
0
 10
280.69849726234918
 20
394.03196705574487
 30
0.0
 40
100.0
  0
LINE
  5
115C
  8
0
 10
556.69849726234941
 20
375.0319670557451
 30
0.0
 11
556.69849726234906
 21
413.03196705574459
 31
0.0
  0
LINE
  5
1161
  8
1
 10
297.69849726234918
 20
478.03196705574487
 30
0.0
 11
263.69849726234929
 21
478.03196705574487
 31
0.0
  0
LINE
  5
1162
  8
1
 10
511.69849726234798
 20
284.03196705574499
 30
0.0
 11
511.69849726234798
 21
504.03196705574481
 31
0.0
  0
LINE
  5
1164
  8
1
 10
280.69849726234929
 20
394.03196705574481
 30
0.0
 11
375.96129167863739
 21
339.03196705574487
 31
0.0
  0
LINE
  5
1165
  8
1
 10
280.69849726234878
 20
394.03196705574487
 30
0.0
 11
185.43570284606079
 21
339.03196705574499
 31
0.0
  0
LINE
  5
1166
  8
1
 10
490.69849726234912
 20
394.03196705574481
 30
0.0
 11
566.69849726234929
 21
394.03196705574487
 31
0.0
  0
LINE
  5
1167
  8
1
 10
280.69849726234929
 20
284.03196705574499
 30
0.0
 11
280.69849726234929
 21
504.03196705574481
 31
0.0
  0
LINE
  5
1168
  8
1
 10
390.69849726234918
 20
394.03196705574481
 30
0.0
 11
170.69849726234929
 21
394.03196705574481
 31
0.0
  0
ARC
  5
1169
  8
0
 10
280.69849726234929
 20
394.03196705574481
 30
0.0
 40
77.999999999999716
 50
103.13505879367609
 51
196.86494120632361
  0
ARC
  5
116A
  8
0
 10
280.69849726234929
 20
394.03196705574481
 30
0.0
 40
88.999999999999503
 50
104.0557480304425
 51
75.944251969557484
  0
ARC
  5
116B
  8
0
 10
280.69849726234929
 20
478.03196705574487
 30
0.0
 40
15.0
 50
188.41496808472431
 51
351.58503191527569
  0
LINE
  5
116C
  8
0
 10
267.07761325078093
 20
415.54561284174002
 30
0.0
 11
269.71505541134451
 21
464.33829281216168
 31
0.0
  0
LINE
  5
116D
  8
0
 10
255.25669147787301
 20
395.0711757387665
 30
0.0
 11
214.3197121850454
 21
368.39074384149541
 31
0.0
  0
ARC
  5
116E
  8
0
 10
264.2230729083181
 20
464.63515673124431
 30
0.0
 40
5.5
 50
356.9059419410828
 51
103.13505879367609
  0
ARC
  5
116F
  8
0
 10
260.41919747167611
 20
475.0319670557443
 30
0.0
 40
5.5
 50
8.4149680847245598
 51
104.0557480304425
  0
ARC
  5
1170
  8
0
 10
300.9777970530223
 20
475.0319670557443
 30
0.0
 40
5.5
 50
75.944251969557484
 51
171.58503191527541
  0
ARC
  5
1171
  8
0
 10
261.58563074775452
 20
415.84247676082248
 30
0.0
 40
5.5
 50
311.22855474531849
 51
356.9059419410828
  0
ARC
  5
1172
  8
0
 10
252.2536085309674
 20
399.6789401439857
 30
0.0
 40
5.5
 50
303.09405805891498
 51
348.77144525468429
  0
ARC
  5
1173
  8
0
 10
211.31662923813971
 20
372.99850824671461
 30
0.0
 40
5.5
 50
196.86494120632341
 51
303.09405805891498
  0
ARC
  5
1174
  8
0
 10
299.81136377694372
 20
415.84247676082282
 30
0.0
 40
5.5
 50
183.09405805891751
 51
228.77144525468671
  0
ARC
  5
1175
  8
0
 10
309.14338599373087
 20
399.67894014398593
 30
0.0
 40
5.5
 50
191.2285547453167
 51
236.90594194108499
  0
ARC
  5
1176
  8
0
 10
280.69849726234941
 20
394.03196705574481
 30
0.0
 40
23.5
 50
11.22855474531675
 51
48.771445254686718
  0
LINE
  5
1177
  8
0
 10
294.31938127391737
 20
415.54561284174019
 30
0.0
 11
291.68193911335391
 21
464.33829281216208
 31
0.0
  0
ARC
  5
1178
  8
0
 10
297.1739216163802
 20
464.63515673124459
 30
0.0
 40
5.5
 50
76.86494120632392
 51
183.09405805891751
  0
ARC
  5
1179
  8
0
 10
280.69849726234929
 20
394.03196705574481
 30
0.0
 40
77.999999999999716
 50
343.13505879367642
 51
76.86494120632392
  0
LINE
  5
117A
  8
0
 10
306.14030304682541
 20
395.07117573876673
 30
0.0
 11
347.07728233965292
 21
368.39074384149558
 31
0.0
  0
ARC
  5
117B
  8
0
 10
350.0803652865585
 20
372.99850824671478
 30
0.0
 40
5.5
 50
236.90594194108499
 51
343.13505879367642
  0
ARC
  5
117C
  8
0
 10
290.03051947913661
 20
366.57448426242598
 30
0.0
 40
5.5
 50
63.094058058914932
 51
108.771445254686
  0
ARC
  5
117D
  8
0
 10
271.3664750455622
 20
366.57448426242598
 30
0.0
 40
5.5
 50
71.228554745313986
 51
116.9059419410851
  0
ARC
  5
117E
  8
0
 10
280.69849726234918
 20
394.03196705574481
 30
0.0
 40
23.5
 50
251.228554745314
 51
288.77144525468611
  0
LINE
  5
117F
  8
0
 10
292.51941903525727
 20
371.47911258672769
 30
0.0
 11
336.09384048864842
 21
349.36686451357701
 31
0.0
  0
ARC
  5
1180
  8
0
 10
333.60494093252771
 20
344.4622361892753
 30
0.0
 40
5.5
 50
316.86494120632261
 51
63.094058058914932
  0
ARC
  5
1181
  8
0
 10
280.69849726234929
 20
394.03196705574481
 30
0.0
 40
77.999999999999716
 50
223.13505879367739
 51
316.86494120632273
  0
LINE
  5
1182
  8
0
 10
268.87757548944148
 20
371.47911258672769
 30
0.0
 11
225.30315403605039
 21
349.36686451357701
 31
0.0
  0
ARC
  5
1183
  8
0
 10
227.79205359217099
 20
344.4622361892753
 30
0.0
 40
5.5
 50
116.9059419410851
 51
223.13505879367719
  0
ARC
  5
1185
  8
0
 10
511.69849726234798
 20
305.03196705574533
 30
0.0
 40
11.000000000000369
 50
180.0
 51
0.0
  0
ARC
  5
1186
  8
0
 10
511.69849726234798
 20
483.03196705574442
 30
0.0
 40
11.000000000000369
 50
0.0
 51
180.0
  0
LINE
  5
1187
  8
0
 10
500.69849726234798
 20
305.03196705574533
 30
0.0
 11
500.69849726235049
 21
483.03196705574442
 31
0.0
  0
LINE
  5
118C
  8
0
 10
555.69849726234941
 20
374.0319670557451
 30
0.0
 11
542.69849726234906
 21
374.0319670557451
 31
0.0
  0
ARC
  5
118D
  8
0
 10
555.69849726234941
 20
375.0319670557451
 30
0.0
 40
1.0
 50
270.0
 51
0.0
  0
LINE
  5
118E
  8
0
 10
542.69849726234906
 20
374.0319670557451
 30
0.0
 11
542.69849726234906
 21
414.0319670557451
 31
0.0
  0
LINE
  5
118F
  8
0
 10
542.69849726234929
 20
374.0319670557451
 30
0.0
 11
541.83247185856476
 21
372.53196705574499
 31
0.0
  0
LINE
  5
1190
  8
0
 10
541.83247185856476
 20
372.53196705574499
 30
0.0
 11
541.83247185856476
 21
415.53196705574487
 31
0.0
  0
LINE
  5
1191
  8
0
 10
522.69849726234531
 20
483.03196705574459
 30
0.0
 11
522.69849726234804
 21
305.03196705574533
 31
0.0
  0
CIRCLE
  5
11C5
  8
0
 10
280.69849726234912
 20
394.03196705574481
 30
0.0
 40
20.766559657294799
  0
LINE
  5
11C7
  8
0
 10
542.69849726234929
 20
414.03196705574459
 30
0.0
 11
541.83247185856476
 21
415.53196705574459
 31
0.0
  0
ARC
  5
11C8
  8
0
 10
555.69849726234941
 20
413.03196705574459
 30
0.0
 40
1.0
 50
0.0
 51
90.0
  0
LINE
  5
11C9
  8
0
 10
541.83247185856499
 20
415.53196705574459
 30
0.0
 11
536.51354566827706
 21
415.53196705574459
 31
0.0
  0
LINE
  5
11CA
  8
0
 10
555.69849726234941
 20
414.03196705574459
 30
0.0
 11
542.69849726234929
 21
414.03196705574459
 31
0.0
  0
LINE
  5
12C8
  8
0
 10
522.69849726234577
 20
453.29759205575351
 30
0.0
 11
531.89475103767711
 21
421.9728526335349
 31
0.0
  0
ARC
  5
12CA
  8
0
 10
543.40881770032775
 20
425.3531290849557
 30
0.0
 40
12.0
 50
196.36107745534881
 51
234.92795501001379
  0
ARC
  5
12CD
  8
2
 10
526.69849726234941
 20
394.03196705574487
 30
0.0
 40
23.5
 50
66.190623774304896
 51
113.58048785476819
  0
ARC
  5
12CE
  8
2
 10
526.69849726234941
 20
394.03196705574487
 30
0.0
 40
23.5
 50
246.41951214523169
 51
280.9037825938554
  0
LINE
  5
12D0
  8
0
 10
541.83247185856476
 20
372.53196705574499
 30
0.0
 11
536.18533024285523
 21
372.53196705574499
 31
0.0
  0
LINE
  5
12FA
  8
2
 10
516.69849726234918
 20
373.53196705574481
 30
0.0
 11
516.69849726234929
 21
414.53196705574499
 31
0.0
  0
LINE
  5
12FC
  8
2
 10
516.69849726234918
 20
373.53196705574487
 30
0.0
 11
517.29762915025333
 21
372.49424018546028
 31
0.0
  0
LINE
  5
12FD
  8
2
 10
516.69849726234918
 20
414.53196705574481
 30
0.0
 11
517.29762915025356
 21
415.5696939260294
 31
0.0
  0
LINE
  5
15B7
  8
2
 10
260.19849726234929
 20
630.03196705574476
 30
0.0
 11
259.16077039206471
 21
630.63109894364925
 31
0.0
  0
LINE
  5
15B8
  8
2
 10
301.19849726234918
 20
630.03196705574476
 30
0.0
 11
302.23622413263382
 21
630.63109894364891
 31
0.0
  0
LINE
  5
15B9
  8
2
 10
301.19849726234918
 20
630.03196705574476
 30
0.0
 11
260.19849726234929
 21
630.0319670557451
 31
0.0
  0
LINE
  5
15BA
  8
0
 10
339.9641222623523
 20
636.03196705574305
 30
0.0
 11
308.63938284013932
 21
645.2282208310728
 31
0.0
  0
LINE
  5
15BB
  8
0
 10
302.19849726234918
 20
655.16594165196045
 30
0.0
 11
302.19849726234918
 21
649.51880003625092
 31
0.0
  0
ARC
  5
15BC
  8
0
 10
312.01965929156012
 20
656.74228749372355
 30
0.0
 40
12.0
 50
215.07204498998621
 51
253.63892254465119
  0
ARC
  5
15BD
  8
2
 10
280.69849726234929
 20
640.03196705574499
 30
0.0
 40
23.5
 50
336.41951214523158
 51
350.19981005488148
  0
ARC
  5
15BE
  8
0
 10
280.69849726234929
 20
640.03196705574499
 30
0.0
 40
23.5
 50
156.1906237743049
 51
189.80018994512011
  0
ARC
  5
15BF
  8
0
 10
249.37733523313841
 20
656.74228749372355
 30
0.0
 40
12.0
 50
286.36107745534878
 51
324.9279550100137
  0
LINE
  5
15C0
  8
0
 10
221.4328722623406
 20
636.03196705574135
 30
0.0
 11
252.75761168455921
 21
645.2282208310728
 31
0.0
  0
LINE
  5
15C2
  8
0
 10
260.69849726234952
 20
669.03196705574499
 30
0.0
 11
260.69849726234952
 21
656.0319670557451
 31
0.0
  0
LINE
  5
15C3
  8
0
 10
259.19849726234952
 20
655.16594165196079
 30
0.0
 11
259.19849726234952
 21
649.51880003625092
 31
0.0
  0
ARC
  5
15C4
  8
0
 10
261.69849726234929
 20
669.03196705574499
 30
0.0
 40
1.0
 50
90.0
 51
180.0
  0
LINE
  5
15C5
  8
0
 10
260.69849726234952
 20
656.0319670557451
 30
0.0
 11
259.19849726234952
 21
655.16594165196045
 31
0.0
  0
LINE
  5
15C6
  8
0
 10
191.69849726234969
 20
636.03196705574101
 30
0.0
 11
369.69849726234872
 21
636.03196705574373
 31
0.0
  0
LINE
  5
15C7
  8
0
 10
302.19849726234918
 20
655.16594165196045
 30
0.0
 11
259.19849726234929
 21
655.16594165196045
 31
0.0
  0
LINE
  5
15C8
  8
0
 10
300.69849726234918
 20
656.0319670557451
 30
0.0
 11
302.19849726234918
 21
655.16594165196045
 31
0.0
  0
LINE
  5
15C9
  8
0
 10
300.69849726234918
 20
656.03196705574476
 30
0.0
 11
260.69849726234912
 21
656.03196705574476
 31
0.0
  0
ARC
  5
15CA
  8
0
 10
299.69849726234872
 20
669.03196705574499
 30
0.0
 40
1.0
 50
0.0
 51
90.0
  0
LINE
  5
15CB
  8
0
 10
300.69849726234918
 20
669.03196705574499
 30
0.0
 11
300.69849726234918
 21
656.03196705574476
 31
0.0
  0
LINE
  5
15CC
  8
0
 10
369.69849726234872
 20
614.03196705574373
 30
0.0
 11
191.69849726234969
 21
614.03196705574624
 31
0.0
  0
ARC
  5
15CD
  8
0
 10
191.69849726234969
 20
625.03196705574373
 30
0.0
 40
11.000000000000369
 50
90.0
 51
270.0
  0
ARC
  5
15CE
  8
0
 10
369.69849726234872
 20
625.03196705574373
 30
0.0
 40
11.000000000000369
 50
270.0
 51
90.0
  0
LINE
  5
15CF
  8
1
 10
280.69849726234929
 20
604.03196705574476
 30
0.0
 11
280.69849726234929
 21
680.03196705574487
 31
0.0
  0
LINE
  5
15D0
  8
1
 10
390.69849726234918
 20
625.03196705574373
 30
0.0
 11
170.69849726234929
 21
625.03196705574373
 31
0.0
  0
LINE
  5
15D1
  8
0
 10
299.69849726234918
 20
670.03196705574487
 30
0.0
 11
261.69849726234952
 21
670.03196705574476
 31
0.0
  0
POLYLINE
  5
1618
  8
0
 66
     1
 10
0.0
 20
0.0
 30
0.0
 70
   128
  0
VERTEX
  5
1A78
  8
0
 10
534.30774939483592
 20
415.00080487182657
 30
0.0
  0
VERTEX
  5
1A79
  8
0
 10
534.12580524954865
 20
414.39266902760869
 30
0.0
  0
VERTEX
  5
1A7A
  8
0
 10
533.51830421037175
 20
413.7936159339871
 30
0.0
  0
VERTEX
  5
1A7B
  8
0
 10
532.65875123763738
 20
413.3883532957513
 30
0.0
  0
VERTEX
  5
1A7C
  8
0
 10
531.66901667951436
 20
413.16159308492269
 30
0.0
  0
VERTEX
  5
1A7D
  8
0
 10
530.56154981387874
 20
413.08671264850659
 30
0.0
  0
SEQEND
  5
1A7E
  8
0
  0
LINE
  5
1619
  8
0
 10
522.69849726234816
 20
413.08671264874488
 30
0.0
 11
530.56154987497723
 21
413.08671264874488
 31
0.0
  0
POLYLINE
  5
161A
  8
0
 66
     1
 10
0.0
 20
0.0
 30
0.0
 70
   128
  0
VERTEX
  5
1A7F
  8
0
 10
522.69849726234872
 20
357.45943856342433
 30
0.0
  0
VERTEX
  5
1A80
  8
0
 10
523.88018810669655
 20
359.30781534777287
 30
0.0
  0
VERTEX
  5
1A81
  8
0
 10
531.43880946774345
 20
371.42938842708082
 30
0.0
  0
SEQEND
  5
1A82
  8
0
  0
POLYLINE
  5
161B
  8
0
 66
     1
 10
0.0
 20
0.0
 30
0.0
 70
   128
  0
VERTEX
  5
1A83
  8
0
 10
531.43880946682214
 20
371.42938842553917
 30
0.0
  0
VERTEX
  5
1A84
  8
0
 10
532.10386285324785
 20
372.16414466171608
 30
0.0
  0
VERTEX
  5
1A85
  8
0
 10
533.56357924437089
 20
373.16329704373112
 30
0.0
  0
SEQEND
  5
1A86
  8
0
  0
POLYLINE
  5
161C
  8
0
 66
     1
 10
0.0
 20
0.0
 30
0.0
 70
   128
  0
VERTEX
  5
1A87
  8
0
 10
534.30774939450941
 20
374.35960057711441
 30
0.0
  0
VERTEX
  5
1A88
  8
0
 10
534.12580524857469
 20
373.68948728470542
 30
0.0
  0
VERTEX
  5
1A89
  8
0
 10
533.51830421113391
 20
373.13772238470142
 30
0.0
  0
SEQEND
  5
1A8A
  8
0
  0
LINE
  5
161D
  8
0
 10
522.69849726234816
 20
396.41572362574487
 30
0.0
 11
530.56154987491811
 21
396.41572362574487
 31
0.0
  0
POLYLINE
  5
161E
  8
0
 66
     1
 10
0.0
 20
0.0
 30
0.0
 70
   128
  0
VERTEX
  5
1A8B
  8
0
 10
534.18230738908073
 20
393.60250813005541
 30
0.0
  0
VERTEX
  5
1A8C
  8
0
 10
534.12017223738633
 20
394.03196510433389
 30
0.0
  0
VERTEX
  5
1A8D
  8
0
 10
533.63260691272183
 20
395.01626970849088
 30
0.0
  0
VERTEX
  5
1A8E
  8
0
 10
532.84010440163559
 20
395.78064526006602
 30
0.0
  0
VERTEX
  5
1A8F
  8
0
 10
531.8840339496428
 20
396.22919926651338
 30
0.0
  0
VERTEX
  5
1A90
  8
0
 10
530.56154979264113
 20
396.41572362596139
 30
0.0
  0
SEQEND
  5
1A91
  8
0
  0
ARC
  5
1620
  8
0
 10
526.69849726234941
 20
394.03196705574487
 30
0.0
 40
23.5
 50
280.9037825938554
 51
293.80937622569508
  0
POLYLINE
  5
166B
  8
0
  6
CONTINUOUS
 62
     7
 66
     1
 10
0.0
 20
0.0
 30
0.0
 70
   128
  0
VERTEX
  5
1A92
  8
0
  6
CONTINUOUS
 62
     7
 10
291.30782526382279
 20
647.64121918823162
 30
0.0
  0
VERTEX
  5
1A93
  8
0
  6
CONTINUOUS
 62
     7
 10
292.43271283958057
 20
647.45927504294445
 30
0.0
  0
VERTEX
  5
1A94
  8
0
  6
CONTINUOUS
 62
     7
 10
293.41569953380338
 20
646.85177400376745
 30
0.0
  0
VERTEX
  5
1A95
  8
0
  6
CONTINUOUS
 62
     7
 10
294.02442356139852
 20
645.99222103103295
 30
0.0
  0
VERTEX
  5
1A96
  8
0
  6
CONTINUOUS
 62
     7
 10
294.3479444300487
 20
645.00248647291005
 30
0.0
  0
VERTEX
  5
1A97
  8
0
  6
CONTINUOUS
 62
     7
 10
294.53158764381482
 20
643.05329976787618
 30
0.0
  0
SEQEND
  5
1A98
  8
0
  6
CONTINUOUS
 62
     7
  0
POLYLINE
  5
166C
  8
0
  6
CONTINUOUS
 62
     7
 66
     1
 10
0.0
 20
0.0
 30
0.0
 70
   128
  0
VERTEX
  5
1A99
  8
0
  6
CONTINUOUS
 62
     7
 10
294.53158764381482
 20
643.05329976787596
 30
0.0
  0
VERTEX
  5
1A9A
  8
0
  6
CONTINUOUS
 62
     7
 10
293.83135015733239
 20
639.49232098939751
 30
0.0
  0
VERTEX
  5
1A9B
  8
0
  6
CONTINUOUS
 62
     7
 10
293.50186731269088
 20
637.78306384674465
 30
0.0
  0
VERTEX
  5
1A9C
  8
0
  6
CONTINUOUS
 62
     7
 10
293.21765119644931
 20
636.28992796856767
 30
0.0
  0
VERTEX
  5
1A9D
  8
0
  6
CONTINUOUS
 62
     7
 10
293.16893834032942
 20
636.03196705574442
 30
0.0
  0
SEQEND
  5
1A9E
  8
0
  6
CONTINUOUS
 62
     7
  0
POLYLINE
  5
166D
  8
0
  6
CONTINUOUS
 62
     7
 66
     1
 10
0.0
 20
0.0
 30
0.0
 70
   128
  0
VERTEX
  5
1A9F
  8
0
  6
CONTINUOUS
 62
     7
 10
266.85276297141758
 20
643.11759759102574
 30
0.0
  0
VERTEX
  5
1AA0
  8
0
  6
CONTINUOUS
 62
     7
 10
267.56565003872208
 20
639.49229301751325
 30
0.0
  0
VERTEX
  5
1AA1
  8
0
  6
CONTINUOUS
 62
     7
 10
267.89511777046562
 20
637.78311320621981
 30
0.0
  0
VERTEX
  5
1AA2
  8
0
  6
CONTINUOUS
 62
     7
 10
268.17936301771522
 20
636.28982393853107
 30
0.0
  0
VERTEX
  5
1AA3
  8
0
  6
CONTINUOUS
 62
     7
 10
268.22805622593557
 20
636.03196705574442
 30
0.0
  0
SEQEND
  5
1AA4
  8
0
  6
CONTINUOUS
 62
     7
  0
POLYLINE
  5
166E
  8
0
  6
CONTINUOUS
 62
     7
 66
     1
 10
0.0
 20
0.0
 30
0.0
 70
   128
  0
VERTEX
  5
1AA5
  8
0
  6
CONTINUOUS
 62
     7
 10
266.85276297141758
 20
643.11759759102586
 30
0.0
  0
VERTEX
  5
1AA6
  8
0
  6
CONTINUOUS
 62
     7
 10
267.1046717519161
 20
645.24751875535515
 30
0.0
  0
VERTEX
  5
1AA7
  8
0
  6
CONTINUOUS
 62
     7
 10
267.53087092528978
 20
646.28350692547133
 30
0.0
  0
VERTEX
  5
1AA8
  8
0
  6
CONTINUOUS
 62
     7
 10
268.24452802284611
 20
647.07672028158106
 30
0.0
  0
VERTEX
  5
1AA9
  8
0
  6
CONTINUOUS
 62
     7
 10
269.07647282483168
 20
647.49640891155707
 30
0.0
  0
VERTEX
  5
1AAA
  8
0
  6
CONTINUOUS
 62
     7
 10
270.08916925719529
 20
647.64121918602598
 30
0.0
  0
SEQEND
  5
1AAB
  8
0
  6
CONTINUOUS
 62
     7
  0
ARC
  5
166F
  8
0
 10
280.69849726234929
 20
640.03196705574499
 30
0.0
 40
23.5
 50
350.19981005487989
 51
23.809376225695111
  0
ARC
  5
1670
  8
2
 10
280.69849726234929
 20
640.03196705574499
 30
0.0
 40
23.5
 50
189.8001899451184
 51
203.58048785476839
  0
ARC
  5
1672
  8
2
 10
280.69849726234929
 20
148.03196705574459
 30
0.0
 40
23.5
 50
156.41951214523161
 51
203.80937622569741
  0
LINE
  5
1678
  8
0
 10
299.69849726234918
 20
118.0319670557446
 30
0.0
 11
261.69849726234952
 21
118.0319670557448
 31
0.0
  0
LINE
  5
1679
  8
1
 10
390.69849726234918
 20
163.03196705574589
 30
0.0
 11
170.69849726234929
 21
163.03196705574589
 31
0.0
  0
ARC
  5
167A
  8
0
 10
369.69849726234872
 20
163.03196705574589
 30
0.0
 40
11.000000000000369
 50
270.0
 51
90.000000000000028
  0
ARC
  5
167B
  8
0
 10
191.69849726234969
 20
163.03196705574589
 30
0.0
 40
11.000000000000369
 50
90.000000000000028
 51
270.0
  0
LINE
  5
167C
  8
0
 10
369.69849726234872
 20
174.03196705574589
 30
0.0
 11
191.69849726234969
 21
174.03196705574339
 31
0.0
  0
LINE
  5
167D
  8
0
 10
300.69849726234918
 20
119.0319670557446
 30
0.0
 11
300.69849726234918
 21
132.03196705574479
 31
0.0
  0
ARC
  5
167E
  8
0
 10
299.69849726234872
 20
119.0319670557446
 30
0.0
 40
1.0
 50
270.0
 51
0.0
  0
LINE
  5
167F
  8
0
 10
300.69849726234918
 20
132.03196705574479
 30
0.0
 11
260.69849726234912
 21
132.03196705574479
 31
0.0
  0
LINE
  5
1680
  8
0
 10
300.69849726234918
 20
132.03196705574459
 30
0.0
 11
302.19849726234918
 21
132.89799245952909
 31
0.0
  0
LINE
  5
1681
  8
0
 10
302.19849726234918
 20
132.89799245952909
 30
0.0
 11
259.19849726234929
 21
132.89799245952909
 31
0.0
  0
LINE
  5
1682
  8
0
 10
191.69849726234969
 20
152.03196705574871
 30
0.0
 11
369.69849726234872
 21
152.03196705574589
 31
0.0
  0
LINE
  5
1683
  8
0
 10
260.69849726234952
 20
132.03196705574459
 30
0.0
 11
259.19849726234952
 21
132.89799245952909
 31
0.0
  0
ARC
  5
1684
  8
0
 10
261.69849726234929
 20
119.0319670557446
 30
0.0
 40
1.0
 50
180.0
 51
270.0
  0
LINE
  5
1685
  8
0
 10
259.19849726234952
 20
132.89799245952889
 30
0.0
 11
259.19849726234941
 21
138.21691864981699
 31
0.0
  0
LINE
  5
1686
  8
0
 10
260.69849726234952
 20
119.0319670557446
 30
0.0
 11
260.69849726234952
 21
132.03196705574459
 31
0.0
  0
LINE
  5
1687
  8
0
 10
221.4328722623406
 20
152.0319670557482
 30
0.0
 11
252.75761168455921
 21
142.83571328041691
 31
0.0
  0
ARC
  5
1688
  8
0
 10
249.37733523313841
 20
131.32164661776611
 30
0.0
 40
12.0
 50
35.072044989986232
 51
73.63892254465118
  0
ARC
  5
168A
  8
2
 10
280.69849726234929
 20
148.03196705574459
 30
0.0
 40
23.5
 50
336.19062377430299
 51
23.580487854768361
  0
ARC
  5
168B
  8
0
 10
312.01965929156012
 20
131.32164661776611
 30
0.0
 40
12.0
 50
106.36107745534881
 51
144.92795501001379
  0
LINE
  5
168C
  8
0
 10
302.19849726234918
 20
132.89799245952909
 30
0.0
 11
302.19849726234918
 21
138.2169186498171
 31
0.0
  0
LINE
  5
168D
  8
0
 10
339.9641222623523
 20
152.03196705574661
 30
0.0
 11
308.63938284013932
 21
142.83571328041691
 31
0.0
  0
LINE
  5
168E
  8
2
 10
301.19849726234918
 20
158.03196705574479
 30
0.0
 11
260.19849726234929
 21
158.03196705574459
 31
0.0
  0
LINE
  5
168F
  8
2
 10
301.19849726234918
 20
158.03196705574479
 30
0.0
 11
302.23622413263382
 21
157.43283516784061
 31
0.0
  0
LINE
  5
1690
  8
2
 10
260.19849726234929
 20
158.03196705574479
 30
0.0
 11
259.16077039206471
 21
157.43283516784041
 31
0.0
  0
LINE
  5
1691
  8
1
 10
280.69849726234929
 20
184.03196705574479
 30
0.0
 11
280.69849726234929
 21
108.0319670557446
 31
0.0
  0
POLYLINE
  5
16D0
  8
0
 66
     1
 10
0.0
 20
0.0
 30
0.0
 70
   128
  0
VERTEX
  5
1AAC
  8
0
 10
293.55337956026381
 20
140.42271492358441
 30
0.0
  0
VERTEX
  5
1AAD
  8
0
 10
292.46427468580362
 20
140.60465906951919
 30
0.0
  0
VERTEX
  5
1AAE
  8
0
 10
291.45398614484401
 20
141.2121601069598
 30
0.0
  0
VERTEX
  5
1AAF
  8
0
 10
290.79865639189092
 20
142.0717130798644
 30
0.0
  0
VERTEX
  5
1AB0
  8
0
 10
290.44051585230369
 20
143.06144764258761
 30
0.0
  0
VERTEX
  5
1AB1
  8
0
 10
290.32349733099471
 20
144.16891450423969
 30
0.0
  0
SEQEND
  5
1AB2
  8
0
  0
LINE
  5
16D1
  8
0
 10
290.32349733091331
 20
152.03196705574561
 30
0.0
 11
290.32349733091331
 21
144.16891444317571
 31
0.0
  0
LINE
  5
16D2
  8
0
 10
271.0734973309136
 20
152.03196705574561
 30
0.0
 11
271.0734973309136
 21
144.16891444317571
 31
0.0
  0
POLYLINE
  5
16D3
  8
0
 66
     1
 10
0.0
 20
0.0
 30
0.0
 70
   128
  0
VERTEX
  5
1AB3
  8
0
 10
267.84361516186692
 20
140.42271492553439
 30
0.0
  0
VERTEX
  5
1AB4
  8
0
 10
268.93272001291712
 20
140.60465907933721
 30
0.0
  0
VERTEX
  5
1AB5
  8
0
 10
269.94300852750013
 20
141.2121601154891
 30
0.0
  0
VERTEX
  5
1AB6
  8
0
 10
270.59833827663277
 20
142.0717130885273
 30
0.0
  0
VERTEX
  5
1AB7
  8
0
 10
270.95647880884621
 20
143.06144764199189
 30
0.0
  0
VERTEX
  5
1AB8
  8
0
 10
271.07349733106838
 20
144.16891452545269
 30
0.0
  0
SEQEND
  5
1AB9
  8
0
  0
LINE
  5
16D4
  8
2
 10
259.19849726234952
 20
138.54513407523899
 30
0.0
 11
259.19849726234969
 21
138.21691864981659
 31
0.0
  0
LINE
  5
16D5
  8
2
 10
302.19849726234918
 20
138.5451340752391
 30
0.0
 11
302.19849726234872
 21
138.21691864981659
 31
0.0
  0
POLYLINE
  5
192B
  8
0
 66
     1
 10
0.0
 20
0.0
 30
0.0
 70
   128
  0
VERTEX
  5
1ABA
  8
0
 10
522.69849726234918
 20
370.96989908732388
 30
0.0
  0
VERTEX
  5
1ABB
  8
0
 10
523.42588967413462
 20
372.35231893716792
 30
0.0
  0
VERTEX
  5
1ABC
  8
0
 10
525.56402662642336
 20
376.44322035108189
 30
0.0
  0
VERTEX
  5
1ABD
  8
0
 10
527.72877690115433
 20
380.62873510061058
 30
0.0
  0
VERTEX
  5
1ABE
  8
0
 10
529.8484428981161
 20
384.79961448820973
 30
0.0
  0
VERTEX
  5
1ABF
  8
0
 10
534.18230738908073
 20
393.60250813005558
 30
0.0
  0
SEQEND
  5
1AC0
  8
0
  0
POLYLINE
  5
192D
  8
0
  6
CONTINUOUS
 62
     7
 66
     1
 10
0.0
 20
0.0
 30
0.0
 70
   128
  0
VERTEX
  5
1AC1
  8
0
  6
CONTINUOUS
 62
     7
 10
298.83234749356939
 20
142.8357132796782
 30
0.0
  0
VERTEX
  5
1AC2
  8
0
  6
CONTINUOUS
 62
     7
 10
305.52827115860691
 20
144.88208511452561
 30
0.0
  0
VERTEX
  5
1AC3
  8
0
  6
CONTINUOUS
 62
     7
 10
312.27746298802617
 20
147.00176091043161
 30
0.0
  0
VERTEX
  5
1AC4
  8
0
  6
CONTINUOUS
 62
     7
 10
319.06840519753752
 20
149.16647694283171
 30
0.0
  0
VERTEX
  5
1AC5
  8
0
  6
CONTINUOUS
 62
     7
 10
325.71721332864809
 20
151.30463710852661
 30
0.0
  0
VERTEX
  5
1AC6
  8
0
  6
CONTINUOUS
 62
     7
 10
327.96631209041612
 20
152.0319670557447
 30
0.0
  0
SEQEND
  5
1AC7
  8
0
  6
CONTINUOUS
 62
     7
  0
POLYLINE
  5
192E
  8
0
 66
     1
 10
0.0
 20
0.0
 30
0.0
 70
   128
  0
VERTEX
  5
1AC8
  8
0
 10
293.55337917661791
 20
140.4227147164911
 30
0.0
  0
VERTEX
  5
1AC9
  8
0
 10
296.141867316777
 20
141.8628711784059
 30
0.0
  0
VERTEX
  5
1ACA
  8
0
 10
298.83234749355711
 20
142.8357132797446
 30
0.0
  0
SEQEND
  5
1ACB
  8
0
  0
POLYLINE
  5
192F
  8
0
  6
CONTINUOUS
 62
     7
 66
     1
 10
0.0
 20
0.0
 30
0.0
 70
   128
  0
VERTEX
  5
1ACC
  8
0
  6
CONTINUOUS
 62
     7
 10
233.43068167857311
 20
152.0319670557447
 30
0.0
  0
VERTEX
  5
1ACD
  8
0
  6
CONTINUOUS
 62
     7
 10
235.67997440877161
 20
151.30457464238771
 30
0.0
  0
VERTEX
  5
1ACE
  8
0
  6
CONTINUOUS
 62
     7
 10
242.3287118121807
 20
149.1664376915879
 30
0.0
  0
VERTEX
  5
1ACF
  8
0
  6
CONTINUOUS
 62
     7
 10
249.1197640507535
 20
147.00168741416661
 30
0.0
  0
VERTEX
  5
1AD0
  8
0
  6
CONTINUOUS
 62
     7
 10
255.86892711556351
 20
144.8820214193766
 30
0.0
  0
VERTEX
  5
1AD1
  8
0
  6
CONTINUOUS
 62
     7
 10
262.56464701154408
 20
142.8357132796782
 30
0.0
  0
SEQEND
  5
1AD2
  8
0
  6
CONTINUOUS
 62
     7
  0
POLYLINE
  5
1930
  8
0
 66
     1
 10
0.0
 20
0.0
 30
0.0
 70
   128
  0
VERTEX
  5
1AD3
  8
0
 10
262.56464701155687
 20
142.8357132797446
 30
0.0
  0
VERTEX
  5
1AD4
  8
0
 10
265.25512718505001
 20
141.86287117087619
 30
0.0
  0
VERTEX
  5
1AD5
  8
0
 10
267.84361533000379
 20
140.42271471761981
 30
0.0
  0
SEQEND
  5
1AD6
  8
0
  0
TEXT
  5
19E5
  8
0
 62
     3
 10
0.0
 20
0.0
 30
0.0
 40
10.0
  1
V200
  7
STANDARD1
  0
LINE
  5
1A40
  8
2
 10
536.18533024285398
 20
415.53196705574499
 30
0.0
 11
536.51354566827717
 21
415.53196705574442
 31
0.0
  0
CIRCLE
  5
1A57
  8
0
 10
280.69849726234918
 20
478.03196705574487
 30
0.0
 40
8.25
  0
CIRCLE
  5
1A58
  8
3
 10
280.69849726234918
 20
478.03196705574487
 30
0.0
 40
5.0
  0
CIRCLE
  5
1A59
  8
0
 10
280.69849726234918
 20
478.03196705574487
 30
0.0
 40
4.1879999999999988
  0
LINE
  5
1A5B
  8
1
 10
490.69849726235032
 20
478.03196705574481
 30
0.0
 11
532.69849726234634
 21
478.03196705574487
 31
0.0
  0
ENDSEC
  0
EOF
