  0
SECTION
  2
HEADER
  9
$ACADVER
  1
AC1009
  9
$INSBASE
 10
0.0
 20
0.0
 30
0.0
  9
$EXTMIN
 10
0.0
 20
-2.960436562073669
 30
0.0
  9
$EXTMAX
 10
806.82714186839905
 20
803.62805425709257
 30
0.0
  9
$LIMMIN
 10
0.0
 20
0.0
  9
$LIMMAX
 10
1155.0
 20
810.0
  9
$ORTHOMODE
 70
     1
  9
$REGENMODE
 70
     1
  9
$FILLMODE
 70
     1
  9
$QTEXTMODE
 70
     0
  9
$MIRRTEXT
 70
     1
  9
$DRAGMODE
 70
     2
  9
$LTSCALE
 40
20.0
  9
$OSMODE
 70
    37
  9
$ATTMODE
 70
     1
  9
$TEXTSIZE
 40
4.0
  9
$TRACEWID
 40
0.05
  9
$TEXTSTYLE
  7
STANDARD
  9
$CLAYER
  8
0
  9
$CELTYPE
  6
BYLAYER
  9
$CECOLOR
 62
   256
  9
$DIMSCALE
 40
3.0
  9
$DIMASZ
 40
3.0
  9
$DIMEXO
 40
2.0
  9
$DIMDLI
 40
0.38
  9
$DIMRND
 40
0.0
  9
$DIMDLE
 40
0.0
  9
$DIMEXE
 40
2.0
  9
$DIMTP
 40
0.0
  9
$DIMTM
 40
0.0
  9
$DIMTXT
 40
3.0
  9
$DIMCEN
 40
0.0
  9
$DIMTSZ
 40
0.0
  9
$DIMTOL
 70
     0
  9
$DIMLIM
 70
     0
  9
$DIMTIH
 70
     0
  9
$DIMTOH
 70
     0
  9
$DIMSE1
 70
     0
  9
$DIMSE2
 70
     0
  9
$DIMTAD
 70
     1
  9
$DIMZIN
 70
     8
  9
$DIMBLK
  1

  9
$DIMASO
 70
     0
  9
$DIMSHO
 70
     0
  9
$DIMPOST
  1

  9
$DIMAPOST
  1

  9
$DIMALT
 70
     0
  9
$DIMALTD
 70
     2
  9
$DIMALTF
 40
25.399999999999999
  9
$DIMLFAC
 40
1.0
  9
$DIMTOFL
 70
     0
  9
$DIMTVP
 40
1.6000000000000001
  9
$DIMTIX
 70
     1
  9
$DIMSOXD
 70
     0
  9
$DIMSAH
 70
     0
  9
$DIMBLK1
  1

  9
$DIMBLK2
  1

  9
$DIMSTYLE
  2
STANDARD
  9
$DIMCLRD
 70
     4
  9
$DIMCLRE
 70
     4
  9
$DIMCLRT
 70
     4
  9
$DIMTFAC
 40
1.0
  9
$DIMGAP
 40
0.09
  9
$LUNITS
 70
     2
  9
$LUPREC
 70
     1
  9
$SKETCHINC
 40
0.1
  9
$FILLETRAD
 40
3.0
  9
$AUNITS
 70
     0
  9
$AUPREC
 70
     0
  9
$MENU
  1
E:\r13\win\SUPPORT\ACAD
  9
$ELEVATION
 40
0.0
  9
$PELEVATION
 40
0.0
  9
$THICKNESS
 40
0.0
  9
$LIMCHECK
 70
     0
  9
$BLIPMODE
 70
     0
  9
$CHAMFERA
 40
1.1999999999999991
  9
$CHAMFERB
 40
1.1999999999999991
  9
$SKPOLY
 70
     0
  9
$TDCREATE
 40
2450059.5671413201
  9
$TDUPDATE
 40
2456776.7140962151
  9
$TDINDWG
 40
0.2532159375
  9
$TDUSRTIMER
 40
0.2532159375
  9
$USRTIMER
 70
     1
  9
$ANGBASE
 50
0.0
  9
$ANGDIR
 70
     0
  9
$PDMODE
 70
     0
  9
$PDSIZE
 40
0.0
  9
$PLINEWID
 40
0.0
  9
$COORDS
 70
     1
  9
$SPLFRAME
 70
     0
  9
$SPLINETYPE
 70
     6
  9
$SPLINESEGS
 70
     8
  9
$ATTDIA
 70
     0
  9
$ATTREQ
 70
     1
  9
$HANDLING
 70
     1
  9
$HANDSEED
  5
2194
  9
$SURFTAB1
 70
     6
  9
$SURFTAB2
 70
     6
  9
$SURFTYPE
 70
     6
  9
$SURFU
 70
     6
  9
$SURFV
 70
     6
  9
$UCSNAME
  2

  9
$UCSORG
 10
0.0
 20
0.0
 30
0.0
  9
$UCSXDIR
 10
1.0
 20
0.0
 30
0.0
  9
$UCSYDIR
 10
0.0
 20
1.0
 30
0.0
  9
$PUCSNAME
  2

  9
$PUCSORG
 10
0.0
 20
0.0
 30
0.0
  9
$PUCSXDIR
 10
1.0
 20
0.0
 30
0.0
  9
$PUCSYDIR
 10
0.0
 20
1.0
 30
0.0
  9
$USERI1
 70
     3
  9
$USERI2
 70
     1
  9
$USERI3
 70
     1
  9
$USERI4
 70
     0
  9
$USERI5
 70
     0
  9
$USERR1
 40
3.0
  9
$USERR2
 40
3.0
  9
$USERR3
 40
3.0
  9
$USERR4
 40
3.0
  9
$USERR5
 40
10.0
  9
$WORLDVIEW
 70
     1
  9
$SHADEDGE
 70
     3
  9
$SHADEDIF
 70
    70
  9
$TILEMODE
 70
     1
  9
$MAXACTVP
 70
    16
  9
$PLIMCHECK
 70
     0
  9
$PEXTMIN
 10
1.0000000000000000E+020
 20
1.0000000000000000E+020
 30
1.0000000000000000E+020
  9
$PEXTMAX
 10
-1.0000000000000000E+020
 20
-1.0000000000000000E+020
 30
-1.0000000000000000E+020
  9
$PLIMMIN
 10
0.0
 20
0.0
  9
$PLIMMAX
 10
12.0
 20
9.0
  9
$UNITMODE
 70
     0
  9
$VISRETAIN
 70
     0
  9
$PLINEGEN
 70
     0
  9
$PSLTSCALE
 70
     0
  0
ENDSEC
  0
SECTION
  2
TABLES
  0
TABLE
  2
VPORT
 70
     1
  0
VPORT
  2
*ACTIVE
 70
     0
 10
0.0
 20
0.0
 11
1.0
 21
1.0
 12
850.82789215916443
 22
403.51069211524748
 13
0.0
 23
0.0
 14
15.0
 24
15.0
 15
10.0
 25
10.0
 16
0.0
 26
0.0
 36
1.0
 17
0.0
 27
0.0
 37
0.0
 40
820.13092030706662
 41
2.6019575856443709
 42
50.0
 43
0.0
 44
0.0
 50
0.0
 51
0.0
 71
     0
 72
 10000
 73
     1
 74
     1
 75
     0
 76
     0
 77
     0
 78
     2
  0
ENDTAB
  0
TABLE
  2
LTYPE
 70
     4
  0
LTYPE
  2
CONTINUOUS
 70
     0
  3
実線
 72
    65
 73
     0
 40
0.0
  0
LTYPE
  2
CENTER
 70
     0
  3
____ _ ____ _ ____ _ ____ _ ____ _ ____ _ ____
 72
    65
 73
     4
 40
2.0
 49
1.25
 49
-0.25
 49
0.25
 49
-0.25
  0
LTYPE
  2
HIDDEN
 70
     0
  3
_ _ _ _ _ _ _ _ _ _ _ _ _ _ _ _ _ _ _ _ _ _ _
 72
    65
 73
     2
 40
0.375
 49
0.25
 49
-0.125
  0
LTYPE
  2
PHANTOM2
 70
     0
  3
___ _ _ ___ _ _ ___ _ _ ___ _ _
 72
    65
 73
     6
 40
1.25
 49
0.625
 49
-0.125
 49
0.125
 49
-0.125
 49
0.125
 49
-0.125
  0
ENDTAB
  0
TABLE
  2
LAYER
 70
     5
  0
LAYER
  2
0
 70
     0
 62
     7
  6
CONTINUOUS
  0
LAYER
  2
DEFPOINTS
 70
     0
 62
     7
  6
CONTINUOUS
  0
LAYER
  2
1
 70
     0
 62
     1
  6
CENTER
  0
LAYER
  2
2
 70
     0
 62
     2
  6
HIDDEN
  0
LAYER
  2
3
 70
     0
 62
     3
  6
CONTINUOUS
  0
ENDTAB
  0
TABLE
  2
STYLE
 70
     2
  0
STYLE
  2
STANDARD
 70
     0
 40
0.0
 41
1.0
 50
0.0
 71
     0
 42
4.0
  3
SIMPLEX
  4
BIGFONT
  0
STYLE
  2
STANDARD1
 70
     0
 40
0.0
 41
1.0
 50
0.0
 71
     0
 42
3.0
  3
txt
  4

  0
ENDTAB
  0
TABLE
  2
VIEW
 70
     1
  0
VIEW
  2
ALL
 70
     0
 40
270.0
 10
220.59941989218049
 20
135.0
 41
441.19883978436093
 11
0.0
 21
0.0
 31
1.0
 12
0.0
 22
0.0
 32
0.0
 42
50.0
 43
0.0
 44
0.0
 50
0.0
 71
     0
  0
ENDTAB
  0
TABLE
  2
UCS
 70
     0
  0
ENDTAB
  0
TABLE
  2
APPID
 70
     4
  0
APPID
  2
ACAD
 70
     0
  0
APPID
  2
ACAD_MLEADERVER
 70
     0
  0
APPID
  2
ACAD_EXEMPT_FROM_CAD_STANDARDS
 70
     0
  0
APPID
  2
ACAD_NAV_VCDISPLAY
 70
     0
  0
ENDTAB
  0
TABLE
  2
DIMSTYLE
 70
     1
  0
DIMSTYLE
  2
STANDARD
 70
     0
  3

  4

  5

  6

  7

 40
1.0
 41
0.18
 42
0.0625
 43
0.38
 44
0.18
 45
0.0
 46
0.0
 47
0.0
 48
0.0
140
0.18
141
0.09
142
0.0
143
25.399999999999999
144
1.0
145
0.0
146
1.0
147
0.09
 71
     0
 72
     0
 73
     1
 74
     1
 75
     0
 76
     0
 77
     0
 78
     0
170
     0
171
     2
172
     0
173
     0
174
     0
175
     0
176
     0
177
     0
178
     0
  0
ENDTAB
  0
ENDSEC
  0
SECTION
  2
BLOCKS
  0
BLOCK
  8
0
  2
$MODEL_SPACE
 70
     0
 10
0.0
 20
0.0
 30
0.0
  3
$MODEL_SPACE
  1

  0
ENDBLK
  5
1414
  8
0
  0
BLOCK
 67
     1
  8
0
  2
$PAPER_SPACE
 70
     0
 10
0.0
 20
0.0
 30
0.0
  3
$PAPER_SPACE
  1

  0
ENDBLK
  5
1412
 67
     1
  8
0
  0
ENDSEC
  0
SECTION
  2
ENTITIES
  0
CIRCLE
  5
1823
  8
0
 10
457.82714186839979
 20
454.6280542570928
 30
0.0
 40
140.0
  0
LINE
  5
1825
  8
0
 10
791.82714186839928
 20
429.12805807178978
 30
0.0
 11
791.82714186839962
 21
480.12805807179029
 31
0.0
  0
LINE
  5
1827
  8
1
 10
740.82714186839871
 20
299.62805425709291
 30
0.0
 11
740.82714186839871
 21
609.62805425709291
 31
0.0
  0
LINE
  5
182A
  8
1
 10
302.82714186840008
 20
454.6280542570928
 30
0.0
 11
612.82714186839928
 21
454.6280542570928
 31
0.0
  0
LINE
  5
182C
  8
1
 10
457.82714186839979
 20
454.6280542570928
 30
0.0
 11
366.72042776306648
 21
329.23042012897611
 31
0.0
  0
LINE
  5
182E
  8
1
 10
457.82714186839979
 20
454.6280542570928
 30
0.0
 11
310.41338184265152
 21
502.52568838520972
 31
0.0
  0
LINE
  5
182F
  8
1
 10
457.82714186839979
 20
454.62805425709217
 30
0.0
 11
548.93385597373299
 21
329.23042012897599
 31
0.0
  0
LINE
  5
1830
  8
1
 10
432.82714186840099
 20
576.62805425709223
 30
0.0
 11
482.82714186839888
 21
576.62805425709223
 31
0.0
  0
ARC
  5
1831
  8
0
 10
457.82714186839911
 20
454.62805425709303
 30
0.0
 40
31.5
 50
266.97106617169283
 51
273.02893382830717
  0
LINE
  5
1832
  8
1
 10
712.82714186839928
 20
454.6280542570928
 30
0.0
 11
806.82714186839905
 21
454.6280542570928
 31
0.0
  0
ARC
  5
1833
  8
0
 10
457.82714186839951
 20
454.62805425709229
 30
0.0
 40
113.9999999999993
 50
243.5324400098647
 51
253.50743759777609
  0
ARC
  5
1834
  8
0
 10
457.82714186839951
 20
454.62805425709229
 30
0.0
 40
126.9999999999993
 50
99.403300393493708
 51
80.596699606506277
  0
LINE
  5
1835
  8
0
 10
451.11274852741872
 20
420.86823441451838
 30
0.0
 11
404.95962516091458
 21
361.63566644537872
 31
0.0
  0
LINE
  5
1836
  8
0
 10
510.69465857588369
 20
361.63566644537832
 30
0.0
 11
464.54153520937911
 21
420.86823441451861
 31
0.0
  0
ARC
  5
1837
  8
0
 10
409.69250920019078
 20
357.94787460326438
 30
0.0
 40
6.0
 50
142.0748162916787
 51
243.5324400098647
  0
ARC
  5
1838
  8
0
 10
455.84563256669497
 20
417.18044257240422
 30
0.0
 40
6.0
 50
86.971066171692797
 51
142.07481629167879
  0
ARC
  5
1839
  8
0
 10
459.80865117010308
 20
417.18044257240439
 30
0.0
 40
6.0
 50
37.925183708321228
 51
93.028933828307174
  0
ARC
  5
183A
  8
0
 10
505.96177453660761
 20
357.94787460326398
 30
0.0
 40
6.0
 50
296.46755999013533
 51
37.925183708321228
  0
ARC
  5
183B
  8
0
 10
457.82714186839979
 20
576.62805425709223
 30
0.0
 40
15.0
 50
184.70165019675019
 51
355.29834980324978
  0
ARC
  5
183C
  8
0
 10
437.89444133912679
 20
574.98870999479652
 30
0.0
 40
5.0
 50
4.7016501967502098
 51
99.403300393493708
  0
ARC
  5
183D
  8
0
 10
477.75984239767251
 20
574.98870999479652
 30
0.0
 40
5.0
 50
80.596699606506277
 51
175.29834980324981
  0
ARC
  5
183E
  8
0
 10
564.6498762372313
 20
470.53099178340989
 30
0.0
 40
6.0
 50
8.4675599901384349
 51
109.9251837083184
  0
ARC
  5
183F
  8
0
 10
494.05425702955148
 20
444.94063318125518
 30
0.0
 40
6.0
 50
109.9251837083184
 51
165.02893382830891
  0
ARC
  5
1840
  8
0
 10
492.82961693207437
 20
441.1715785142851
 30
0.0
 40
6.0
 50
158.9710661716891
 51
214.07481629167361
  0
ARC
  5
1841
  8
0
 10
534.90103721228718
 20
378.97347966626393
 30
0.0
 40
6.0
 50
214.0748162916735
 51
315.53244000985848
  0
LINE
  5
1842
  8
0
 10
562.6051193755909
 20
476.17182234076353
 30
0.0
 11
492.0095001679108
 21
450.5814637386087
 31
0.0
  0
LINE
  5
1843
  8
0
 10
487.85977686934928
 20
437.80992865879273
 30
0.0
 11
529.93119714956219
 21
375.6118298107715
 31
0.0
  0
ARC
  5
1844
  8
0
 10
457.82714186839939
 20
454.62805425709291
 30
0.0
 40
31.5
 50
338.97106617168907
 51
345.02893382830882
  0
ARC
  5
1845
  8
0
 10
475.71258981133082
 20
561.13678982315207
 30
0.0
 40
6.0
 50
80.467559990137332
 51
181.92518370832309
  0
ARC
  5
1846
  8
0
 10
478.2352210506441
 20
486.08851045358182
 30
0.0
 40
6.0
 50
181.92518370832309
 51
237.02893382830689
  0
ARC
  5
1847
  8
0
 10
481.4413704498254
 20
483.75910656393802
 30
0.0
 40
6.0
 50
230.9710661716955
 51
286.07481629167643
  0
ARC
  5
1848
  8
0
 10
553.59606150448269
 20
504.55113540937509
 30
0.0
 40
6.0
 50
286.07481629167643
 51
27.532440009858512
  0
LINE
  5
1849
  8
0
 10
469.71597653283112
 20
560.93522299026142
 30
0.0
 11
472.23860777214441
 21
485.886943620691
 31
0.0
  0
LINE
  5
184A
  8
0
 10
483.10272441168649
 20
477.99370085285329
 30
0.0
 11
555.2574154663439
 21
498.78572969829042
 31
0.0
  0
ARC
  5
184B
  8
0
 10
457.82714186839939
 20
454.62805425709303
 30
0.0
 40
31.5
 50
50.971066171695441
 51
57.028933828306911
  0
ARC
  5
184C
  8
0
 10
362.05822223231547
 20
504.55113540937538
 30
0.0
 40
6.0
 50
152.4675599901413
 51
253.9251837083236
  0
ARC
  5
184D
  8
0
 10
434.21291328697362
 20
483.75910656393819
 30
0.0
 40
6.0
 50
253.9251837083236
 51
309.02893382830428
  0
ARC
  5
184E
  8
0
 10
437.41906268615458
 20
486.08851045358227
 30
0.0
 40
6.0
 50
302.97106617169288
 51
358.074816291677
  0
ARC
  5
184F
  8
0
 10
439.9416939254678
 20
561.13678982315184
 30
0.0
 40
6.0
 50
358.07481629167671
 51
99.532440009862654
  0
LINE
  5
1850
  8
0
 10
360.39686827045438
 20
498.78572969829071
 30
0.0
 11
432.55155932511241
 21
477.99370085285352
 31
0.0
  0
LINE
  5
1851
  8
0
 10
443.41567596465433
 20
485.88694362069151
 30
0.0
 11
445.93830720396772
 21
560.93522299026108
 31
0.0
  0
ARC
  5
1852
  8
0
 10
457.82714186839939
 20
454.6280542570932
 30
0.0
 40
31.5
 50
122.9710661716929
 51
129.0289338283043
  0
ARC
  5
1853
  8
0
 10
380.75324652451081
 20
378.9734796662637
 30
0.0
 40
6.0
 50
224.4675599901413
 51
325.92518370832647
  0
ARC
  5
1854
  8
0
 10
422.82466680472407
 20
441.1715785142855
 30
0.0
 40
6.0
 50
325.92518370832641
 51
21.028933828310439
  0
ARC
  5
1855
  8
0
 10
421.6000267072468
 20
444.94063318125558
 30
0.0
 40
6.0
 50
14.971066171690641
 51
70.0748162916816
  0
ARC
  5
1856
  8
0
 10
351.00440749956738
 20
470.53099178341
 30
0.0
 40
6.0
 50
70.0748162916816
 51
171.5324400098614
  0
LINE
  5
1857
  8
0
 10
385.72308658723608
 20
375.61182981077138
 30
0.0
 11
427.79450686744912
 21
437.80992865879313
 31
0.0
  0
LINE
  5
1858
  8
0
 10
423.64478356888719
 20
450.5814637386091
 30
0.0
 11
353.04916436120811
 21
476.1718223407637
 31
0.0
  0
ARC
  5
1859
  8
0
 10
457.82714186839911
 20
454.62805425709303
 30
0.0
 40
31.5
 50
194.97106617169061
 51
201.0289338283103
  0
ARC
  5
185A
  8
0
 10
740.82714186839871
 20
327.62805425709308
 30
0.0
 40
13.00000000000013
 50
180.0
 51
0.0
  0
ARC
  5
185B
  8
0
 10
740.82714186839871
 20
581.62805425709246
 30
0.0
 40
13.00000000000013
 50
0.0
 51
180.0
  0
LINE
  5
185C
  8
0
 10
727.82714186839871
 20
327.62805425709308
 30
0.0
 11
727.82714186839985
 21
581.62805425709246
 31
0.0
  0
LINE
  5
1864
  8
0
 10
790.82714186839939
 20
428.12805807178972
 30
0.0
 11
775.82714186839928
 21
428.12805807178972
 31
0.0
  0
LINE
  5
1865
  8
0
 10
775.82714186839928
 20
428.12805807178978
 30
0.0
 11
775.82714186839928
 21
481.12805044239582
 31
0.0
  0
LINE
  5
1866
  8
0
 10
775.82714186839928
 20
428.12805807178978
 30
0.0
 11
774.38376179059492
 21
425.62805044239968
 31
0.0
  0
LINE
  5
1867
  8
0
 10
774.38376179059492
 20
425.62805044239968
 30
0.0
 11
774.38376179059492
 21
483.62805807178671
 31
0.0
  0
ARC
  5
1868
  8
0
 10
790.82714186839939
 20
429.12805807178978
 30
0.0
 40
1.0
 50
270.0
 51
359.99999999999977
  0
LINE
  5
186A
  8
0
 10
753.82714186839598
 20
581.6280542570928
 30
0.0
 11
753.8271418683986
 21
327.62805425709308
 31
0.0
  0
CIRCLE
  5
187B
  8
0
 10
457.82714186839911
 20
454.62805425709303
 30
0.0
 40
27.85417722317311
  0
ARC
  5
18B6
  8
0
 10
790.82714186839939
 20
480.12805044239582
 30
0.0
 40
1.0
 50
0.0000000000002036
 51
90.0
  0
LINE
  5
18B7
  8
0
 10
775.82714186839928
 20
481.12805044239582
 30
0.0
 11
774.38376179059492
 21
483.62805807178592
 31
0.0
  0
LINE
  5
18B8
  8
0
 10
790.82714186839939
 20
481.12805044239582
 30
0.0
 11
775.82714186839928
 21
481.12805044239582
 31
0.0
  0
LINE
  5
18DE
  8
1
 10
457.82714186839979
 20
454.62805425709303
 30
0.0
 11
605.24090189414801
 21
502.52568838520978
 31
0.0
  0
ARC
  5
18E0
  8
0
 10
437.21977036773319
 20
348.61231844474599
 30
0.0
 40
10.000000000000069
 50
216.0565228557507
 51
301.94347714424418
  0
ARC
  5
18E1
  8
0
 10
457.82714186839951
 20
454.62805425709229
 30
0.0
 40
113.9999999999993
 50
264.49256240223099
 51
264.50744208475231
  0
ARC
  5
18E2
  8
0
 10
423.47634570597552
 20
338.60640626411032
 30
0.0
 40
7.0
 50
36.056522855750728
 51
73.507437597776175
  0
ARC
  5
18E3
  8
0
 10
446.2141711445633
 20
334.18662072623817
 30
0.0
 40
7.0
 50
84.492562402231044
 51
121.9434771442441
  0
ARC
  5
18E4
  8
0
 10
469.40884305903319
 20
334.18360981264851
 30
0.0
 40
7.0
 50
95.492562402227975
 51
132.94347714424771
  0
ARC
  5
18E5
  8
0
 10
446.24544067776651
 20
334.1836098126484
 30
0.0
 40
7.0
 50
47.056522855752483
 51
84.507437597772025
  0
ARC
  5
18E6
  8
0
 10
457.82714186839951
 20
454.62805425709229
 30
0.0
 40
113.9999999999993
 50
275.49256240222797
 51
275.50744208474362
  0
ARC
  5
18E7
  8
0
 10
457.82714186839979
 20
346.62805425709371
 30
0.0
 40
10.000000000000069
 50
227.05652285575241
 51
312.94347714424771
  0
ARC
  5
18E8
  8
0
 10
492.17793803082412
 20
338.60640626411038
 30
0.0
 40
7.0
 50
106.4925624022238
 51
143.9434771442495
  0
ARC
  5
18E9
  8
0
 10
469.44011259223629
 20
334.18662072623817
 30
0.0
 40
7.0
 50
58.056522855755972
 51
95.507437597768941
  0
ARC
  5
18EA
  8
0
 10
478.43451336906628
 20
348.61231844474599
 30
0.0
 40
10.000000000000069
 50
238.0565228557559
 51
323.94347714424953
  0
ARC
  5
18EC
  8
0
 10
457.82714186839979
 20
454.62805425709229
 30
0.0
 40
113.9999999999993
 50
286.49256240222388
 51
296.46755999013533
  0
ARC
  5
18EE
  8
0
 10
565.02212624566118
 20
441.46616516933659
 30
0.0
 40
10.000000000000069
 50
310.05652285575673
 51
35.943477144245009
  0
ARC
  5
18EF
  8
0
 10
575.96235736869244
 20
428.45419594962732
 30
0.0
 40
7.0
 50
130.0565228557567
 51
167.5074375977745
  0
ARC
  5
18F0
  8
0
 10
578.78526600792645
 20
451.44494184207321
 30
0.0
 40
7.0
 50
178.49256240222579
 51
215.94347714424501
  0
ARC
  5
18F1
  8
0
 10
560.54124562827519
 20
421.2542188645985
 30
0.0
 40
10.000000000000069
 50
299.05652285574899
 51
24.94347714424466
  0
ARC
  5
18F2
  8
0
 10
457.82714186839979
 20
454.62805425709229
 30
0.0
 40
113.9999999999993
 50
347.49256240222479
 51
347.5074420847497
  0
ARC
  5
18F3
  8
0
 10
568.79767311715932
 20
406.39382165857472
 30
0.0
 40
7.0
 50
119.05652285574899
 51
156.50743759777379
  0
ARC
  5
18F4
  8
0
 10
575.9555581005161
 20
428.42352643284539
 30
0.0
 40
7.0
 50
167.49256240222439
 51
204.9434771442447
  0
ARC
  5
18F5
  8
0
 10
568.78514675100405
 20
406.36501298872838
 30
0.0
 40
7.0
 50
156.49256240222769
 51
193.94347714424771
  0
ARC
  5
18F6
  8
0
 10
557.55530643892894
 20
386.10584478167277
 30
0.0
 40
7.0
 50
108.056522855754
 51
145.50743759777771
  0
ARC
  5
18F7
  8
0
 10
457.82714186839979
 20
454.62805425709229
 30
0.0
 40
113.9999999999993
 50
336.49256240222792
 51
336.50744208474902
  0
ARC
  5
18F8
  8
0
 10
552.28607023945324
 20
402.26861527048868
 30
0.0
 40
10.000000000000069
 50
288.056522855754
 51
13.94347714424786
  0
ARC
  5
18FA
  8
0
 10
457.82714186839979
 20
454.62805425709229
 30
0.0
 40
113.9999999999993
 50
358.4925624022261
 51
8.4675599901384349
  0
ARC
  5
18FB
  8
0
 10
457.82714186839979
 20
454.62805425709229
 30
0.0
 40
113.9999999999993
 50
315.53244000985859
 51
325.50743759777743
  0
ARC
  5
18FD
  8
0
 10
503.46991413639472
 20
552.50929525704942
 30
0.0
 40
10.000000000000069
 50
22.056522855753869
 51
107.9434771442492
  0
ARC
  5
18FE
  8
0
 10
519.22574959203735
 20
558.89315373720933
 30
0.0
 40
7.0
 50
202.05652285575391
 51
239.50743759777291
  0
ARC
  5
18FF
  8
0
 10
498.23257763963193
 20
568.68243058758071
 30
0.0
 40
7.0
 50
250.4925624022211
 51
287.94347714424919
  0
ARC
  5
1900
  8
0
 10
521.30794911598605
 20
542.00188964958545
 30
0.0
 40
10.000000000000069
 50
11.05652285575405
 51
96.943477144251545
  0
ARC
  5
1901
  8
0
 10
457.82714186839979
 20
454.62805425709229
 30
0.0
 40
113.9999999999993
 50
59.492562402222582
 51
59.507442084751169
  0
ARC
  5
1902
  8
0
 10
537.99240312039876
 20
545.26210353438421
 30
0.0
 40
7.0
 50
191.05652285575411
 51
228.50743759777311
  0
ARC
  5
1903
  8
0
 10
519.25281694640864
 20
558.87720984700923
 30
0.0
 40
7.0
 50
239.49256240222249
 51
276.94347714425157
  0
ARC
  5
1904
  8
0
 10
538.01593093356223
 20
545.24128788365874
 30
0.0
 40
7.0
 50
228.49256240222161
 51
265.9434771442526
  0
ARC
  5
1905
  8
0
 10
553.81333337105411
 20
528.30064781002477
 30
0.0
 40
7.0
 50
180.056522855753
 51
217.5074375977739
  0
ARC
  5
1906
  8
0
 10
457.82714186839979
 20
454.62805425709229
 30
0.0
 40
113.9999999999993
 50
48.492562402221779
 51
48.507442084753507
  0
ARC
  5
1907
  8
0
 10
536.81334164326904
 20
528.28387714384132
 30
0.0
 40
10.000000000000069
 50
0.0565228557529353
 51
85.943477144252626
  0
ARC
  5
1909
  8
0
 10
457.82714186839951
 20
454.62805425709229
 30
0.0
 40
113.9999999999993
 50
70.492562402221182
 51
80.467559990137332
  0
ARC
  5
190A
  8
0
 10
457.82714186839979
 20
454.62805425709229
 30
0.0
 40
113.9999999999993
 50
27.5324400098587
 51
37.50743759777373
  0
ARC
  5
190C
  8
0
 10
378.8409420935302
 20
528.28387714384121
 30
0.0
 40
10.000000000000069
 50
94.056522855747374
 51
179.9434771442474
  0
ARC
  5
190D
  8
0
 10
377.63835280323701
 20
545.24128788365852
 30
0.0
 40
7.0
 50
274.05652285574729
 51
311.50743759777839
  0
ARC
  5
190E
  8
0
 10
361.84095036574541
 20
528.30064781002466
 30
0.0
 40
7.0
 50
322.4925624022261
 51
359.94347714424742
  0
ARC
  5
190F
  8
0
 10
394.34633462081342
 20
542.00188964958545
 30
0.0
 40
10.000000000000069
 50
83.05652285574844
 51
168.9434771442462
  0
ARC
  5
1910
  8
0
 10
457.82714186839979
 20
454.62805425709229
 30
0.0
 40
113.9999999999993
 50
131.49256240222709
 51
131.50744208475169
  0
ARC
  5
1911
  8
0
 10
396.40146679039049
 20
558.877209847009
 30
0.0
 40
7.0
 50
263.05652285574843
 51
300.5074375977776
  0
ARC
  5
1912
  8
0
 10
377.66188061640042
 20
545.2621035343841
 30
0.0
 40
7.0
 50
311.49256240222701
 51
348.94347714424617
  0
ARC
  5
1913
  8
0
 10
396.42853414476173
 20
558.8931537372091
 30
0.0
 40
7.0
 50
300.49256240222718
 51
337.94347714424629
  0
ARC
  5
1914
  8
0
 10
417.42170609716732
 20
568.6824305875806
 30
0.0
 40
7.0
 50
252.05652285575081
 51
289.50743759777879
  0
ARC
  5
1915
  8
0
 10
457.82714186839979
 20
454.62805425709229
 30
0.0
 40
113.9999999999993
 50
120.49256240222719
 51
120.507442084749
  0
ARC
  5
1916
  8
0
 10
412.18436960040481
 20
552.50929525704908
 30
0.0
 40
10.000000000000069
 50
72.056522855750842
 51
157.94347714424649
  0
ARC
  5
1918
  8
0
 10
457.82714186839951
 20
454.62805425709217
 30
0.0
 40
113.9999999999993
 50
142.4925624022263
 51
152.4675599901413
  0
ARC
  5
1919
  8
0
 10
457.82714186839979
 20
454.62805425709229
 30
0.0
 40
113.9999999999993
 50
99.532440009862654
 51
109.5074375977788
  0
ARC
  5
191B
  8
0
 10
363.36821349734618
 20
402.2686152704884
 30
0.0
 40
10.000000000000069
 50
166.05652285575249
 51
251.94347714424609
  0
ARC
  5
191C
  8
0
 10
346.86913698579559
 20
406.3650129887281
 30
0.0
 40
7.0
 50
346.05652285575258
 51
23.507437597772409
  0
ARC
  5
191D
  8
0
 10
358.09897729787048
 20
386.10584478167249
 30
0.0
 40
7.0
 50
34.49256240222234
 51
71.943477144246032
  0
ARC
  5
191E
  8
0
 10
355.11303810852451
 20
421.25421886459827
 30
0.0
 40
10.000000000000069
 50
155.05652285575559
 51
240.94347714425109
  0
ARC
  5
191F
  8
0
 10
457.82714186839951
 20
454.62805425709229
 30
0.0
 40
113.9999999999993
 50
203.4925624022265
 51
203.5074420847474
  0
ARC
  5
1920
  8
0
 10
339.6987256362836
 20
428.42352643284499
 30
0.0
 40
7.0
 50
335.05652285575559
 51
12.50743759777564
  0
ARC
  5
1921
  8
0
 10
346.85661061964009
 20
406.3938216585745
 30
0.0
 40
7.0
 50
23.49256240222628
 51
60.943477144251027
  0
ARC
  5
1922
  8
0
 10
339.69192636810698
 20
428.45419594962698
 30
0.0
 40
7.0
 50
12.492562402225451
 51
49.94347714424346
  0
ARC
  5
1923
  8
0
 10
336.8690177288729
 20
451.44494184207292
 30
0.0
 40
7.0
 50
324.0565228557553
 51
1.507437597774266
  0
ARC
  5
1924
  8
0
 10
457.82714186839951
 20
454.62805425709229
 30
0.0
 40
113.9999999999993
 50
192.4925624022259
 51
192.5074420847497
  0
ARC
  5
1925
  8
0
 10
350.63215749113829
 20
441.46616516933642
 30
0.0
 40
10.000000000000069
 50
144.05652285575519
 51
229.9434771442435
  0
ARC
  5
1927
  8
0
 10
457.82714186839951
 20
454.62805425709217
 30
0.0
 40
113.9999999999993
 50
214.4925624022226
 51
224.4675599901413
  0
ARC
  5
1928
  8
0
 10
457.82714186839951
 20
454.62805425709229
 30
0.0
 40
113.9999999999993
 50
171.5324400098616
 51
181.5074375977739
  0
ARC
  5
1A6A
  8
2
 10
760.82714186839905
 20
461.1280749762019
 30
0.0
 40
25.0
 50
64.157978356577516
 51
116.6879398524579
  0
LINE
  5
1A6D
  8
0
 10
753.82714186839655
 20
535.79472783013739
 30
0.0
 11
766.45641297209613
 21
490.99089756545391
 31
0.0
  0
ARC
  5
1A71
  8
0
 10
778.96882091169005
 20
494.51788601924648
 30
0.0
 40
13.0
 50
195.74204411185059
 51
236.89584090037391
  0
ARC
  5
1A73
  8
2
 10
760.82714186839905
 20
448.12803353798381
 30
0.0
 40
25.0
 50
243.31206014754201
 51
295.84202164342253
  0
LINE
  5
1A79
  8
0
 10
774.38376179059492
 20
425.6280504423998
 30
0.0
 11
771.72442413043314
 21
425.6280504423998
 31
0.0
  0
LINE
  5
1AB0
  8
2
 10
748.82714186839962
 20
427.1280542570928
 30
0.0
 11
748.82714186839962
 21
482.12805425709269
 31
0.0
  0
LINE
  5
1AB2
  8
0
 10
774.38376179059492
 20
483.62805807178592
 30
0.0
 11
771.86870490737681
 21
483.6280580717858
 31
0.0
  0
LINE
  5
1AB3
  8
2
 10
748.82714186839962
 20
427.1280542570928
 30
0.0
 11
749.5988682793818
 21
425.7913849037285
 31
0.0
  0
LINE
  5
1AB4
  8
2
 10
748.82714186839962
 20
482.1280542570928
 30
0.0
 11
749.5988682793818
 21
483.4647236104571
 31
0.0
  0
LINE
  5
1AD3
  8
1
 10
457.82714186839979
 20
299.62805425709291
 30
0.0
 11
457.82714186839979
 21
609.62805425709291
 31
0.0
  0
LINE
  5
1B27
  8
2
 10
430.32714186839979
 20
745.62805425709314
 30
0.0
 11
428.99047251503538
 21
746.39978066807532
 31
0.0
  0
LINE
  5
1B28
  8
2
 10
485.32714186839979
 20
745.62805425709314
 30
0.0
 11
486.66381122176421
 21
746.39978066807532
 31
0.0
  0
LINE
  5
1B29
  8
0
 10
428.82713805370662
 20
771.18467417928844
 30
0.0
 11
428.82713805370679
 21
768.66961729607056
 31
0.0
  0
LINE
  5
1B2A
  8
2
 10
485.32714186839979
 20
745.62805425709314
 30
0.0
 11
430.32714186839979
 21
745.62805425709314
 31
0.0
  0
LINE
  5
1B2B
  8
0
 10
486.82714568309302
 20
771.18467417928844
 30
0.0
 11
486.82714568309291
 21
768.6696172960701
 31
0.0
  0
LINE
  5
1B2C
  8
0
 10
538.99381544143887
 20
750.62805425709178
 30
0.0
 11
494.18998517676118
 21
763.25732536078965
 31
0.0
  0
ARC
  5
1B2D
  8
0
 10
497.7169736305533
 20
775.76973330038368
 30
0.0
 40
13.0
 50
213.10415909962609
 51
254.25795588814941
  0
ARC
  5
1B2E
  8
2
 10
464.32716258750878
 20
757.6280542570928
 30
0.0
 40
25.0
 50
333.31206014754201
 51
25.842021643422491
  0
ARC
  5
1B2F
  8
0
 10
417.937310106246
 20
775.76973330038368
 30
0.0
 40
13.0
 50
285.74204411185059
 51
326.89584090037391
  0
LINE
  5
1B30
  8
0
 10
376.6604682953552
 20
750.62805425709018
 30
0.0
 11
421.46429856003869
 21
763.25732536078965
 31
0.0
  0
ARC
  5
1B31
  8
2
 10
451.32712114929058
 20
757.6280542570928
 30
0.0
 40
25.0
 50
154.1579783565775
 51
206.6879398524579
  0
LINE
  5
1B33
  8
0
 10
431.32714568309677
 20
787.62805425709291
 30
0.0
 11
431.32714568309677
 21
772.62805425709291
 31
0.0
  0
LINE
  5
1B34
  8
0
 10
431.32714568309677
 20
772.62805425709291
 30
0.0
 11
428.82713805370662
 21
771.18467417928844
 31
0.0
  0
ARC
  5
1B35
  8
0
 10
432.3271456830966
 20
787.62805425709303
 30
0.0
 40
1.0
 50
90.000000000000185
 51
180.0
  0
LINE
  5
1B36
  8
0
 10
330.82714186839979
 20
750.6280542570895
 30
0.0
 11
584.82714186839962
 21
750.62805425709223
 31
0.0
  0
ARC
  5
1B37
  8
0
 10
483.32713805370281
 20
787.62805425709303
 30
0.0
 40
1.0
 50
0.0
 51
89.999999999999758
  0
LINE
  5
1B38
  8
0
 10
486.82714568309302
 20
771.18467417928844
 30
0.0
 11
428.82713805370599
 21
771.18467417928844
 31
0.0
  0
LINE
  5
1B39
  8
0
 10
484.32713805370298
 20
772.62805425709291
 30
0.0
 11
486.82714568309302
 21
771.18467417928844
 31
0.0
  0
LINE
  5
1B3A
  8
0
 10
484.32713805370298
 20
772.62805425709291
 30
0.0
 11
431.32714568309711
 21
772.62805425709291
 31
0.0
  0
LINE
  5
1B3B
  8
0
 10
484.32713805370298
 20
787.62805425709291
 30
0.0
 11
484.32713805370298
 21
772.62805425709291
 31
0.0
  0
LINE
  5
1B3C
  8
0
 10
584.82714186839962
 20
724.62805425709223
 30
0.0
 11
330.8271418684003
 21
724.62805425709325
 31
0.0
  0
ARC
  5
1B3D
  8
0
 10
330.82714186840008
 20
737.62805425709234
 30
0.0
 40
13.00000000000013
 50
90.0
 51
270.0
  0
ARC
  5
1B3E
  8
0
 10
584.82714186839962
 20
737.62805425709234
 30
0.0
 40
13.00000000000013
 50
270.0
 51
90.0
  0
LINE
  5
1B3F
  8
1
 10
457.82714186839979
 20
709.62805425709291
 30
0.0
 11
457.82714186839979
 21
803.62805425709257
 31
0.0
  0
LINE
  5
1B40
  8
1
 10
612.82714186839928
 20
737.62805425709223
 30
0.0
 11
302.82714186840008
 21
737.62805425709223
 31
0.0
  0
LINE
  5
1B41
  8
0
 10
483.32713805370298
 20
788.62805425709291
 30
0.0
 11
432.32713805370253
 21
788.62805425709314
 31
0.0
  0
LINE
  5
1B42
  8
0
 10
483.32713805370298
 20
120.6280542570928
 30
0.0
 11
432.32713805370253
 21
120.6280542570925
 31
0.0
  0
LINE
  5
1B43
  8
1
 10
612.82714186839928
 20
171.62805425709351
 30
0.0
 11
302.82714186840008
 21
171.62805425709351
 31
0.0
  0
LINE
  5
1B44
  8
1
 10
457.82714186839979
 20
199.6280542570928
 30
0.0
 11
457.82714186839979
 21
105.628054257093
 31
0.0
  0
ARC
  5
1B45
  8
0
 10
584.82714186839962
 20
171.6280542570934
 30
0.0
 40
13.00000000000013
 50
270.0
 51
90.000000000000028
  0
ARC
  5
1B46
  8
0
 10
330.82714186840008
 20
171.6280542570934
 30
0.0
 40
13.00000000000013
 50
90.000000000000028
 51
270.0
  0
LINE
  5
1B47
  8
0
 10
584.82714186839962
 20
184.6280542570934
 30
0.0
 11
330.8271418684003
 21
184.62805425709229
 31
0.0
  0
LINE
  5
1B48
  8
0
 10
484.32713805370298
 20
121.6280542570928
 30
0.0
 11
484.32713805370298
 21
136.6280542570928
 31
0.0
  0
LINE
  5
1B49
  8
0
 10
484.32713805370298
 20
136.6280542570928
 30
0.0
 11
431.32714568309711
 21
136.6280542570928
 31
0.0
  0
LINE
  5
1B4A
  8
0
 10
484.32713805370298
 20
136.6280542570928
 30
0.0
 11
486.82714568309302
 21
138.0714343348973
 31
0.0
  0
LINE
  5
1B4B
  8
0
 10
486.82714568309302
 20
138.0714343348973
 30
0.0
 11
428.82713805370599
 21
138.0714343348973
 31
0.0
  0
ARC
  5
1B4C
  8
0
 10
483.32713805370281
 20
121.6280542570927
 30
0.0
 40
1.0
 50
270.00000000000023
 51
0.0
  0
LINE
  5
1B4D
  8
0
 10
330.82714186839979
 20
158.62805425709621
 30
0.0
 11
584.82714186839962
 21
158.62805425709351
 31
0.0
  0
ARC
  5
1B4E
  8
0
 10
432.3271456830966
 20
121.6280542570927
 30
0.0
 40
1.0
 50
180.0
 51
269.99999999999977
  0
LINE
  5
1B4F
  8
0
 10
431.32714568309677
 20
136.6280542570928
 30
0.0
 11
428.82713805370662
 21
138.0714343348973
 31
0.0
  0
LINE
  5
1B50
  8
0
 10
431.32714568309677
 20
121.6280542570928
 30
0.0
 11
431.32714568309677
 21
136.6280542570928
 31
0.0
  0
ARC
  5
1B51
  8
2
 10
451.32712114929058
 20
151.62805425709291
 30
0.0
 40
25.0
 50
153.3120601475421
 51
205.8420216434225
  0
LINE
  5
1B52
  8
0
 10
376.6604682953552
 20
158.6280542570955
 30
0.0
 11
421.46429856003869
 21
145.998783153396
 31
0.0
  0
ARC
  5
1B53
  8
0
 10
417.937310106246
 20
133.48637521380201
 30
0.0
 40
13.0
 50
33.104159099626088
 51
74.257955888149397
  0
ARC
  5
1B54
  8
2
 10
464.32716258750878
 20
151.62805425709291
 30
0.0
 40
25.0
 50
334.15797835657747
 51
26.687939852458008
  0
ARC
  5
1B55
  8
0
 10
497.7169736305533
 20
133.48637521380201
 30
0.0
 40
13.0
 50
105.7420441118506
 51
146.89584090037391
  0
LINE
  5
1B56
  8
0
 10
538.99381544143887
 20
158.62805425709391
 30
0.0
 11
494.18998517676118
 21
145.998783153396
 31
0.0
  0
LINE
  5
1B57
  8
0
 10
486.82714568309302
 20
138.0714343348973
 30
0.0
 11
486.82714568309291
 21
140.58649121811561
 31
0.0
  0
LINE
  5
1B58
  8
2
 10
485.32714186839979
 20
163.62805425709249
 30
0.0
 11
430.32714186839979
 21
163.62805425709249
 31
0.0
  0
LINE
  5
1B59
  8
0
 10
428.82713805370662
 20
138.0714343348973
 30
0.0
 11
428.82713805370679
 21
140.5864912181151
 31
0.0
  0
LINE
  5
1B5A
  8
2
 10
485.32714186839979
 20
163.62805425709249
 30
0.0
 11
486.66381122176421
 21
162.85632784611039
 31
0.0
  0
LINE
  5
1B5B
  8
2
 10
430.32714186839979
 20
163.62805425709249
 30
0.0
 11
428.99047251503538
 21
162.85632784611039
 31
0.0
  0
POLYLINE
  5
1BAB
  8
0
 66
     1
 10
0.0
 20
0.0
 30
0.0
 70
   128
  0
VERTEX
  5
2083
  8
0
 10
753.82714186839962
 20
487.21502068069799
 30
0.0
  0
VERTEX
  5
2084
  8
0
 10
754.56137400793045
 20
486.49272467152718
 30
0.0
  0
VERTEX
  5
2085
  8
0
 10
757.5444100490447
 20
483.55673024495837
 30
0.0
  0
VERTEX
  5
2086
  8
0
 10
760.57700686188468
 20
480.56919720306888
 30
0.0
  0
VERTEX
  5
2087
  8
0
 10
763.55900894924002
 20
477.62612948924499
 30
0.0
  0
VERTEX
  5
2088
  8
0
 10
766.45641297218776
 20
474.75460210106007
 30
0.0
  0
SEQEND
  5
2089
  8
0
  0
POLYLINE
  5
1BAC
  8
0
 66
     1
 10
0.0
 20
0.0
 30
0.0
 70
   128
  0
VERTEX
  5
208A
  8
0
 10
766.45641294889958
 20
474.75460211514638
 30
0.0
  0
VERTEX
  5
208B
  8
0
 10
767.49307591760646
 20
474.32315798142861
 30
0.0
  0
VERTEX
  5
208C
  8
0
 10
769.03852688324309
 20
473.99522558790648
 30
0.0
  0
SEQEND
  5
208D
  8
0
  0
POLYLINE
  5
1BAD
  8
0
 66
     1
 10
0.0
 20
0.0
 30
0.0
 70
   128
  0
VERTEX
  5
208E
  8
0
 10
764.45894801902318
 20
449.45404224266309
 30
0.0
  0
VERTEX
  5
208F
  8
0
 10
766.21158820286269
 20
449.72224454689268
 30
0.0
  0
VERTEX
  5
2090
  8
0
 10
767.51054987620967
 20
450.38983884515687
 30
0.0
  0
VERTEX
  5
2091
  8
0
 10
768.49244705194155
 20
451.47899813411578
 30
0.0
  0
VERTEX
  5
2092
  8
0
 10
768.95025175843671
 20
452.67258386801478
 30
0.0
  0
VERTEX
  5
2093
  8
0
 10
769.03851588025896
 20
453.5618933729628
 30
0.0
  0
SEQEND
  5
2094
  8
0
  0
LINE
  5
1BAE
  8
0
 10
756.72413041123639
 20
449.45404224209312
 30
0.0
 11
764.45894868828623
 21
449.45404224209312
 31
0.0
  0
POLYLINE
  5
1BAF
  8
0
 66
     1
 10
0.0
 20
0.0
 30
0.0
 70
   128
  0
VERTEX
  5
2095
  8
0
 10
756.72413038620721
 20
449.4540422422732
 30
0.0
  0
VERTEX
  5
2096
  8
0
 10
755.19598471591985
 20
449.69351555312738
 30
0.0
  0
VERTEX
  5
2097
  8
0
 10
753.83544041035998
 20
450.43581300857778
 30
0.0
  0
VERTEX
  5
2098
  8
0
 10
753.82714186839962
 20
450.44555671982278
 30
0.0
  0
SEQEND
  5
2099
  8
0
  0
POLYLINE
  5
1BB0
  8
0
 66
     1
 10
0.0
 20
0.0
 30
0.0
 70
   128
  0
VERTEX
  5
209A
  8
0
 10
764.45894803922715
 20
440.55015603152572
 30
0.0
  0
VERTEX
  5
209B
  8
0
 10
766.21158848067284
 20
440.30762352774701
 30
0.0
  0
VERTEX
  5
209C
  8
0
 10
767.51054979242485
 20
439.70996116136808
 30
0.0
  0
VERTEX
  5
209D
  8
0
 10
768.49244675040757
 20
438.7532122729159
 30
0.0
  0
VERTEX
  5
209E
  8
0
 10
768.95025172317105
 20
437.73053897823121
 30
0.0
  0
VERTEX
  5
209F
  8
0
 10
769.03851604039778
 20
436.98596928175249
 30
0.0
  0
SEQEND
  5
20A0
  8
0
  0
LINE
  5
1BB1
  8
0
 10
756.72413042297615
 20
440.55015603283829
 30
0.0
 11
764.45894869061681
 21
440.55015603283829
 31
0.0
  0
POLYLINE
  5
1BB2
  8
0
 66
     1
 10
0.0
 20
0.0
 30
0.0
 70
   128
  0
VERTEX
  5
20A1
  8
0
 10
753.82714186839962
 20
439.59226328769688
 30
0.0
  0
VERTEX
  5
20A2
  8
0
 10
754.41802634708085
 20
440.0249713994798
 30
0.0
  0
VERTEX
  5
20A3
  8
0
 10
755.69183988592863
 20
440.45413310296209
 30
0.0
  0
VERTEX
  5
20A4
  8
0
 10
756.72413038418847
 20
440.5501560317191
 30
0.0
  0
SEQEND
  5
20A5
  8
0
  0
POLYLINE
  5
1BB3
  8
0
 66
     1
 10
0.0
 20
0.0
 30
0.0
 70
   128
  0
VERTEX
  5
20A6
  8
0
 10
766.22331109027266
 20
419.87066428933213
 30
0.0
  0
VERTEX
  5
20A7
  8
0
 10
763.55901594811689
 20
412.17134402204158
 30
0.0
  0
VERTEX
  5
20A8
  8
0
 10
760.57702201278585
 20
403.66267239702182
 30
0.0
  0
VERTEX
  5
20A9
  8
0
 10
757.54439122642327
 20
395.0655896730874
 30
0.0
  0
VERTEX
  5
20AA
  8
0
 10
754.56144169665163
 20
386.64057840262728
 30
0.0
  0
VERTEX
  5
20AB
  8
0
 10
753.82714186839962
 20
384.5713425974385
 30
0.0
  0
SEQEND
  5
20AC
  8
0
  0
POLYLINE
  5
1BB4
  8
0
 66
     1
 10
0.0
 20
0.0
 30
0.0
 70
   128
  0
VERTEX
  5
20AD
  8
0
 10
766.2356183957578
 20
419.89681382965892
 30
0.0
  0
VERTEX
  5
20AE
  8
0
 10
767.2638050885937
 20
422.08141950313183
 30
0.0
  0
VERTEX
  5
20AF
  8
0
 10
769.34239215878415
 20
424.62291680795897
 30
0.0
  0
SEQEND
  5
20B0
  8
0
  0
POLYLINE
  5
1C0A
  8
0
  6
CONTINUOUS
 62
     7
 66
     1
 10
0.0
 20
0.0
 30
0.0
 70
   128
  0
VERTEX
  5
20B1
  8
0
  6
CONTINUOUS
 62
     7
 10
432.9843774242517
 20
765.8394282688472
 30
0.0
  0
VERTEX
  5
20B2
  8
0
  6
CONTINUOUS
 62
     7
 10
433.8243968942943
 20
765.63485733157347
 30
0.0
  0
VERTEX
  5
20B3
  8
0
  6
CONTINUOUS
 62
     7
 10
434.61231766063241
 20
764.99419641510303
 30
0.0
  0
VERTEX
  5
20B4
  8
0
  6
CONTINUOUS
 62
     7
 10
435.19089762426933
 20
764.05445106815648
 30
0.0
  0
VERTEX
  5
20B5
  8
0
  6
CONTINUOUS
 62
     7
 10
435.57197696093039
 20
762.85731432603279
 30
0.0
  0
VERTEX
  5
20B6
  8
0
  6
CONTINUOUS
 62
     7
 10
435.73043436674919
 20
761.25986044132685
 30
0.0
  0
SEQEND
  5
20B7
  8
0
  6
CONTINUOUS
 62
     7
  0
LINE
  5
1C0B
  8
0
  6
CONTINUOUS
 62
     7
 10
435.73043436670292
 20
753.52504279992991
 30
0.0
 11
435.73043436670292
 21
761.25986107697963
 31
0.0
  0
POLYLINE
  5
1C0C
  8
0
  6
CONTINUOUS
 62
     7
 66
     1
 10
0.0
 20
0.0
 30
0.0
 70
   128
  0
VERTEX
  5
20B8
  8
0
  6
CONTINUOUS
 62
     7
 10
435.73043436649817
 20
753.52504277490061
 30
0.0
  0
VERTEX
  5
20B9
  8
0
  6
CONTINUOUS
 62
     7
 10
435.55818131971313
 20
751.99689711076553
 30
0.0
  0
VERTEX
  5
20BA
  8
0
  6
CONTINUOUS
 62
     7
 10
435.0339372277349
 20
750.6363528097113
 30
0.0
  0
VERTEX
  5
20BB
  8
0
  6
CONTINUOUS
 62
     7
 10
435.02728953958552
 20
750.62805425709303
 30
0.0
  0
SEQEND
  5
20BC
  8
0
  6
CONTINUOUS
 62
     7
  0
POLYLINE
  5
1C0D
  8
0
  6
CONTINUOUS
 62
     7
 66
     1
 10
0.0
 20
0.0
 30
0.0
 70
   128
  0
VERTEX
  5
20BD
  8
0
  6
CONTINUOUS
 62
     7
 10
447.08470066133123
 20
765.83942842894567
 30
0.0
  0
VERTEX
  5
20BE
  8
0
  6
CONTINUOUS
 62
     7
 10
445.84380916517512
 20
765.63485732310755
 30
0.0
  0
VERTEX
  5
20BF
  8
0
  6
CONTINUOUS
 62
     7
 10
444.75162282610921
 20
764.99419625772134
 30
0.0
  0
VERTEX
  5
20C0
  8
0
  6
CONTINUOUS
 62
     7
 10
443.98875880976902
 20
764.05445046121804
 30
0.0
  0
VERTEX
  5
20C1
  8
0
  6
CONTINUOUS
 62
     7
 10
443.50288553411559
 20
762.85731380052846
 30
0.0
  0
VERTEX
  5
20C2
  8
0
  6
CONTINUOUS
 62
     7
 10
443.30453236934812
 20
761.25986039383315
 30
0.0
  0
SEQEND
  5
20C3
  8
0
  6
CONTINUOUS
 62
     7
  0
POLYLINE
  5
1C0E
  8
0
  6
CONTINUOUS
 62
     7
 66
     1
 10
0.0
 20
0.0
 30
0.0
 70
   128
  0
VERTEX
  5
20C4
  8
0
  6
CONTINUOUS
 62
     7
 10
443.30453231236049
 20
761.25985799432647
 30
0.0
  0
VERTEX
  5
20C5
  8
0
  6
CONTINUOUS
 62
     7
 10
443.40038007136889
 20
759.65973282447203
 30
0.0
  0
VERTEX
  5
20C6
  8
0
  6
CONTINUOUS
 62
     7
 10
443.50464191089623
 20
758.54111003003516
 30
0.0
  0
SEQEND
  5
20C7
  8
0
  6
CONTINUOUS
 62
     7
  0
POLYLINE
  5
1C0F
  8
0
  6
CONTINUOUS
 62
     7
 66
     1
 10
0.0
 20
0.0
 30
0.0
 70
   128
  0
VERTEX
  5
20C8
  8
0
  6
CONTINUOUS
 62
     7
 10
443.5046419070149
 20
758.5411100610927
 30
0.0
  0
VERTEX
  5
20C9
  8
0
  6
CONTINUOUS
 62
     7
 10
443.65721640831538
 20
757.31346021591708
 30
0.0
  0
VERTEX
  5
20CA
  8
0
  6
CONTINUOUS
 62
     7
 10
443.8301902137809
 20
755.90898307214775
 30
0.0
  0
VERTEX
  5
20CB
  8
0
  6
CONTINUOUS
 62
     7
 10
444.02356332341151
 20
754.32767862978517
 30
0.0
  0
VERTEX
  5
20CC
  8
0
  6
CONTINUOUS
 62
     7
 10
444.1865999353858
 20
752.98769143597565
 30
0.0
  0
VERTEX
  5
20CD
  8
0
  6
CONTINUOUS
 62
     7
 10
444.35782437640182
 20
751.5755473705849
 30
0.0
  0
VERTEX
  5
20CE
  8
0
  6
CONTINUOUS
 62
     7
 10
444.47238710555212
 20
750.62805425709303
 30
0.0
  0
SEQEND
  5
20CF
  8
0
  6
CONTINUOUS
 62
     7
  0
POLYLINE
  5
1C10
  8
0
  6
CONTINUOUS
 62
     7
 66
     1
 10
0.0
 20
0.0
 30
0.0
 70
   128
  0
VERTEX
  5
20D0
  8
0
  6
CONTINUOUS
 62
     7
 10
472.34974373768131
 20
761.25986040802206
 30
0.0
  0
VERTEX
  5
20D1
  8
0
  6
CONTINUOUS
 62
     7
 10
472.10810179231743
 20
763.01250058559515
 30
0.0
  0
VERTEX
  5
20D2
  8
0
  6
CONTINUOUS
 62
     7
 10
471.50344688674329
 20
764.31146226268083
 30
0.0
  0
VERTEX
  5
20D3
  8
0
  6
CONTINUOUS
 62
     7
 10
470.50734056797961
 20
765.29335944082004
 30
0.0
  0
VERTEX
  5
20D4
  8
0
  6
CONTINUOUS
 62
     7
 10
469.40216194782761
 20
765.75116414807144
 30
0.0
  0
VERTEX
  5
20D5
  8
0
  6
CONTINUOUS
 62
     7
 10
468.5695754769385
 20
765.83942826880411
 30
0.0
  0
SEQEND
  5
20D6
  8
0
  6
CONTINUOUS
 62
     7
  0
POLYLINE
  5
1C11
  8
0
  6
CONTINUOUS
 62
     7
 66
     1
 10
0.0
 20
0.0
 30
0.0
 70
   128
  0
VERTEX
  5
20D7
  8
0
  6
CONTINUOUS
 62
     7
 10
472.34974379358658
 20
761.25985806211111
 30
0.0
  0
VERTEX
  5
20D8
  8
0
  6
CONTINUOUS
 62
     7
 10
472.25389603595471
 20
759.65973282805908
 30
0.0
  0
VERTEX
  5
20D9
  8
0
  6
CONTINUOUS
 62
     7
 10
472.14963419650928
 20
758.54111003003516
 30
0.0
  0
SEQEND
  5
20DA
  8
0
  6
CONTINUOUS
 62
     7
  0
POLYLINE
  5
1C12
  8
0
  6
CONTINUOUS
 62
     7
 66
     1
 10
0.0
 20
0.0
 30
0.0
 70
   128
  0
VERTEX
  5
20DB
  8
0
  6
CONTINUOUS
 62
     7
 10
472.14963420039112
 20
758.5411100610927
 30
0.0
  0
VERTEX
  5
20DC
  8
0
  6
CONTINUOUS
 62
     7
 10
471.99706393410361
 20
757.31349403538934
 30
0.0
  0
VERTEX
  5
20DD
  8
0
  6
CONTINUOUS
 62
     7
 10
471.82408941822951
 20
755.90901100524661
 30
0.0
  0
VERTEX
  5
20DE
  8
0
  6
CONTINUOUS
 62
     7
 10
471.63071065276841
 20
754.32766097066497
 30
0.0
  0
VERTEX
  5
20DF
  8
0
  6
CONTINUOUS
 62
     7
 10
471.46768739138491
 20
752.98778414451215
 30
0.0
  0
VERTEX
  5
20E0
  8
0
  6
CONTINUOUS
 62
     7
 10
471.29646593801539
 20
751.57566467278218
 30
0.0
  0
VERTEX
  5
20E1
  8
0
  6
CONTINUOUS
 62
     7
 10
471.1818890180275
 20
750.62805425709303
 30
0.0
  0
SEQEND
  5
20E2
  8
0
  6
CONTINUOUS
 62
     7
  0
POLYLINE
  5
1C13
  8
0
  6
CONTINUOUS
 62
     7
 66
     1
 10
0.0
 20
0.0
 30
0.0
 70
   128
  0
VERTEX
  5
20E3
  8
0
  6
CONTINUOUS
 62
     7
 10
479.92384174063722
 20
761.25986042745444
 30
0.0
  0
VERTEX
  5
20E4
  8
0
  6
CONTINUOUS
 62
     7
 10
480.11665676980692
 20
763.01250087926564
 30
0.0
  0
VERTEX
  5
20E5
  8
0
  6
CONTINUOUS
 62
     7
 10
480.58829348899548
 20
764.3114621965442
 30
0.0
  0
VERTEX
  5
20E6
  8
0
  6
CONTINUOUS
 62
     7
 10
481.33254065564182
 20
765.29335915359331
 30
0.0
  0
VERTEX
  5
20E7
  8
0
  6
CONTINUOUS
 62
     7
 10
482.11262458743738
 20
765.7511641177706
 30
0.0
  0
VERTEX
  5
20E8
  8
0
  6
CONTINUOUS
 62
     7
 10
482.66989869675081
 20
765.83942842905981
 30
0.0
  0
SEQEND
  5
20E9
  8
0
  6
CONTINUOUS
 62
     7
  0
LINE
  5
1C14
  8
0
  6
CONTINUOUS
 62
     7
 10
479.92384174070321
 20
753.52504279992991
 30
0.0
 11
479.92384174070321
 21
761.25986107697963
 31
0.0
  0
POLYLINE
  5
1C15
  8
0
  6
CONTINUOUS
 62
     7
 66
     1
 10
0.0
 20
0.0
 30
0.0
 70
   128
  0
VERTEX
  5
20EA
  8
0
  6
CONTINUOUS
 62
     7
 10
480.67941616426327
 20
750.62805425709303
 30
0.0
  0
VERTEX
  5
20EB
  8
0
  6
CONTINUOUS
 62
     7
 10
480.340335911941
 20
751.21893873426825
 30
0.0
  0
VERTEX
  5
20EC
  8
0
  6
CONTINUOUS
 62
     7
 10
480.00027761096271
 20
752.49275227511362
 30
0.0
  0
VERTEX
  5
20ED
  8
0
  6
CONTINUOUS
 62
     7
 10
479.92384174028712
 20
753.52504277053356
 30
0.0
  0
SEQEND
  5
20EE
  8
0
  6
CONTINUOUS
 62
     7
  0
POLYLINE
  5
1C5E
  8
0
  6
CONTINUOUS
 62
     7
 66
     1
 10
0.0
 20
0.0
 30
0.0
 70
   128
  0
VERTEX
  5
20EF
  8
0
  6
CONTINUOUS
 62
     7
 10
463.57464314223222
 20
158.62805425709271
 30
0.0
  0
VERTEX
  5
20F0
  8
0
  6
CONTINUOUS
 62
     7
 10
463.09075171855602
 20
158.03733400828571
 30
0.0
  0
VERTEX
  5
20F1
  8
0
  6
CONTINUOUS
 62
     7
 10
462.61444385596951
 20
156.76354990171791
 30
0.0
  0
VERTEX
  5
20F2
  8
0
  6
CONTINUOUS
 62
     7
 10
462.50819186836452
 20
155.73106575532219
 30
0.0
  0
SEQEND
  5
20F3
  8
0
  6
CONTINUOUS
 62
     7
  0
LINE
  5
1C5F
  8
0
  6
CONTINUOUS
 62
     7
 10
462.50819186839988
 20
155.73106571425581
 30
0.0
 11
462.50819186839988
 21
147.99624743720611
 31
0.0
  0
POLYLINE
  5
1C60
  8
0
  6
CONTINUOUS
 62
     7
 66
     1
 10
0.0
 20
0.0
 30
0.0
 70
   128
  0
VERTEX
  5
20F4
  8
0
  6
CONTINUOUS
 62
     7
 10
462.50819186898661
 20
147.9962481064691
 30
0.0
  0
VERTEX
  5
20F5
  8
0
  6
CONTINUOUS
 62
     7
 10
462.77670101840238
 20
146.24360792630301
 30
0.0
  0
VERTEX
  5
20F6
  8
0
  6
CONTINUOUS
 62
     7
 10
463.4418859323232
 20
144.94464624551401
 30
0.0
  0
VERTEX
  5
20F7
  8
0
  6
CONTINUOUS
 62
     7
 10
464.51748370255058
 20
143.96274906637029
 30
0.0
  0
VERTEX
  5
20F8
  8
0
  6
CONTINUOUS
 62
     7
 10
465.68264006768408
 20
143.50494436459081
 30
0.0
  0
VERTEX
  5
20F9
  8
0
  6
CONTINUOUS
 62
     7
 10
466.54162079280098
 20
143.41668024541161
 30
0.0
  0
SEQEND
  5
20FA
  8
0
  6
CONTINUOUS
 62
     7
  0
LINE
  5
1C61
  8
0
  6
CONTINUOUS
 62
     7
 10
453.14609186840011
 20
155.73106571425581
 30
0.0
 11
453.14609186840011
 21
147.99624743720611
 31
0.0
  0
POLYLINE
  5
1C62
  8
0
  6
CONTINUOUS
 62
     7
 66
     1
 10
0.0
 20
0.0
 30
0.0
 70
   128
  0
VERTEX
  5
20FB
  8
0
  6
CONTINUOUS
 62
     7
 10
452.07964602048918
 20
158.62805425709271
 30
0.0
  0
VERTEX
  5
20FC
  8
0
  6
CONTINUOUS
 62
     7
 10
452.5636255077975
 20
158.0371697763363
 30
0.0
  0
VERTEX
  5
20FD
  8
0
  6
CONTINUOUS
 62
     7
 10
453.0398812757939
 20
156.7633562387478
 30
0.0
  0
VERTEX
  5
20FE
  8
0
  6
CONTINUOUS
 62
     7
 10
453.146091868236
 20
155.73106574365201
 30
0.0
  0
SEQEND
  5
20FF
  8
0
  6
CONTINUOUS
 62
     7
  0
POLYLINE
  5
1C63
  8
0
  6
CONTINUOUS
 62
     7
 66
     1
 10
0.0
 20
0.0
 30
0.0
 70
   128
  0
VERTEX
  5
2100
  8
0
  6
CONTINUOUS
 62
     7
 10
453.1460918682933
 20
147.99624808673121
 30
0.0
  0
VERTEX
  5
2101
  8
0
  6
CONTINUOUS
 62
     7
 10
452.8775826546871
 20
146.24360762947811
 30
0.0
  0
VERTEX
  5
2102
  8
0
  6
CONTINUOUS
 62
     7
 10
452.21239798813212
 20
144.94464632227451
 30
0.0
  0
VERTEX
  5
2103
  8
0
  6
CONTINUOUS
 62
     7
 10
451.13680061523507
 20
143.96274936955851
 30
0.0
  0
VERTEX
  5
2104
  8
0
  6
CONTINUOUS
 62
     7
 10
449.97164434983131
 20
143.5049444005459
 30
0.0
  0
VERTEX
  5
2105
  8
0
  6
CONTINUOUS
 62
     7
 10
449.1126627673861
 20
143.41668008505809
 30
0.0
  0
SEQEND
  5
2106
  8
0
  6
CONTINUOUS
 62
     7
  0
POLYLINE
  5
1C64
  8
0
  6
CONTINUOUS
 62
     7
 66
     1
 10
0.0
 20
0.0
 30
0.0
 70
   128
  0
VERTEX
  5
2107
  8
0
  6
CONTINUOUS
 62
     7
 10
486.32719187948118
 20
145.99878317654299
 30
0.0
  0
VERTEX
  5
2108
  8
0
  6
CONTINUOUS
 62
     7
 10
485.03977196461432
 20
144.96212020798981
 30
0.0
  0
VERTEX
  5
2109
  8
0
  6
CONTINUOUS
 62
     7
 10
483.92325146778961
 20
143.4166692422674
 30
0.0
  0
SEQEND
  5
210A
  8
0
  6
CONTINUOUS
 62
     7
  0
POLYLINE
  5
1C65
  8
0
  6
CONTINUOUS
 62
     7
 66
     1
 10
0.0
 20
0.0
 30
0.0
 70
   128
  0
VERTEX
  5
210B
  8
0
  6
CONTINUOUS
 62
     7
 10
511.79011750306921
 20
158.62805425709271
 30
0.0
  0
VERTEX
  5
210C
  8
0
  6
CONTINUOUS
 62
     7
 10
510.3226224613536
 20
157.89382211506981
 30
0.0
  0
VERTEX
  5
210D
  8
0
  6
CONTINUOUS
 62
     7
 10
504.3496596222044
 20
154.9107860764808
 30
0.0
  0
VERTEX
  5
210E
  8
0
  6
CONTINUOUS
 62
     7
 10
498.25931689815661
 20
151.8781892609905
 30
0.0
  0
VERTEX
  5
210F
  8
0
  6
CONTINUOUS
 62
     7
 10
492.2387697679319
 20
148.89618717307681
 30
0.0
  0
VERTEX
  5
2110
  8
0
  6
CONTINUOUS
 62
     7
 10
486.32719183936427
 20
145.998783153255
 30
0.0
  0
SEQEND
  5
2111
  8
0
  6
CONTINUOUS
 62
     7
  0
POLYLINE
  5
1C66
  8
0
  6
CONTINUOUS
 62
     7
 66
     1
 10
0.0
 20
0.0
 30
0.0
 70
   128
  0
VERTEX
  5
2112
  8
0
  6
CONTINUOUS
 62
     7
 10
431.73103222788723
 20
143.4166692542486
 30
0.0
  0
VERTEX
  5
2113
  8
0
  6
CONTINUOUS
 62
     7
 10
430.61451177122439
 20
144.9621202077293
 30
0.0
  0
VERTEX
  5
2114
  8
0
  6
CONTINUOUS
 62
     7
 10
429.32709185731841
 20
145.99878317654299
 30
0.0
  0
SEQEND
  5
2115
  8
0
  6
CONTINUOUS
 62
     7
  0
POLYLINE
  5
1C67
  8
0
  6
CONTINUOUS
 62
     7
 66
     1
 10
0.0
 20
0.0
 30
0.0
 70
   128
  0
VERTEX
  5
2116
  8
0
  6
CONTINUOUS
 62
     7
 10
429.32709189743582
 20
145.998783153255
 30
0.0
  0
VERTEX
  5
2117
  8
0
  6
CONTINUOUS
 62
     7
 10
423.4155287635362
 20
148.8961801783631
 30
0.0
  0
VERTEX
  5
2118
  8
0
  6
CONTINUOUS
 62
     7
 10
417.39499607655301
 20
151.8781741151125
 30
0.0
  0
VERTEX
  5
2119
  8
0
  6
CONTINUOUS
 62
     7
 10
411.30458637941308
 20
154.9108048991603
 30
0.0
  0
VERTEX
  5
211A
  8
0
  6
CONTINUOUS
 62
     7
 10
405.33179755036957
 20
157.89375442933039
 30
0.0
  0
VERTEX
  5
211B
  8
0
  6
CONTINUOUS
 62
     7
 10
403.86416782471349
 20
158.62805425709271
 30
0.0
  0
SEQEND
  5
211C
  8
0
  6
CONTINUOUS
 62
     7
  0
POLYLINE
  5
1F33
  8
0
  6
CONTINUOUS
 62
     7
 66
     1
 10
0.0
 20
0.0
 30
0.0
 70
   128
  0
VERTEX
  5
211D
  8
0
  6
CONTINUOUS
 62
     7
 10
753.82714186839939
 20
394.0007348880809
 30
0.0
  0
VERTEX
  5
211E
  8
0
  6
CONTINUOUS
 62
     7
 10
754.56137401042258
 20
396.17982122579048
 30
0.0
  0
VERTEX
  5
211F
  8
0
  6
CONTINUOUS
 62
     7
 10
757.54441004901162
 20
405.0616330852551
 30
0.0
  0
VERTEX
  5
2120
  8
0
  6
CONTINUOUS
 62
     7
 10
760.57700686450187
 20
414.13792060638661
 30
0.0
  0
VERTEX
  5
2121
  8
0
  6
CONTINUOUS
 62
     7
 10
763.55900895241564
 20
423.1432922075814
 30
0.0
  0
VERTEX
  5
2122
  8
0
  6
CONTINUOUS
 62
     7
 10
766.45641297223744
 20
432.04480045978619
 30
0.0
  0
SEQEND
  5
2123
  8
0
  6
CONTINUOUS
 62
     7
  0
POLYLINE
  5
1F34
  8
0
 66
     1
 10
0.0
 20
0.0
 30
0.0
 70
   128
  0
VERTEX
  5
2124
  8
0
 10
766.45641294894938
 20
432.04480038190241
 30
0.0
  0
VERTEX
  5
2125
  8
0
 10
767.49307591750255
 20
434.61088891332957
 30
0.0
  0
VERTEX
  5
2126
  8
0
 10
769.03852688322502
 20
436.98597414937041
 30
0.0
  0
SEQEND
  5
2127
  8
0
  0
POLYLINE
  5
1F35
  8
0
 66
     1
 10
0.0
 20
0.0
 30
0.0
 70
   128
  0
VERTEX
  5
2128
  8
0
 10
767.53607015086027
 20
454.75769847689509
 30
0.0
  0
VERTEX
  5
2129
  8
0
 10
763.55901595419562
 20
459.87311339453589
 30
0.0
  0
VERTEX
  5
212A
  8
0
 10
760.57702200650635
 20
463.61981059487431
 30
0.0
  0
VERTEX
  5
212B
  8
0
 10
757.54439122642475
 20
467.38291168875918
 30
0.0
  0
VERTEX
  5
212C
  8
0
 10
754.56144169477875
 20
471.05752370508458
 30
0.0
  0
VERTEX
  5
212D
  8
0
 10
753.82714186839939
 20
471.95795352343708
 30
0.0
  0
SEQEND
  5
212E
  8
0
  0
LINE
  5
1F36
  8
0
 10
769.03852771439938
 20
453.56189930451637
 30
0.0
 11
767.53607015086027
 21
454.75769847689509
 31
0.0
  0
POLYLINE
  5
1F37
  8
0
 66
     1
 10
0.0
 20
0.0
 30
0.0
 70
   128
  0
VERTEX
  5
212F
  8
0
 10
488.11209224912233
 20
763.25732533759356
 30
0.0
  0
VERTEX
  5
2130
  8
0
 10
485.273762396699
 20
764.29398830630043
 30
0.0
  0
VERTEX
  5
2131
  8
0
 10
482.66989829867799
 20
765.83943927193673
 30
0.0
  0
SEQEND
  5
2132
  8
0
  0
POLYLINE
  5
1F38
  8
0
 66
     1
 10
0.0
 20
0.0
 30
0.0
 70
   128
  0
VERTEX
  5
2133
  8
0
 10
532.16262538738363
 20
750.62805425709303
 30
0.0
  0
VERTEX
  5
2134
  8
0
 10
529.63671022791539
 20
751.36228639662374
 30
0.0
  0
VERTEX
  5
2135
  8
0
 10
519.34385814957409
 20
754.34532243773845
 30
0.0
  0
VERTEX
  5
2136
  8
0
 10
508.8297763648448
 20
757.37791925057809
 30
0.0
  0
VERTEX
  5
2137
  8
0
 10
498.40470764523218
 20
760.35992133793366
 30
0.0
  0
VERTEX
  5
2138
  8
0
 10
488.11209216265331
 20
763.25732536088128
 30
0.0
  0
SEQEND
  5
2139
  8
0
  0
POLYLINE
  5
1F39
  8
0
 66
     1
 10
0.0
 20
0.0
 30
0.0
 70
   128
  0
VERTEX
  5
213A
  8
0
 10
432.98437783012929
 20
765.83943926004804
 30
0.0
  0
VERTEX
  5
213B
  8
0
 10
430.38051371215749
 20
764.29398830649609
 30
0.0
  0
VERTEX
  5
213C
  8
0
 10
427.54218385828318
 20
763.25732533759356
 30
0.0
  0
SEQEND
  5
213D
  8
0
  0
POLYLINE
  5
1F3A
  8
0
 66
     1
 10
0.0
 20
0.0
 30
0.0
 70
   128
  0
VERTEX
  5
213E
  8
0
 10
427.54218394475248
 20
763.25732536088128
 30
0.0
  0
VERTEX
  5
213F
  8
0
 10
417.24959263637362
 20
760.35992833835689
 30
0.0
  0
VERTEX
  5
2140
  8
0
 10
406.82455322844731
 20
757.37793439655684
 30
0.0
  0
VERTEX
  5
2141
  8
0
 10
396.3103528826997
 20
754.34530361510485
 30
0.0
  0
VERTEX
  5
2142
  8
0
 10
386.01779855998569
 20
751.3623540867784
 30
0.0
  0
VERTEX
  5
2143
  8
0
 10
383.49165008986381
 20
750.62805425709303
 30
0.0
  0
SEQEND
  5
2144
  8
0
  0
POLYLINE
  5
1F3B
  8
0
 66
     1
 10
0.0
 20
0.0
 30
0.0
 70
   128
  0
VERTEX
  5
2145
  8
0
 10
470.49809259969271
 20
145.99878315319651
 30
0.0
  0
VERTEX
  5
2146
  8
0
 10
477.137136971102
 20
148.89618017737519
 30
0.0
  0
VERTEX
  5
2147
  8
0
 10
483.84128252775002
 20
151.8781741127062
 30
0.0
  0
VERTEX
  5
2148
  8
0
 10
490.59140268970617
 20
154.91080489906869
 30
0.0
  0
VERTEX
  5
2149
  8
0
 10
497.19257051336808
 20
157.8937544288404
 30
0.0
  0
VERTEX
  5
214A
  8
0
 10
498.81167392474708
 20
158.62805425709271
 30
0.0
  0
SEQEND
  5
214B
  8
0
  0
POLYLINE
  5
1F3C
  8
0
 66
     1
 10
0.0
 20
0.0
 30
0.0
 70
   128
  0
VERTEX
  5
214C
  8
0
 10
466.54161554552968
 20
143.41666925409331
 30
0.0
  0
VERTEX
  5
214D
  8
0
 10
468.45543207181112
 20
144.9621202078045
 30
0.0
  0
VERTEX
  5
214E
  8
0
 10
470.49809266136788
 20
145.9987831764841
 30
0.0
  0
SEQEND
  5
214F
  8
0
  0
POLYLINE
  5
1F3D
  8
0
 66
     1
 10
0.0
 20
0.0
 30
0.0
 70
   128
  0
VERTEX
  5
2150
  8
0
 10
445.15618344603791
 20
145.9987831764841
 30
0.0
  0
VERTEX
  5
2151
  8
0
 10
447.1988440330494
 20
144.96212020803509
 30
0.0
  0
VERTEX
  5
2152
  8
0
 10
449.1126605149496
 20
143.41666924228829
 30
0.0
  0
SEQEND
  5
2153
  8
0
  0
POLYLINE
  5
1F3E
  8
0
 66
     1
 10
0.0
 20
0.0
 30
0.0
 70
   128
  0
VERTEX
  5
2154
  8
0
 10
416.84260379624402
 20
158.62805425709271
 30
0.0
  0
VERTEX
  5
2155
  8
0
 10
418.46155713975048
 20
157.89382211980211
 30
0.0
  0
VERTEX
  5
2156
  8
0
 10
425.06291517142682
 20
154.91078607653651
 30
0.0
  0
VERTEX
  5
2157
  8
0
 10
431.81295815752151
 20
151.87818926171539
 30
0.0
  0
VERTEX
  5
2158
  8
0
 10
438.5171241218431
 20
148.89618717365181
 30
0.0
  0
VERTEX
  5
2159
  8
0
 10
445.15618350771302
 20
145.99878315319651
 30
0.0
  0
SEQEND
  5
215A
  8
0
  0
TEXT
  5
1FF4
  8
0
 62
     3
 10
0.0
 20
0.0
 30
0.0
 40
10.0
  1
V280
  7
STANDARD1
  0
LINE
  5
2048
  8
2
 10
428.82713805370679
 20
768.66961729607056
 30
0.0
 11
428.82713805370639
 21
768.52533651912597
 31
0.0
  0
LINE
  5
2049
  8
2
 10
486.82714568309291
 20
768.6696172960701
 30
0.0
 11
486.82714568309308
 21
768.52533651912597
 31
0.0
  0
LINE
  5
204A
  8
2
 10
771.86870490737783
 20
483.62805807178512
 30
0.0
 11
771.72442413043245
 21
483.62805807178609
 31
0.0
  0
LINE
  5
204B
  8
2
 10
486.82714568309308
 20
140.73077199505971
 30
0.0
 11
486.82714568309291
 21
140.58649121811561
 31
0.0
  0
LINE
  5
204C
  8
2
 10
428.82713805370639
 20
140.73077199505971
 30
0.0
 11
428.82713805370679
 21
140.5864912181151
 31
0.0
  0
CIRCLE
  5
2062
  8
0
 10
457.82714186839968
 20
576.62805425709234
 30
0.0
 40
8.25
  0
CIRCLE
  5
2063
  8
3
 10
457.82714186839968
 20
576.62805425709223
 30
0.0
 40
5.0
  0
CIRCLE
  5
2064
  8
0
 10
457.82714186839968
 20
576.62805425709223
 30
0.0
 40
4.1879999999999988
  0
LINE
  5
2066
  8
1
 10
712.82714186839996
 20
576.62805425709234
 30
0.0
 11
768.82714186839655
 21
576.62805425709234
 31
0.0
  0
ENDSEC
  0
EOF
