  0
SECTION
  2
HEADER
  9
$ACADVER
  1
AC1009
  9
$INSBASE
 10
0.0
 20
0.0
 30
0.0
  9
$EXTMIN
 10
0.0
 20
-2.960436562073669
 30
0.0
  9
$EXTMAX
 10
693.99999999999625
 20
927.99999999999238
 30
0.0
  9
$LIMMIN
 10
0.0
 20
0.0
  9
$LIMMAX
 10
2250.0
 20
1620.0
  9
$ORTHOMODE
 70
     1
  9
$REGENMODE
 70
     1
  9
$FILLMODE
 70
     1
  9
$QTEXTMODE
 70
     0
  9
$MIRRTEXT
 70
     1
  9
$DRAGMODE
 70
     2
  9
$LTSCALE
 40
20.0
  9
$OSMODE
 70
    37
  9
$ATTMODE
 70
     1
  9
$TEXTSIZE
 40
0.2
  9
$TRACEWID
 40
0.05
  9
$TEXTSTYLE
  7
STANDARD
  9
$CLAYER
  8
0
  9
$CELTYPE
  6
BYLAYER
  9
$CECOLOR
 62
   256
  9
$DIMSCALE
 40
6.0
  9
$DIMASZ
 40
3.0
  9
$DIMEXO
 40
2.0
  9
$DIMDLI
 40
0.3799999999999999
  9
$DIMRND
 40
0.0
  9
$DIMDLE
 40
0.0
  9
$DIMEXE
 40
2.0
  9
$DIMTP
 40
0.0
  9
$DIMTM
 40
0.0
  9
$DIMTXT
 40
3.0
  9
$DIMCEN
 40
0.09
  9
$DIMTSZ
 40
0.0
  9
$DIMTOL
 70
     0
  9
$DIMLIM
 70
     0
  9
$DIMTIH
 70
     0
  9
$DIMTOH
 70
     0
  9
$DIMSE1
 70
     0
  9
$DIMSE2
 70
     0
  9
$DIMTAD
 70
     1
  9
$DIMZIN
 70
     8
  9
$DIMBLK
  1

  9
$DIMASO
 70
     0
  9
$DIMSHO
 70
     0
  9
$DIMPOST
  1

  9
$DIMAPOST
  1

  9
$DIMALT
 70
     0
  9
$DIMALTD
 70
     2
  9
$DIMALTF
 40
25.399999999999999
  9
$DIMLFAC
 40
1.0
  9
$DIMTOFL
 70
     0
  9
$DIMTVP
 40
1.6000000000000001
  9
$DIMTIX
 70
     1
  9
$DIMSOXD
 70
     0
  9
$DIMSAH
 70
     0
  9
$DIMBLK1
  1

  9
$DIMBLK2
  1

  9
$DIMSTYLE
  2
STANDARD
  9
$DIMCLRD
 70
     0
  9
$DIMCLRE
 70
     0
  9
$DIMCLRT
 70
     0
  9
$DIMTFAC
 40
1.0
  9
$DIMGAP
 40
0.09
  9
$LUNITS
 70
     2
  9
$LUPREC
 70
     1
  9
$SKETCHINC
 40
0.1
  9
$FILLETRAD
 40
0.0
  9
$AUNITS
 70
     0
  9
$AUPREC
 70
     0
  9
$MENU
  1
E:\r13\win\SUPPORT\ACAD
  9
$ELEVATION
 40
0.0
  9
$PELEVATION
 40
0.0
  9
$THICKNESS
 40
0.0
  9
$LIMCHECK
 70
     0
  9
$BLIPMODE
 70
     0
  9
$CHAMFERA
 40
0.0
  9
$CHAMFERB
 40
0.0
  9
$SKPOLY
 70
     0
  9
$TDCREATE
 40
2449840.5970370369
  9
$TDUPDATE
 40
2456776.714111378
  9
$TDINDWG
 40
0.0444162731
  9
$TDUSRTIMER
 40
0.0444162731
  9
$USRTIMER
 70
     1
  9
$ANGBASE
 50
0.0
  9
$ANGDIR
 70
     0
  9
$PDMODE
 70
     0
  9
$PDSIZE
 40
0.0
  9
$PLINEWID
 40
0.0
  9
$COORDS
 70
     1
  9
$SPLFRAME
 70
     0
  9
$SPLINETYPE
 70
     6
  9
$SPLINESEGS
 70
     8
  9
$ATTDIA
 70
     0
  9
$ATTREQ
 70
     1
  9
$HANDLING
 70
     1
  9
$HANDSEED
  5
116C
  9
$SURFTAB1
 70
     6
  9
$SURFTAB2
 70
     6
  9
$SURFTYPE
 70
     6
  9
$SURFU
 70
     6
  9
$SURFV
 70
     6
  9
$UCSNAME
  2

  9
$UCSORG
 10
0.0
 20
0.0
 30
0.0
  9
$UCSXDIR
 10
1.0
 20
0.0
 30
0.0
  9
$UCSYDIR
 10
0.0
 20
1.0
 30
0.0
  9
$PUCSNAME
  2

  9
$PUCSORG
 10
0.0
 20
0.0
 30
0.0
  9
$PUCSXDIR
 10
1.0
 20
0.0
 30
0.0
  9
$PUCSYDIR
 10
0.0
 20
1.0
 30
0.0
  9
$USERI1
 70
     0
  9
$USERI2
 70
     1
  9
$USERI3
 70
     1
  9
$USERI4
 70
     0
  9
$USERI5
 70
     0
  9
$USERR1
 40
0.0
  9
$USERR2
 40
0.0
  9
$USERR3
 40
0.0
  9
$USERR4
 40
0.0
  9
$USERR5
 40
0.0
  9
$WORLDVIEW
 70
     1
  9
$SHADEDGE
 70
     3
  9
$SHADEDIF
 70
    70
  9
$TILEMODE
 70
     1
  9
$MAXACTVP
 70
    16
  9
$PLIMCHECK
 70
     0
  9
$PEXTMIN
 10
1.0000000000000000E+020
 20
1.0000000000000000E+020
 30
1.0000000000000000E+020
  9
$PEXTMAX
 10
-1.0000000000000000E+020
 20
-1.0000000000000000E+020
 30
-1.0000000000000000E+020
  9
$PLIMMIN
 10
0.0
 20
0.0
  9
$PLIMMAX
 10
12.0
 20
9.0
  9
$UNITMODE
 70
     0
  9
$VISRETAIN
 70
     0
  9
$PLINEGEN
 70
     0
  9
$PSLTSCALE
 70
     0
  0
ENDSEC
  0
SECTION
  2
TABLES
  0
TABLE
  2
VPORT
 70
     1
  0
VPORT
  2
*ACTIVE
 70
     0
 10
0.0
 20
0.0
 11
1.0
 21
1.0
 12
1670.6324129125651
 22
808.46736498355438
 13
0.0
 23
0.0
 14
60.0
 24
60.0
 15
60.0
 25
60.0
 16
0.0
 26
0.0
 36
1.0
 17
0.0
 27
0.0
 37
0.0
 40
1637.34443663142
 41
2.6019575856443709
 42
50.0
 43
0.0
 44
0.0
 50
0.0
 51
0.0
 71
     0
 72
   500
 73
     1
 74
     1
 75
     0
 76
     0
 77
     0
 78
     2
  0
ENDTAB
  0
TABLE
  2
LTYPE
 70
     4
  0
LTYPE
  2
CONTINUOUS
 70
     0
  3
実線
 72
    65
 73
     0
 40
0.0
  0
LTYPE
  2
CENTER
 70
     0
  3
____ _ ____ _ ____ _ ____ _ ____ _ ____ _ ____
 72
    65
 73
     4
 40
2.0
 49
1.25
 49
-0.25
 49
0.25
 49
-0.25
  0
LTYPE
  2
HIDDEN
 70
     0
  3
_ _ _ _ _ _ _ _ _ _ _ _ _ _ _ _ _ _ _ _ _ _ _
 72
    65
 73
     2
 40
0.375
 49
0.25
 49
-0.125
  0
LTYPE
  2
PHANTOM2
 70
     0
  3
___ _ _ ___ _ _ ___ _ _ ___ _ _
 72
    65
 73
     6
 40
1.25
 49
0.625
 49
-0.125
 49
0.125
 49
-0.125
 49
0.125
 49
-0.125
  0
ENDTAB
  0
TABLE
  2
LAYER
 70
     5
  0
LAYER
  2
0
 70
     0
 62
     7
  6
CONTINUOUS
  0
LAYER
  2
1
 70
     0
 62
     1
  6
CENTER
  0
LAYER
  2
2
 70
     0
 62
     2
  6
HIDDEN
  0
LAYER
  2
3
 70
     0
 62
     3
  6
CONTINUOUS
  0
LAYER
  2
DEFPOINTS
 70
     0
 62
     7
  6
CONTINUOUS
  0
ENDTAB
  0
TABLE
  2
STYLE
 70
     2
  0
STYLE
  2
STANDARD
 70
     0
 40
0.0
 41
1.0
 50
0.0
 71
     0
 42
0.2
  3
C:/r13/com/fonts/Romans
  4
C:/r13/com/fonts/Extfont
  0
STYLE
  2
STANDARD1
 70
     0
 40
0.0
 41
1.0
 50
0.0
 71
     0
 42
3.0
  3
txt
  4

  0
ENDTAB
  0
TABLE
  2
VIEW
 70
     1
  0
VIEW
  2
ALL
 70
     0
 40
1620.0
 10
1325.9495798319331
 20
810.0
 41
0.0
 11
0.0
 21
0.0
 31
1.0
 12
0.0
 22
0.0
 32
0.0
 42
0.0
 43
0.0
 44
0.0
 50
0.0
 71
     0
  0
ENDTAB
  0
TABLE
  2
UCS
 70
     0
  0
ENDTAB
  0
TABLE
  2
APPID
 70
     6
  0
APPID
  2
ACAD
 70
     0
  0
APPID
  2
ACAD_EXEMPT_FROM_CAD_STANDARDS
 70
     0
  0
APPID
  2
ACAD_DSTYLE_DIMJAG
 70
     0
  0
APPID
  2
ACAD_DSTYLE_DIMTALN
 70
     0
  0
APPID
  2
ACAD_MLEADERVER
 70
     0
  0
APPID
  2
ACAD_NAV_VCDISPLAY
 70
     0
  0
ENDTAB
  0
TABLE
  2
DIMSTYLE
 70
     1
  0
DIMSTYLE
  2
STANDARD
 70
     0
  3

  4

  5

  6

  7

 40
1.0
 41
0.18
 42
0.0625
 43
0.38
 44
0.18
 45
0.0
 46
0.0
 47
0.0
 48
0.0
140
0.18
141
0.09
142
0.0
143
25.399999999999999
144
1.0
145
0.0
146
1.0
147
0.09
 71
     0
 72
     0
 73
     1
 74
     1
 75
     0
 76
     0
 77
     0
 78
     0
170
     0
171
     2
172
     0
173
     0
174
     0
175
     0
176
     0
177
     0
178
     0
  0
ENDTAB
  0
ENDSEC
  0
SECTION
  2
BLOCKS
  0
BLOCK
  8
0
  2
$MODEL_SPACE
 70
     0
 10
0.0
 20
0.0
 30
0.0
  3
$MODEL_SPACE
  1

  0
ENDBLK
  5
31E
  8
0
  0
BLOCK
 67
     1
  8
0
  2
$PAPER_SPACE
 70
     0
 10
0.0
 20
0.0
 30
0.0
  3
$PAPER_SPACE
  1

  0
ENDBLK
  5
31C
 67
     1
  8
0
  0
ENDSEC
  0
SECTION
  2
ENTITIES
  0
LINE
  5
71D
  8
1
 10
569.99999999999704
 20
501.49999999999642
 30
0.0
 11
693.99999999999625
 21
501.49999999999642
 31
0.0
  0
LINE
  5
71E
  8
1
 10
246.25
 20
652.49999999999625
 30
0.0
 11
308.75
 21
652.49999999999625
 31
0.0
  0
LINE
  5
71F
  8
1
 10
277.5
 20
501.49999999999523
 30
0.0
 11
396.52651358922498
 21
337.67405863906907
 31
0.0
  0
LINE
  5
720
  8
1
 10
277.5
 20
501.49999999999642
 30
0.0
 11
84.911055450231515
 21
564.07594136092337
 31
0.0
  0
LINE
  5
722
  8
1
 10
277.49999999999909
 20
501.49999999999642
 30
0.0
 11
158.47348641077369
 21
337.67405863906993
 31
0.0
  0
LINE
  5
724
  8
1
 10
75.0
 20
501.49999999999619
 30
0.0
 11
480.0
 21
501.49999999999631
 31
0.0
  0
LINE
  5
725
  8
1
 10
277.5
 20
298.99999999999642
 30
0.0
 11
277.5
 21
703.99999999999625
 31
0.0
  0
LINE
  5
728
  8
1
 10
609.99999999999488
 20
298.99999999999687
 30
0.0
 11
609.99999999999488
 21
703.99999999999613
 31
0.0
  0
LINE
  5
72A
  8
0
 10
668.99999999999625
 20
468.99997711181658
 30
0.0
 11
668.99999999999625
 21
533.99997711180856
 31
0.0
  0
CIRCLE
  5
72C
  8
0
 10
277.5
 20
501.49999999999642
 30
0.0
 40
177.5
  0
ARC
  5
72D
  8
0
 10
277.49999999999869
 20
501.49999999999659
 30
0.0
 40
39.0
 50
265.20344186544099
 51
274.79655813455901
  0
ARC
  5
72E
  8
0
 10
277.5
 20
501.4999999999971
 30
0.0
 40
147.5000000000006
 50
243.03013987560959
 51
248.75409599432001
  0
ARC
  5
72F
  8
0
 10
277.49999999999869
 20
501.49999999999642
 30
0.0
 40
162.50000000000011
 50
100.2665069647126
 51
79.733493035287367
  0
LINE
  5
730
  8
0
 10
347.11811146518539
 20
382.03485632668861
 30
0.0
 11
287.78187502965238
 21
459.52816369590118
 31
0.0
  0
LINE
  5
731
  8
0
 10
267.2181249703462
 20
459.52816369590192
 30
0.0
 11
207.8818885348133
 21
382.03485632668912
 31
0.0
  0
ARC
  5
732
  8
0
 10
214.23371841152311
 20
377.17129207633337
 30
0.0
 40
8.0
 50
142.55890070788081
 51
243.03013987560959
  0
ARC
  5
733
  8
0
 10
340.76628158847598
 20
377.17129207633297
 30
0.0
 40
8.0
 50
296.96986012439038
 51
37.441099292118913
  0
ARC
  5
734
  8
0
 10
281.43004515294302
 20
454.66459944554549
 30
0.0
 40
8.0
 50
37.441099292119112
 51
94.796558134559007
  0
ARC
  5
735
  8
0
 10
273.56995484705612
 20
454.66459944554617
 30
0.0
 40
8.0
 50
85.203441865440979
 51
142.55890070788101
  0
ARC
  5
736
  8
0
 10
320.82866214968362
 20
483.2893702382728
 30
0.0
 40
8.0
 50
157.2034418654425
 51
214.55890070787461
  0
ARC
  5
737
  8
0
 10
323.25756363152499
 20
490.76476034235441
 30
0.0
 40
8.0
 50
109.44109929212679
 51
166.7965581345573
  0
ARC
  5
738
  8
0
 10
415.29398401510753
 20
523.25012572938965
 30
0.0
 40
8.0
 50
8.9698601243872957
 51
109.44109929212679
  0
ARC
  5
739
  8
0
 10
376.19327165160712
 20
402.91050699642079
 30
0.0
 40
8.0
 50
214.55890070787439
 51
315.03013987561678
  0
LINE
  5
73A
  8
0
 10
314.2403142996809
 20
478.75134505022402
 30
0.0
 11
369.604923801604
 21
398.3724818083723
 31
0.0
  0
LINE
  5
73B
  8
0
 10
412.63128291966808
 20
530.79399893062714
 30
0.0
 11
320.59486253608571
 21
498.30863354359172
 31
0.0
  0
ARC
  5
73C
  8
0
 10
277.5
 20
501.49999999999602
 30
0.0
 40
39.0
 50
337.20344186544253
 51
346.79655813455747
  0
ARC
  5
73D
  8
0
 10
308.20863104850918
 20
537.08061240516179
 30
0.0
 40
8.0
 50
229.2034418654402
 51
286.55890070788331
  0
ARC
  5
73E
  8
0
 10
301.8496844137253
 20
541.70065756864983
 30
0.0
 40
8.0
 50
181.44109929212169
 51
238.7965581345627
  0
ARC
  5
73F
  8
0
 10
299.39508397812
 20
639.27102488400942
 30
0.0
 40
8.0
 50
80.969860124389626
 51
181.44109929212129
  0
ARC
  5
740
  8
0
 10
401.76207793009638
 20
564.89705031383073
 30
0.0
 40
8.0
 50
286.55890070788331
 51
27.030139875611379
  0
LINE
  5
741
  8
0
 10
310.48863802420959
 20
529.41239434678891
 30
0.0
 11
404.0420849057968
 21
557.22883225545775
 31
0.0
  0
LINE
  5
742
  8
0
 10
291.39761432254733
 20
639.06983067883789
 30
0.0
 11
293.85221475815291
 21
541.49946336347807
 31
0.0
  0
ARC
  5
743
  8
0
 10
277.50000000000091
 20
501.49999999999682
 30
0.0
 40
39.0
 50
49.203441865440233
 51
58.796558134562623
  0
ARC
  5
744
  8
0
 10
253.1503155862751
 20
541.7006575686496
 30
0.0
 40
8.0
 50
301.20344186544878
 51
358.55890070787871
  0
ARC
  5
745
  8
0
 10
246.7913689514908
 20
537.08061240516281
 30
0.0
 40
8.0
 50
253.44109929211669
 51
310.79655813455997
  0
ARC
  5
746
  8
0
 10
153.23792206990399
 20
564.89705031383164
 30
0.0
 40
8.0
 50
152.96986012438799
 51
253.44109929211669
  0
ARC
  5
747
  8
0
 10
255.60491602188091
 20
639.27102488400976
 30
0.0
 40
8.0
 50
358.55890070787808
 51
99.030139875610374
  0
LINE
  5
748
  8
0
 10
261.147785241848
 20
541.49946336347784
 30
0.0
 11
263.60238567745319
 21
639.069830678838
 31
0.0
  0
LINE
  5
749
  8
0
 10
150.95791509420309
 20
557.22883225545866
 30
0.0
 11
244.5113619757899
 21
529.41239434678982
 31
0.0
  0
ARC
  5
74A
  8
0
 10
277.50000000000051
 20
501.49999999999801
 30
0.0
 40
39.0
 50
121.2034418654488
 51
130.79655813456009
  0
ARC
  5
74B
  8
0
 10
231.74243636847501
 20
490.7647603423552
 30
0.0
 40
8.0
 50
13.20344186544404
 51
70.558900707873178
  0
ARC
  5
74C
  8
0
 10
234.17133785031541
 20
483.28937023827302
 30
0.0
 40
8.0
 50
325.4410992921255
 51
22.796558134558691
  0
ARC
  5
74D
  8
0
 10
178.80672834839191
 20
402.91050699642159
 30
0.0
 40
8.0
 50
224.96986012438299
 51
325.44109929212527
  0
ARC
  5
74E
  8
0
 10
139.70601598489219
 20
523.25012572939079
 30
0.0
 40
8.0
 50
70.558900707873178
 51
171.03013987561189
  0
LINE
  5
74F
  8
0
 10
234.4051374639144
 20
498.30863354359258
 30
0.0
 11
142.36871708033141
 21
530.79399893062828
 31
0.0
  0
LINE
  5
750
  8
0
 10
185.39507619839469
 20
398.37248180837298
 30
0.0
 11
240.75968570031819
 21
478.75134505022442
 31
0.0
  0
ARC
  5
751
  8
0
 10
277.49999999999909
 20
501.49999999999801
 30
0.0
 40
39.0
 50
193.2034418654442
 51
202.79655813455869
  0
ARC
  5
752
  8
0
 10
277.5
 20
658.49999999999613
 30
0.0
 40
21.0
 50
188.19181216681139
 51
351.80818783318762
  0
ARC
  5
753
  8
0
 10
249.78569511211441
 20
654.51035031846789
 30
0.0
 40
7.0
 50
8.1918121668117312
 51
100.2665069647126
  0
ARC
  5
754
  8
0
 10
305.21430488788519
 20
654.51035031846754
 30
0.0
 40
7.0
 50
79.733493035287367
 51
171.8081878331873
  0
ARC
  5
755
  8
0
 10
609.99999999999488
 20
338.99999999999642
 30
0.0
 40
14.99999999999957
 50
180.0
 51
0.0
  0
ARC
  5
756
  8
0
 10
609.99999999999488
 20
663.99999999999648
 30
0.0
 40
14.99999999999957
 50
0.0
 51
180.0
  0
LINE
  5
757
  8
0
 10
594.999999999995
 20
338.99999999999642
 30
0.0
 11
594.99999999999909
 21
663.99999999999648
 31
0.0
  0
LINE
  5
758
  8
0
 10
624.99999999999125
 20
663.99999999999648
 30
0.0
 11
624.99999999999181
 21
338.99999999999642
 31
0.0
  0
ARC
  5
75F
  8
2
 10
634.000000000005
 20
492.49997711181157
 30
0.0
 40
30.0
 50
241.8232285983091
 51
287.76381462311832
  0
LINE
  5
760
  8
0
 10
667.99999999999636
 20
467.99997711181658
 30
0.0
 11
648.99999999999682
 21
467.9999771118168
 31
0.0
  0
LINE
  5
761
  8
2
 10
618.99999999999625
 20
467.49999999999642
 30
0.0
 11
618.99999999999682
 21
535.49999999999648
 31
0.0
  0
LINE
  5
762
  8
0
 10
647.2679756214261
 20
465.00002288818399
 30
0.0
 11
646.7965965752378
 21
465.00002288818399
 31
0.0
  0
LINE
  5
763
  8
0
 10
648.99999999999682
 20
467.99997711181669
 30
0.0
 11
648.99999999999591
 21
535.00002288817689
 31
0.0
  0
ARC
  5
764
  8
0
 10
646.7965965752378
 20
461.00002288818399
 30
0.0
 40
4.0
 50
90.0
 51
112.1090426861515
  0
LINE
  5
765
  8
0
 10
624.99999999999409
 20
460.9362770014946
 30
0.0
 11
624.99999999999409
 21
458.49716694178773
 31
0.0
  0
LINE
  5
766
  8
0
 10
648.99999999999682
 20
467.99997711181658
 30
0.0
 11
647.24007930357357
 21
464.9517050483197
 31
0.0
  0
LINE
  5
767
  8
0
 10
647.2679756214261
 20
465.00002288818399
 30
0.0
 11
647.2679756214261
 21
537.99997711180731
 31
0.0
  0
ARC
  5
768
  8
0
 10
667.99999999999636
 20
468.99997711181658
 30
0.0
 40
1.0
 50
270.0
 51
0.0000000000001018
  0
CIRCLE
  5
76E
  8
0
 10
277.5
 20
501.4999999999971
 30
0.0
 40
34.980785001713627
  0
ARC
  5
7B6
  8
0
 10
667.99999999999636
 20
534.00002288817632
 30
0.0
 40
1.0
 50
359.99999999999989
 51
90.0
  0
LINE
  5
7B7
  8
0
 10
648.99999999999682
 20
535.0000228881762
 30
0.0
 11
647.24007930356174
 21
538.04829495169315
 31
0.0
  0
LINE
  5
7B8
  8
0
 10
624.99999999999409
 20
542.06372299849818
 30
0.0
 11
624.99999999999409
 21
544.52176102351973
 31
0.0
  0
LINE
  5
7B9
  8
0
 10
667.99999999999636
 20
535.0000228881762
 30
0.0
 11
648.99999999999682
 21
535.0000228881762
 31
0.0
  0
ARC
  5
7BA
  8
0
 10
634.000000000005
 20
510.50002288818109
 30
0.0
 40
30.0
 50
114.4052261764644
 51
118.1767714016909
  0
ARC
  5
7D8
  8
0
 10
236.1294037817315
 20
366.1828770312232
 30
0.0
 40
10.00000000000181
 50
210.7112343838501
 51
295.28876561614788
  0
ARC
  5
7DA
  8
0
 10
277.5
 20
501.4999999999971
 30
0.0
 40
147.5000000000006
 50
257.24590400567871
 51
257.25409645650637
  0
ARC
  5
7DB
  8
0
 10
221.51361724276151
 20
357.50078144045
 30
0.0
 40
7.0
 50
30.711234383850041
 51
68.754095994319997
  0
ARC
  5
7DC
  8
0
 10
243.39147373336709
 20
350.81204946672261
 30
0.0
 40
7.0
 50
77.245904005678653
 51
115.2887656161478
  0
ARC
  5
7DD
  8
0
 10
266.03922367905437
 20
347.42566532312298
 30
0.0
 40
7.0
 50
85.745904005680387
 51
123.7887656161528
  0
ARC
  5
7DE
  8
0
 10
243.4130190192495
 20
350.80717426626109
 30
0.0
 40
7.0
 50
39.211234383853487
 51
77.254095994324956
  0
ARC
  5
7DF
  8
0
 10
277.49999999999949
 20
501.49999999999733
 30
0.0
 40
147.5000000000006
 50
265.74590400568042
 51
265.75409645650819
  0
ARC
  5
7E0
  8
0
 10
256.58496832515948
 20
361.55425533428161
 30
0.0
 40
10.00000000000181
 50
219.21123438385359
 51
303.78876561615277
  0
ARC
  5
7E2
  8
0
 10
288.93874709091739
 20
347.42402826854862
 30
0.0
 40
7.0
 50
94.245904005675101
 51
132.28876561615149
  0
ARC
  5
7E3
  8
0
 10
266.06125290908221
 20
347.42402826854851
 30
0.0
 40
7.0
 50
47.711234383848513
 51
85.754095994324885
  0
ARC
  5
7E4
  8
0
 10
277.49999999999949
 20
501.49999999999733
 30
0.0
 40
147.5000000000006
 50
274.24590400567507
 51
274.2540964565078
  0
ARC
  5
7E5
  8
0
 10
277.5
 20
359.99999999999289
 30
0.0
 40
10.00000000000181
 50
227.71123438384851
 51
312.28876561615152
  0
ARC
  5
7E6
  8
0
 10
311.58698098075001
 20
350.8071742662616
 30
0.0
 40
7.0
 50
102.745904005675
 51
140.78876561614661
  0
ARC
  5
7E7
  8
0
 10
288.96077632094512
 20
347.42566532312338
 30
0.0
 40
7.0
 50
56.211234383847213
 51
94.254095994319613
  0
ARC
  5
7E8
  8
0
 10
277.49999999999949
 20
501.4999999999975
 30
0.0
 40
147.5000000000006
 50
282.74590400567502
 51
282.75409645650433
  0
ARC
  5
7E9
  8
0
 10
298.41503167484012
 20
361.554255334282
 30
0.0
 40
10.00000000000181
 50
236.21123438385601
 51
320.78876561614658
  0
ARC
  5
7EB
  8
0
 10
333.48638275723812
 20
357.50078144045079
 30
0.0
 40
7.0
 50
111.24590400568
 51
149.28876561615019
  0
ARC
  5
7EC
  8
0
 10
311.60852626663291
 20
350.81204946672318
 30
0.0
 40
7.0
 50
64.711234383852172
 51
102.7540959943213
  0
ARC
  5
7ED
  8
0
 10
318.87059621826802
 20
366.182877031224
 30
0.0
 40
10.00000000000181
 50
244.7112343838522
 51
329.2887656161501
  0
ARC
  5
7EF
  8
0
 10
277.5
 20
501.4999999999971
 30
0.0
 40
147.5000000000006
 50
291.24590400568002
 51
296.96986012439038
  0
ARC
  5
807
  8
0
 10
418.9784488646323
 20
499.03048448912068
 30
0.0
 40
10.00000000000181
 50
316.71123438385411
 51
41.288765616148908
  0
ARC
  5
808
  8
0
 10
431.35287155130533
 20
487.37399860478899
 30
0.0
 40
7.0
 50
136.71123438385399
 51
174.7540959943191
  0
ARC
  5
80A
  8
0
 10
417.0594126175215
 20
478.14576377070989
 30
0.0
 40
10.00000000000181
 50
308.21123438385439
 51
32.788765616147181
  0
ARC
  5
80B
  8
0
 10
277.49999999999869
 20
501.49999999999642
 30
0.0
 40
147.5000000000006
 50
354.74590400568133
 51
354.75409645650473
  0
ARC
  5
80C
  8
0
 10
427.57497464018252
 20
464.78825818966573
 30
0.0
 40
7.0
 50
128.21123438385439
 51
166.2540959943187
  0
ARC
  5
80D
  8
0
 10
431.3508502829859
 20
487.35200130046138
 30
0.0
 40
7.0
 50
174.74590400568161
 51
212.78876561614729
  0
ARC
  5
80E
  8
0
 10
412.07449705576749
 20
457.77409529594013
 30
0.0
 40
10.00000000000181
 50
299.71123438385041
 51
24.288765616147451
  0
ARC
  5
80F
  8
0
 10
277.49999999999909
 20
501.49999999999642
 30
0.0
 40
147.5000000000006
 50
346.24590400568093
 51
346.25409645650558
  0
ARC
  5
810
  8
0
 10
420.50018967425098
 20
443.00901135107563
 30
0.0
 40
7.0
 50
119.7112343838503
 51
157.7540959943166
  0
ARC
  5
811
  8
0
 10
427.56972416515191
 20
464.76680126921423
 30
0.0
 40
7.0
 50
166.2459040056811
 51
204.28876561614749
  0
ARC
  5
813
  8
0
 10
404.13321216668959
 20
438.36300944495679
 30
0.0
 40
10.00000000000181
 50
291.21123438385803
 51
15.78876561614806
  0
ARC
  5
814
  8
0
 10
277.49999999999909
 20
501.49999999999642
 30
0.0
 40
147.5000000000006
 50
337.74590400568081
 51
337.75409645650672
  0
ARC
  5
815
  8
0
 10
410.28393746301163
 20
422.5147105353181
 30
0.0
 40
7.0
 50
111.211234383858
 51
149.2540959943197
  0
ARC
  5
816
  8
0
 10
420.4918253363785
 20
442.98856618599279
 30
0.0
 40
7.0
 50
157.74590400568101
 51
195.7887656161482
  0
ARC
  5
817
  8
0
 10
410.27264301235789
 20
422.49572627057762
 30
0.0
 40
7.0
 50
149.2459040056809
 51
187.28876561614879
  0
ARC
  5
818
  8
0
 10
277.49999999999909
 20
501.49999999999642
 30
0.0
 40
147.5000000000006
 50
329.24590400568081
 51
329.25409645650473
  0
ARC
  5
81A
  8
0
 10
397.15065142689951
 20
403.75558014331801
 30
0.0
 40
7.0
 50
102.71123438385121
 51
140.754095994316
  0
ARC
  5
81B
  8
0
 10
393.4100142668953
 20
420.33893425632112
 30
0.0
 40
10.00000000000181
 50
282.71123438385132
 51
7.2887656161486696
  0
ARC
  5
81C
  8
0
 10
431.75213887803278
 20
510.24800843345042
 30
0.0
 40
7.0
 50
183.24590400568189
 51
221.28876561614899
  0
ARC
  5
81D
  8
0
 10
277.49999999999909
 20
501.49999999999642
 30
0.0
 40
147.5000000000006
 50
3.2459040056813868
 51
8.9698601243878944
  0
ARC
  5
81E
  8
0
 10
277.49999999999909
 20
501.49999999999642
 30
0.0
 40
147.5000000000006
 50
315.03013987561678
 51
320.75409599431612
  0
ARC
  5
820
  8
0
 10
323.56789385568891
 20
635.2908784473027
 30
0.0
 40
10.00000000000181
 50
28.711234383851771
 51
113.2887656161428
  0
ARC
  5
821
  8
0
 10
338.47777761884572
 20
643.45760154590312
 30
0.0
 40
7.0
 50
208.71123438385169
 51
246.7540959943201
  0
ARC
  5
823
  8
0
 10
342.83742877275881
 20
627.01203289471755
 30
0.0
 40
10.00000000000181
 50
20.211234383851519
 51
104.788765616153
  0
ARC
  5
824
  8
0
 10
277.49999999999949
 20
501.49999999999523
 30
0.0
 40
147.5000000000006
 50
66.745904005687848
 51
66.754096456499383
  0
ARC
  5
825
  8
0
 10
358.79065886746588
 20
632.88523045187446
 30
0.0
 40
7.0
 50
200.21123438385129
 51
238.25409599431481
  0
ARC
  5
826
  8
0
 10
338.49807369220662
 20
643.44888166462943
 30
0.0
 40
7.0
 50
246.74590400568781
 51
284.788765616153
  0
ARC
  5
827
  8
0
 10
360.67161319938708
 20
615.9759047040543
 30
0.0
 40
10.00000000000181
 50
11.711234383851449
 51
96.288765616153313
  0
ARC
  5
828
  8
0
 10
277.5
 20
501.49999999999551
 30
0.0
 40
147.5000000000006
 50
58.245904005675712
 51
58.254096456504101
  0
ARC
  5
829
  8
0
 10
377.31772470728629
 20
619.42655271082708
 30
0.0
 40
7.0
 50
191.71123438385129
 51
229.7540959943162
  0
ARC
  5
82A
  8
0
 10
358.80944312546808
 20
632.87360640031636
 30
0.0
 40
7.0
 50
238.2459040056757
 51
276.2887656161534
  0
ARC
  5
82C
  8
0
 10
376.67866089843159
 20
602.42493855531575
 30
0.0
 40
10.00000000000181
 50
3.2112343838517372
 51
87.788765616154663
  0
ARC
  5
82D
  8
0
 10
277.49999999999949
 20
501.49999999999568
 30
0.0
 40
147.5000000000006
 50
49.745904005683499
 51
49.75409645650749
  0
ARC
  5
82E
  8
0
 10
393.65196749293182
 20
603.37723223331147
 30
0.0
 40
7.0
 50
183.21123438385149
 51
221.25409599431691
  0
ARC
  5
82F
  8
0
 10
377.33458449221598
 20
619.41227984932561
 30
0.0
 40
7.0
 50
229.74590400568351
 51
267.78876561615471
  0
ARC
  5
830
  8
0
 10
393.66653242442629
 20
603.36062411198907
 30
0.0
 40
7.0
 50
221.24590400568269
 51
259.28876561614572
  0
ARC
  5
831
  8
0
 10
277.49999999999949
 20
501.49999999999591
 30
0.0
 40
147.5000000000006
 50
41.245904005682711
 51
41.254096456504399
  0
ARC
  5
833
  8
0
 10
407.4345521151285
 20
585.08984487747534
 30
0.0
 40
7.0
 50
174.71123438385101
 51
212.7540959943218
  0
ARC
  5
834
  8
0
 10
390.50692467169529
 20
586.65682577601342
 30
0.0
 40
10.00000000000181
 50
354.71123438385132
 51
79.288765616145668
  0
ARC
  5
835
  8
0
 10
316.84668190675529
 20
650.90578510528735
 30
0.0
 40
7.0
 50
255.24590400568181
 51
293.28876561614283
  0
ARC
  5
836
  8
0
 10
277.49999999999949
 20
501.49999999999591
 30
0.0
 40
147.5000000000006
 50
75.245904005681822
 51
80.969860124389626
  0
ARC
  5
837
  8
0
 10
277.49999999999949
 20
501.49999999999591
 30
0.0
 40
147.5000000000006
 50
27.030139875611511
 51
32.754095994321972
  0
ARC
  5
839
  8
0
 10
164.49307532830559
 20
586.65682577601319
 30
0.0
 40
10.00000000000181
 50
100.7112343838543
 51
185.28876561614919
  0
ARC
  5
83A
  8
0
 10
161.3334675755741
 20
603.36062411198873
 30
0.0
 40
7.0
 50
280.71123438385428
 51
318.7540959943172
  0
ARC
  5
83C
  8
0
 10
178.32133910156881
 20
602.42493855531541
 30
0.0
 40
10.00000000000181
 50
92.211234383845365
 51
176.78876561614871
  0
ARC
  5
83D
  8
0
 10
277.50000000000091
 20
501.49999999999591
 30
0.0
 40
147.5000000000006
 50
138.745904005683
 51
138.75409645650231
  0
ARC
  5
83E
  8
0
 10
177.66541550778439
 20
619.41227984932561
 30
0.0
 40
7.0
 50
272.21123438384529
 51
310.2540959943164
  0
ARC
  5
83F
  8
0
 10
161.34803250706841
 20
603.37723223331125
 30
0.0
 40
7.0
 50
318.7459040056832
 51
356.78876561614891
  0
ARC
  5
840
  8
0
 10
194.3283868006128
 20
615.97590470405441
 30
0.0
 40
10.00000000000181
 50
83.711234383846673
 51
168.28876561614891
  0
ARC
  5
841
  8
0
 10
277.50000000000091
 20
501.49999999999591
 30
0.0
 40
147.5000000000006
 50
130.24590400568371
 51
130.25409645650251
  0
ARC
  5
842
  8
0
 10
196.1905568745324
 20
632.8736064003167
 30
0.0
 40
7.0
 50
263.71123438384672
 51
301.7540959943243
  0
ARC
  5
843
  8
0
 10
177.68227529271371
 20
619.42655271082708
 30
0.0
 40
7.0
 50
310.24590400568383
 51
348.28876561614919
  0
ARC
  5
845
  8
0
 10
212.16257122724119
 20
627.012032894718
 30
0.0
 40
10.00000000000181
 50
75.211234383846943
 51
159.78876561614891
  0
ARC
  5
846
  8
0
 10
277.50000000000091
 20
501.49999999999591
 30
0.0
 40
147.5000000000006
 50
121.74590400568511
 51
121.7540964565088
  0
ARC
  5
847
  8
0
 10
216.50192630779341
 20
643.44888166462988
 30
0.0
 40
7.0
 50
255.21123438384689
 51
293.25409599431208
  0
ARC
  5
848
  8
0
 10
196.20934113253409
 20
632.8852304518748
 30
0.0
 40
7.0
 50
301.74590400568508
 51
339.78876561614908
  0
ARC
  5
849
  8
0
 10
216.52222238115431
 20
643.4576015459038
 30
0.0
 40
7.0
 50
293.24590400567979
 51
331.28876561614851
  0
ARC
  5
84A
  8
0
 10
277.50000000000051
 20
501.49999999999591
 30
0.0
 40
147.5000000000006
 50
113.2459040056798
 51
113.25409645650529
  0
ARC
  5
84C
  8
0
 10
238.1533180932442
 20
650.90578510528815
 30
0.0
 40
7.0
 50
246.7112343838572
 51
284.75409599431822
  0
ARC
  5
84D
  8
0
 10
231.43210614431109
 20
635.29087844730338
 30
0.0
 40
10.00000000000181
 50
66.711234383857189
 51
151.28876561614851
  0
ARC
  5
84E
  8
0
 10
147.5654478848723
 20
585.08984487747477
 30
0.0
 40
7.0
 50
327.24590400567809
 51
5.2887656161493961
  0
ARC
  5
84F
  8
0
 10
277.50000000000051
 20
501.49999999999591
 30
0.0
 40
147.5000000000006
 50
147.24590400567789
 51
152.96986012438839
  0
ARC
  5
850
  8
0
 10
277.50000000000051
 20
501.49999999999591
 30
0.0
 40
147.5000000000006
 50
99.030139875610374
 51
104.75409599431821
  0
ARC
  5
852
  8
0
 10
161.5899857331051
 20
420.33893425632169
 30
0.0
 40
10.00000000000181
 50
172.7112343838518
 51
257.28876561614868
  0
ARC
  5
853
  8
0
 10
144.72735698764239
 20
422.49572627057819
 30
0.0
 40
7.0
 50
352.7112343838516
 51
30.75409599431914
  0
ARC
  5
855
  8
0
 10
150.8667878333105
 20
438.36300944495707
 30
0.0
 40
10.00000000000181
 50
164.21123438385229
 51
248.788765616142
  0
ARC
  5
856
  8
0
 10
277.50000000000091
 20
501.49999999999733
 30
0.0
 40
147.5000000000006
 50
210.74590400568019
 51
210.7540964565016
  0
ARC
  5
857
  8
0
 10
134.5081746636215
 20
442.98856618599302
 30
0.0
 40
7.0
 50
344.21123438385212
 51
22.254095994319051
  0
ARC
  5
858
  8
0
 10
144.7160625369888
 20
422.51471053531861
 30
0.0
 40
7.0
 50
30.745904005680341
 51
68.788765616155757
  0
ARC
  5
859
  8
0
 10
142.92550294423239
 20
457.77409529594053
 30
0.0
 40
10.00000000000181
 50
155.71123438385291
 51
240.2887656161497
  0
ARC
  5
85A
  8
0
 10
277.50000000000091
 20
501.4999999999971
 30
0.0
 40
147.5000000000006
 50
202.24590400568329
 51
202.25409645650649
  0
ARC
  5
85B
  8
0
 10
127.4302758348481
 20
464.76680126921451
 30
0.0
 40
7.0
 50
335.71123438385268
 51
13.75409599431897
  0
ARC
  5
85C
  8
0
 10
134.499810325749
 20
443.0090113510758
 30
0.0
 40
7.0
 50
22.24590400568346
 51
60.288765616149668
  0
ARC
  5
85E
  8
0
 10
137.94058738247799
 20
478.14576377071
 30
0.0
 40
10.00000000000181
 50
147.21123438385311
 51
231.78876561614561
  0
ARC
  5
85F
  8
0
 10
277.50000000000091
 20
501.49999999999699
 30
0.0
 40
147.5000000000006
 50
193.7459040056811
 51
193.75409645650541
  0
ARC
  5
860
  8
0
 10
123.6491497170136
 20
487.35200130046138
 30
0.0
 40
7.0
 50
327.21123438385303
 51
5.2540959943185426
  0
ARC
  5
861
  8
0
 10
127.425025359817
 20
464.78825818966578
 30
0.0
 40
7.0
 50
13.745904005681369
 51
51.788765616145668
  0
ARC
  5
862
  8
0
 10
123.6471284486942
 20
487.37399860478911
 30
0.0
 40
7.0
 50
5.2459040056809663
 51
43.288765616146051
  0
ARC
  5
863
  8
0
 10
277.50000000000051
 20
501.49999999999682
 30
0.0
 40
147.5000000000006
 50
185.2459040056809
 51
185.2540964565051
  0
ARC
  5
865
  8
0
 10
123.2478611219662
 20
510.24800843345059
 30
0.0
 40
7.0
 50
318.71123438385121
 51
356.75409599431811
  0
ARC
  5
866
  8
0
 10
136.02155113536671
 20
499.03048448912079
 30
0.0
 40
10.00000000000181
 50
138.71123438385121
 51
223.28876561614609
  0
ARC
  5
867
  8
0
 10
157.8493485731012
 20
403.75558014331853
 30
0.0
 40
7.0
 50
39.245904005684032
 51
77.288765616148751
  0
ARC
  5
868
  8
0
 10
277.50000000000051
 20
501.49999999999682
 30
0.0
 40
147.5000000000006
 50
219.24590400568181
 51
224.9698601243831
  0
ARC
  5
869
  8
0
 10
277.50000000000051
 20
501.49999999999682
 30
0.0
 40
147.5000000000006
 50
171.03013987561209
 51
176.75409599431859
  0
LINE
  5
899
  8
1
 10
277.49999999999949
 20
501.49999999999659
 30
0.0
 11
470.08894454976848
 21
564.07594136092371
 31
0.0
  0
CIRCLE
  5
94E
  8
0
 10
277.5
 20
652.49999999999625
 30
0.0
 40
6.9175000000000004
  0
CIRCLE
  5
94F
  8
3
 10
277.5
 20
652.49999999999625
 30
0.0
 40
8.0
  0
LINE
  5
955
  8
1
 10
569.99999999999886
 20
652.49999999999636
 30
0.0
 11
649.99999999999125
 21
652.49999999999636
 31
0.0
  0
LINE
  5
98C
  8
0
 10
624.99999999999125
 20
603.40000732424267
 30
0.0
 11
640.39096029250868
 21
546.45346833279382
 31
0.0
  0
ARC
  5
992
  8
2
 10
634.000000000005
 20
510.50002288818121
 30
0.0
 40
30.0
 50
66.675293872871165
 51
118.1767714016909
  0
ARC
  5
993
  8
0
 10
654.87141094402205
 20
550.36710461240455
 30
0.0
 40
15.0
 50
195.1240108791724
 51
235.2105194123952
  0
LINE
  5
994
  8
0
 10
647.24007930356174
 20
538.04829495169315
 30
0.0
 11
646.31296899801555
 21
538.04829495169315
 31
0.0
  0
ARC
  5
9DD
  8
2
 10
634.000000000005
 20
510.50002288818109
 30
0.0
 40
30.0
 50
114.4052261764644
 51
118.1767714016909
  0
LINE
  5
9DE
  8
0
 10
618.99999999999625
 20
467.49999999999642
 30
0.0
 11
619.83419704162577
 21
466.0551283403708
 31
0.0
  0
LINE
  5
9E0
  8
2
 10
618.99999999999625
 20
535.49999999999636
 30
0.0
 11
619.83419704162577
 21
536.94487165962198
 31
0.0
  0
LINE
  5
A4D
  8
2
 10
243.5
 20
852.99999999999238
 30
0.0
 11
242.0551283403743
 21
853.83419704162213
 31
0.0
  0
LINE
  5
A4E
  8
2
 10
311.5
 20
852.99999999999238
 30
0.0
 11
312.94487165962568
 21
853.83419704162213
 31
0.0
  0
ARC
  5
A4F
  8
2
 10
268.4999771118151
 20
868.00000000000125
 30
0.0
 40
30.0
 50
204.40522617646459
 51
208.1767714016917
  0
ARC
  5
A50
  8
0
 10
326.36710461240818
 20
888.87141094401852
 30
0.0
 40
15.0
 50
214.78948058760679
 51
254.87598912082839
  0
LINE
  5
A51
  8
0
 10
379.4000073242446
 20
858.99999999998795
 30
0.0
 11
322.4534683327974
 21
874.39096029250481
 31
0.0
  0
LINE
  5
A52
  8
0
 10
240.95170504830321
 20
881.24007930355776
 30
0.0
 11
240.95170504830321
 21
880.31296899801168
 31
0.0
  0
ARC
  5
A53
  8
0
 10
228.63289538759179
 20
888.87141094401852
 30
0.0
 40
15.0
 50
285.12401087917158
 51
325.21051941239318
  0
ARC
  5
A54
  8
2
 10
268.4999771118151
 20
868.00000000000125
 30
0.0
 40
30.0
 50
156.67529387287021
 51
208.17677140169161
  0
LINE
  5
A55
  8
0
 10
175.59999267575361
 20
858.99999999998749
 30
0.0
 11
232.54653166720249
 21
874.39096029250481
 31
0.0
  0
ARC
  5
A57
  8
2
 10
268.4999771118151
 20
868.00000000000125
 30
0.0
 40
30.0
 50
204.40522617646459
 51
208.1767714016917
  0
LINE
  5
A58
  8
0
 10
243.9999771118201
 20
901.99999999999238
 30
0.0
 11
243.9999771118201
 21
882.99999999999295
 31
0.0
  0
LINE
  5
A59
  8
0
 10
236.93627700149821
 20
858.99999999999022
 30
0.0
 11
234.4782389764764
 21
858.99999999999022
 31
0.0
  0
LINE
  5
A5A
  8
0
 10
243.9999771118201
 20
882.99999999999295
 30
0.0
 11
240.95170504830321
 21
881.24007930355776
 31
0.0
  0
ARC
  5
A5B
  8
0
 10
244.99997711181999
 20
901.99999999999261
 30
0.0
 40
1.0
 50
90.0
 51
180.0
  0
ARC
  5
A5C
  8
0
 10
310.0000228881795
 20
901.99999999999261
 30
0.0
 40
1.0
 50
0.0
 51
90.0
  0
LINE
  5
A5D
  8
0
 10
313.99997711181231
 20
881.26797562142224
 30
0.0
 11
241.00002288818899
 21
881.26797562142224
 31
0.0
  0
LINE
  5
A5E
  8
0
 10
311.00002288818001
 20
882.99999999999295
 30
0.0
 11
314.04829495167678
 21
881.2400793035697
 31
0.0
  0
LINE
  5
A5F
  8
0
 10
318.06372299850182
 20
858.99999999999022
 30
0.0
 11
320.50283305820858
 21
858.99999999999022
 31
0.0
  0
LINE
  5
A61
  8
0
 10
311.0000228881795
 20
882.99999999999295
 30
0.0
 11
243.99997711181959
 21
882.99999999999204
 31
0.0
  0
LINE
  5
A63
  8
2
 10
311.5
 20
852.99999999999238
 30
0.0
 11
243.4999999999996
 21
852.99999999999295
 31
0.0
  0
LINE
  5
A64
  8
0
 10
311.00002288818001
 20
901.99999999999238
 30
0.0
 11
311.0000228881795
 21
882.99999999999295
 31
0.0
  0
ARC
  5
A65
  8
2
 10
286.5000228881845
 20
868.00000000000125
 30
0.0
 40
30.0
 50
331.82322859830828
 51
23.324706127130518
  0
LINE
  5
A66
  8
0
 10
115.0
 20
858.99999999998749
 30
0.0
 11
440.0
 21
858.99999999998795
 31
0.0
  0
LINE
  5
A67
  8
0
 10
440.0
 20
828.99999999999125
 30
0.0
 11
115.0
 21
828.99999999999523
 31
0.0
  0
ARC
  5
A68
  8
0
 10
114.9999999999995
 20
843.99999999999136
 30
0.0
 40
14.99999999999957
 50
90.0
 51
270.0
  0
ARC
  5
A69
  8
0
 10
440.0
 20
843.99999999999136
 30
0.0
 40
14.99999999999957
 50
270.0
 51
90.0
  0
LINE
  5
A6A
  8
0
 10
310.00002288818001
 20
902.99999999999238
 30
0.0
 11
245.00002288818769
 21
902.99999999999238
 31
0.0
  0
LINE
  5
A6B
  8
1
 10
479.99999999999949
 20
843.99999999999102
 30
0.0
 11
75.0
 21
843.99999999999125
 31
0.0
  0
LINE
  5
A6C
  8
1
 10
277.50000000000011
 20
803.99999999999329
 30
0.0
 11
277.5
 21
927.99999999999238
 31
0.0
  0
LINE
  5
A6E
  8
1
 10
277.5
 20
198.99999999999929
 30
0.0
 11
277.5
 21
74.999999999999986
 31
0.0
  0
LINE
  5
A6F
  8
1
 10
479.99999999999949
 20
159.00000000000131
 30
0.0
 11
75.0
 21
159.00000000000131
 31
0.0
  0
LINE
  5
A70
  8
0
 10
310.00002288818001
 20
100.0
 30
0.0
 11
245.00002288818769
 21
100.0
 31
0.0
  0
ARC
  5
A71
  8
0
 10
440.0
 20
159.00000000000119
 30
0.0
 40
14.99999999999957
 50
270.0
 51
90.0
  0
ARC
  5
A72
  8
0
 10
114.9999999999995
 20
159.00000000000119
 30
0.0
 40
14.99999999999957
 50
90.0
 51
270.0
  0
LINE
  5
A73
  8
0
 10
440.0
 20
174.00000000000131
 30
0.0
 11
115.0
 21
173.99999999999719
 31
0.0
  0
LINE
  5
A74
  8
0
 10
115.0
 20
144.000000000005
 30
0.0
 11
440.0
 21
144.00000000000449
 31
0.0
  0
ARC
  5
A75
  8
2
 10
286.5000228881845
 20
134.99999999999119
 30
0.0
 40
30.0
 50
336.6752938727704
 51
28.176771401691632
  0
LINE
  5
A76
  8
0
 10
311.00002288818001
 20
101.0
 30
0.0
 11
311.0000228881795
 21
119.9999999999995
 31
0.0
  0
LINE
  5
A77
  8
2
 10
311.5
 20
150.0
 30
0.0
 11
243.4999999999996
 21
149.99999999999949
 31
0.0
  0
LINE
  5
A79
  8
0
 10
311.0000228881795
 20
119.9999999999995
 30
0.0
 11
243.99997711181959
 21
120.0000000000004
 31
0.0
  0
LINE
  5
A7B
  8
0
 10
318.06372299850182
 20
144.0000000000023
 30
0.0
 11
320.50283305820858
 21
144.0000000000023
 31
0.0
  0
LINE
  5
A7C
  8
0
 10
311.00002288818001
 20
119.9999999999995
 30
0.0
 11
314.04829495167678
 21
121.7599206964228
 31
0.0
  0
LINE
  5
A7D
  8
0
 10
313.99997711181231
 20
121.7320243785702
 30
0.0
 11
241.00002288818899
 21
121.7320243785702
 31
0.0
  0
ARC
  5
A7E
  8
0
 10
310.0000228881795
 20
100.9999999999998
 30
0.0
 40
1.0
 50
270.0
 51
0.0
  0
ARC
  5
A7F
  8
0
 10
244.99997711181999
 20
100.9999999999998
 30
0.0
 40
1.0
 50
180.0
 51
270.0
  0
LINE
  5
A80
  8
0
 10
243.9999771118201
 20
119.9999999999995
 30
0.0
 11
240.95170504830321
 21
121.75992069643461
 31
0.0
  0
LINE
  5
A81
  8
0
 10
236.93627700149821
 20
144.0000000000023
 30
0.0
 11
234.4782389764764
 21
144.0000000000023
 31
0.0
  0
LINE
  5
A82
  8
0
 10
243.9999771118201
 20
101.0
 30
0.0
 11
243.9999771118201
 21
119.9999999999995
 31
0.0
  0
ARC
  5
A83
  8
2
 10
268.4999771118151
 20
134.99999999999119
 30
0.0
 40
30.0
 50
151.8232285983083
 51
155.59477382353541
  0
LINE
  5
A84
  8
0
 10
175.59999267575361
 20
144.000000000005
 30
0.0
 11
232.54653166720249
 21
128.60903970748771
 31
0.0
  0
ARC
  5
A85
  8
2
 10
268.4999771118151
 20
134.99999999999119
 30
0.0
 40
30.0
 50
151.8232285983083
 51
203.3247061271297
  0
ARC
  5
A86
  8
0
 10
228.63289538759179
 20
114.1285890559742
 30
0.0
 40
15.0
 50
34.789480587606818
 51
74.875989120828365
  0
LINE
  5
A87
  8
0
 10
240.95170504830321
 20
121.75992069643461
 30
0.0
 11
240.95170504830321
 21
122.6870310019809
 31
0.0
  0
LINE
  5
A88
  8
0
 10
379.4000073242446
 20
144.00000000000449
 30
0.0
 11
322.4534683327974
 21
128.60903970748771
 31
0.0
  0
ARC
  5
A89
  8
0
 10
326.36710461240818
 20
114.1285890559742
 30
0.0
 40
15.0
 50
105.12401087917161
 51
145.2105194123931
  0
ARC
  5
A8A
  8
2
 10
268.4999771118151
 20
134.99999999999119
 30
0.0
 40
30.0
 50
151.8232285983083
 51
155.59477382353541
  0
LINE
  5
A8B
  8
2
 10
311.5
 20
150.0
 30
0.0
 11
312.94487165962568
 21
149.16580295837039
 31
0.0
  0
LINE
  5
A8C
  8
2
 10
243.5
 20
150.0
 30
0.0
 11
242.0551283403743
 21
149.16580295837039
 31
0.0
  0
POLYLINE
  5
B45
  8
0
 66
     1
 10
0.0
 20
0.0
 30
0.0
 70
   128
  0
VERTEX
  5
1057
  8
0
 10
638.13939640907029
 20
536.84964052285966
 30
0.0
  0
VERTEX
  5
1058
  8
0
 10
640.26044011229624
 20
536.98955954016674
 30
0.0
  0
VERTEX
  5
1059
  8
0
 10
641.81431185327074
 20
537.31931723230446
 30
0.0
  0
VERTEX
  5
105A
  8
0
 10
642.98385933804275
 20
537.82170091520118
 30
0.0
  0
VERTEX
  5
105B
  8
0
 10
643.49778008485998
 20
538.31360901563585
 30
0.0
  0
VERTEX
  5
105C
  8
0
 10
643.57361414166553
 20
538.58993759653458
 30
0.0
  0
SEQEND
  5
105D
  8
0
  0
LINE
  5
B46
  8
0
 10
631.35275986396925
 20
536.84964052299608
 30
0.0
 11
638.13939636392195
 21
536.84964052299608
 31
0.0
  0
POLYLINE
  5
B47
  8
0
 66
     1
 10
0.0
 20
0.0
 30
0.0
 70
   128
  0
VERTEX
  5
105E
  8
0
 10
640.98872880154886
 20
527.56214557729606
 30
0.0
  0
VERTEX
  5
105F
  8
0
 10
641.81431182101176
 20
527.2402391223136
 30
0.0
  0
VERTEX
  5
1060
  8
0
 10
642.9838593127032
 20
526.23217433345917
 30
0.0
  0
VERTEX
  5
1061
  8
0
 10
643.49778007406712
 20
525.12060893595105
 30
0.0
  0
VERTEX
  5
1062
  8
0
 10
643.57361414446495
 20
524.42694002379847
 30
0.0
  0
SEQEND
  5
1063
  8
0
  0
POLYLINE
  5
B48
  8
0
 66
     1
 10
0.0
 20
0.0
 30
0.0
 70
   128
  0
VERTEX
  5
1064
  8
0
 10
641.01409965446317
 20
527.62716146063428
 30
0.0
  0
VERTEX
  5
1065
  8
0
 10
639.73114040413736
 20
528.13084987794218
 30
0.0
  0
VERTEX
  5
1066
  8
0
 10
639.12208587126224
 20
528.47847186392482
 30
0.0
  0
SEQEND
  5
1067
  8
0
  0
POLYLINE
  5
B49
  8
0
 66
     1
 10
0.0
 20
0.0
 30
0.0
 70
   128
  0
VERTEX
  5
1068
  8
0
 10
639.12208535047819
 20
528.47847243488195
 30
0.0
  0
VERTEX
  5
1069
  8
0
 10
630.33599576504548
 20
537.94516718008254
 30
0.0
  0
VERTEX
  5
106A
  8
0
 10
624.99999999999625
 20
543.61438351545394
 30
0.0
  0
SEQEND
  5
106B
  8
0
  0
POLYLINE
  5
B4A
  8
0
 66
     1
 10
0.0
 20
0.0
 30
0.0
 70
   128
  0
VERTEX
  5
106C
  8
0
 10
643.57361414142167
 20
501.49590205497498
 30
0.0
  0
VERTEX
  5
106D
  8
0
 10
643.33833162093924
 20
500.00538519421752
 30
0.0
  0
VERTEX
  5
106E
  8
0
 10
642.61591102147122
 20
498.67686269925252
 30
0.0
  0
VERTEX
  5
106F
  8
0
 10
641.54643654518622
 20
497.70727492595972
 30
0.0
  0
VERTEX
  5
1070
  8
0
 10
640.13830615558982
 20
497.04834290285407
 30
0.0
  0
VERTEX
  5
1071
  8
0
 10
638.13939639017372
 20
496.75563907000918
 30
0.0
  0
SEQEND
  5
1072
  8
0
  0
LINE
  5
B4B
  8
0
 10
629.62417061055748
 20
496.7556390699965
 30
0.0
 11
638.13939636399289
 21
496.7556390699965
 31
0.0
  0
POLYLINE
  5
B4C
  8
0
 66
     1
 10
0.0
 20
0.0
 30
0.0
 70
   128
  0
VERTEX
  5
1073
  8
0
 10
629.62417144970914
 20
496.7556390696991
 30
0.0
  0
VERTEX
  5
1074
  8
0
 10
627.81094901636959
 20
497.04511701486359
 30
0.0
  0
VERTEX
  5
1075
  8
0
 10
626.19882379466617
 20
497.93427206447541
 30
0.0
  0
VERTEX
  5
1076
  8
0
 10
625.11343159434546
 20
499.22767778964908
 30
0.0
  0
VERTEX
  5
1077
  8
0
 10
624.99999999999625
 20
499.53143136370909
 30
0.0
  0
SEQEND
  5
1078
  8
0
  0
POLYLINE
  5
B4D
  8
0
 66
     1
 10
0.0
 20
0.0
 30
0.0
 70
   128
  0
VERTEX
  5
1079
  8
0
 10
638.13939638990075
 20
482.58489697713048
 30
0.0
  0
VERTEX
  5
107A
  8
0
 10
640.26044009547138
 20
482.29323538074959
 30
0.0
  0
VERTEX
  5
107B
  8
0
 10
641.81431183786299
 20
481.58902542331862
 30
0.0
  0
VERTEX
  5
107C
  8
0
 10
642.98385932575093
 20
480.46362343371862
 30
0.0
  0
VERTEX
  5
107D
  8
0
 10
643.49778007832526
 20
479.28473013930119
 30
0.0
  0
VERTEX
  5
107E
  8
0
 10
643.5736141442776
 20
478.57969060868533
 30
0.0
  0
SEQEND
  5
107F
  8
0
  0
LINE
  5
B4E
  8
0
 10
629.62417061055748
 20
482.58489697699628
 30
0.0
 11
638.13939636399289
 21
482.58489697699628
 31
0.0
  0
POLYLINE
  5
B4F
  8
0
 66
     1
 10
0.0
 20
0.0
 30
0.0
 70
   128
  0
VERTEX
  5
1080
  8
0
 10
629.62417015283063
 20
482.58489697675208
 30
0.0
  0
VERTEX
  5
1081
  8
0
 10
627.81088664542403
 20
482.33047735453829
 30
0.0
  0
VERTEX
  5
1082
  8
0
 10
626.19872277181537
 20
481.55705052133692
 30
0.0
  0
VERTEX
  5
1083
  8
0
 10
625.11337117547191
 20
480.45357621758973
 30
0.0
  0
VERTEX
  5
1084
  8
0
 10
624.99999999999625
 20
480.20092931203322
 30
0.0
  0
SEQEND
  5
1085
  8
0
  0
POLYLINE
  5
B50
  8
0
 66
     1
 10
0.0
 20
0.0
 30
0.0
 70
   128
  0
VERTEX
  5
1086
  8
0
 10
624.99999999999625
 20
413.897098405154
 30
0.0
  0
VERTEX
  5
1087
  8
0
 10
628.06189113710286
 20
422.95127487170981
 30
0.0
  0
VERTEX
  5
1088
  8
0
 10
631.18347993594034
 20
432.20068810103658
 30
0.0
  0
VERTEX
  5
1089
  8
0
 10
634.28729172499334
 20
441.4261999162423
 30
0.0
  0
VERTEX
  5
108A
  8
0
 10
637.36303578162733
 20
450.61573665743532
 30
0.0
  0
VERTEX
  5
108B
  8
0
 10
640.39096029199663
 20
459.74850046958193
 30
0.0
  0
SEQEND
  5
108C
  8
0
  0
POLYLINE
  5
B51
  8
0
 66
     1
 10
0.0
 20
0.0
 30
0.0
 70
   128
  0
VERTEX
  5
108D
  8
0
 10
643.15281768828004
 20
463.93030913395103
 30
0.0
  0
VERTEX
  5
108E
  8
0
 10
641.64726377990974
 20
462.22287681862059
 30
0.0
  0
VERTEX
  5
108F
  8
0
 10
640.39096024335504
 20
459.74850032643019
 30
0.0
  0
SEQEND
  5
1090
  8
0
  0
ARC
  5
B54
  8
0
 10
634.000000000005
 20
492.49997711181157
 30
0.0
 40
30.0
 50
287.76381462311821
 51
292.1090426861515
  0
POLYLINE
  5
BA6
  8
0
 66
     1
 10
0.0
 20
0.0
 30
0.0
 70
   128
  0
VERTEX
  5
1091
  8
0
 10
284.95002288799333
 20
139.3758285502872
 30
0.0
  0
VERTEX
  5
1092
  8
0
 10
285.23595706841712
 20
141.18905098296091
 30
0.0
  0
VERTEX
  5
1093
  8
0
 10
286.10999975331703
 20
142.8011762041242
 30
0.0
  0
VERTEX
  5
1094
  8
0
 10
287.37010511241721
 20
143.8865684070542
 30
0.0
  0
VERTEX
  5
1095
  8
0
 10
287.66268344189479
 20
144.0
 30
0.0
  0
SEQEND
  5
1096
  8
0
  0
LINE
  5
BA7
  8
0
 10
284.95002288818341
 20
139.37582938943891
 30
0.0
 11
284.95002288818341
 21
130.8606036360033
 31
0.0
  0
POLYLINE
  5
BA8
  8
0
 66
     1
 10
0.0
 20
0.0
 30
0.0
 70
   128
  0
VERTEX
  5
1097
  8
0
 10
289.5477882312648
 20
125.4263858583335
 30
0.0
  0
VERTEX
  5
1098
  8
0
 10
288.12136920608509
 20
125.6616683784768
 30
0.0
  0
VERTEX
  5
1099
  8
0
 10
286.83510545589888
 20
126.3840889806597
 30
0.0
  0
VERTEX
  5
109A
  8
0
 10
285.8874654591441
 20
127.4535634582171
 30
0.0
  0
VERTEX
  5
109B
  8
0
 10
285.23913964796247
 20
128.86169384087401
 30
0.0
  0
VERTEX
  5
109C
  8
0
 10
284.9500228879819
 20
130.86060360982171
 30
0.0
  0
SEQEND
  5
109D
  8
0
  0
POLYLINE
  5
BA9
  8
0
 66
     1
 10
0.0
 20
0.0
 30
0.0
 70
   128
  0
VERTEX
  5
109E
  8
0
 10
265.45225755676802
 20
125.426385855937
 30
0.0
  0
VERTEX
  5
109F
  8
0
 10
266.87867658417241
 20
125.66166838532619
 30
0.0
  0
VERTEX
  5
10A0
  8
0
 10
268.16494033387562
 20
126.38408899296149
 30
0.0
  0
VERTEX
  5
10A1
  8
0
 10
269.11258033784537
 20
127.4535634898775
 30
0.0
  0
VERTEX
  5
10A2
  8
0
 10
269.76090613468978
 20
128.8616938605191
 30
0.0
  0
VERTEX
  5
10A3
  8
0
 10
270.05002288806008
 20
130.86060359130801
 30
0.0
  0
SEQEND
  5
10A4
  8
0
  0
LINE
  5
BAA
  8
0
 10
270.05002288818332
 20
139.37582938943891
 30
0.0
 11
270.05002288818332
 21
130.8606036360033
 31
0.0
  0
POLYLINE
  5
BAB
  8
0
 66
     1
 10
0.0
 20
0.0
 30
0.0
 70
   128
  0
VERTEX
  5
10A5
  8
0
 10
267.26177041544503
 20
144.0
 30
0.0
  0
VERTEX
  5
10A6
  8
0
 10
268.28247955251891
 20
143.42300948647241
 30
0.0
  0
VERTEX
  5
10A7
  8
0
 10
269.3119141493039
 20
142.19200682991769
 30
0.0
  0
VERTEX
  5
10A8
  8
0
 10
269.89947186436439
 20
140.7066947808334
 30
0.0
  0
VERTEX
  5
10A9
  8
0
 10
270.05002288802098
 20
139.3758296923088
 30
0.0
  0
SEQEND
  5
10AA
  8
0
  0
POLYLINE
  5
BAC
  8
0
 66
     1
 10
0.0
 20
0.0
 30
0.0
 70
   128
  0
VERTEX
  5
10AB
  8
0
 10
312.0591770919205
 20
128.6090397499365
 30
0.0
  0
VERTEX
  5
10AC
  8
0
 10
310.44660033243048
 20
127.3527362052254
 30
0.0
  0
VERTEX
  5
10AD
  8
0
 10
309.05409463295467
 20
125.4263864140102
 30
0.0
  0
SEQEND
  5
10AE
  8
0
  0
POLYLINE
  5
BAD
  8
0
 66
     1
 10
0.0
 20
0.0
 30
0.0
 70
   128
  0
VERTEX
  5
10AF
  8
0
 10
344.72231706948651
 20
143.99601749696831
 30
0.0
  0
VERTEX
  5
10B0
  8
0
 10
338.27809164776039
 20
140.9417629381341
 30
0.0
  0
VERTEX
  5
10B1
  8
0
 10
331.68222744502827
 20
137.82074192598699
 30
0.0
  0
VERTEX
  5
10B2
  8
0
 10
325.10622980395561
 20
134.71701701388969
 30
0.0
  0
VERTEX
  5
10B3
  8
0
 10
318.55962212176343
 20
131.64023726666889
 30
0.0
  0
VERTEX
  5
10B4
  8
0
 10
312.0591770121946
 20
128.60903970794419
 30
0.0
  0
SEQEND
  5
10B5
  8
0
  0
POLYLINE
  5
BAE
  8
0
 66
     1
 10
0.0
 20
0.0
 30
0.0
 70
   128
  0
VERTEX
  5
10B6
  8
0
 10
245.9459517266564
 20
125.4263873050385
 30
0.0
  0
VERTEX
  5
10B7
  8
0
 10
244.55344458986929
 20
127.3527342226525
 30
0.0
  0
VERTEX
  5
10B8
  8
0
 10
242.94086867162781
 20
128.60903975630569
 30
0.0
  0
SEQEND
  5
10B9
  8
0
  0
POLYLINE
  5
BAF
  8
0
 66
     1
 10
0.0
 20
0.0
 30
0.0
 70
   128
  0
VERTEX
  5
10BA
  8
0
 10
210.27771566927589
 20
143.9960211750149
 30
0.0
  0
VERTEX
  5
10BB
  8
0
 10
216.7296583279612
 20
140.93810886110259
 30
0.0
  0
VERTEX
  5
10BC
  8
0
 10
223.32674993257979
 20
137.81652006187139
 30
0.0
  0
VERTEX
  5
10BD
  8
0
 10
229.90295983025001
 20
134.71270827492839
 30
0.0
  0
VERTEX
  5
10BE
  8
0
 10
236.44740779355649
 20
131.6369643196449
 30
0.0
  0
VERTEX
  5
10BF
  8
0
 10
242.94086877555679
 20
128.6090397079997
 30
0.0
  0
SEQEND
  5
10C0
  8
0
  0
POLYLINE
  5
C0B
  8
0
 66
     1
 10
0.0
 20
0.0
 30
0.0
 70
   128
  0
VERTEX
  5
10C1
  8
0
 10
265.4444398636893
 20
877.57361414463298
 30
0.0
  0
VERTEX
  5
10C2
  8
0
 10
264.03572733401012
 20
877.33833161281439
 30
0.0
  0
VERTEX
  5
10C3
  8
0
 10
262.79499112755587
 20
876.61591100475903
 30
0.0
  0
VERTEX
  5
10C4
  8
0
 10
261.89836557801891
 20
875.54643650515084
 30
0.0
  0
VERTEX
  5
10C5
  8
0
 10
261.29332822216787
 20
874.13830613423374
 30
0.0
  0
VERTEX
  5
10C6
  8
0
 10
261.02568921154619
 20
872.13939640865533
 30
0.0
  0
SEQEND
  5
10C7
  8
0
  0
ARC
  5
C0C
  8
0
 10
-4067.1682524255771
 20
453.27204693643603
 30
0.0
 40
4348.2860509016118
 50
5.353917324664776
 51
5.4860759474272713
  0
POLYLINE
  5
C0D
  8
0
 66
     1
 10
0.0
 20
0.0
 30
0.0
 70
   128
  0
VERTEX
  5
10C8
  8
0
 10
261.02568920588652
 20
872.13939637443013
 30
0.0
  0
VERTEX
  5
10C9
  8
0
 10
261.10917027194643
 20
870.27132240591766
 30
0.0
  0
VERTEX
  5
10CA
  8
0
 10
261.20030665163949
 20
868.9849253243998
 30
0.0
  0
SEQEND
  5
10CB
  8
0
  0
POLYLINE
  5
C0E
  8
0
 66
     1
 10
0.0
 20
0.0
 30
0.0
 70
   128
  0
VERTEX
  5
10CC
  8
0
 10
293.97431072489462
 20
872.13939640906642
 30
0.0
  0
VERTEX
  5
10CD
  8
0
 10
293.67068837804942
 20
874.26044011229226
 30
0.0
  0
VERTEX
  5
10CE
  8
0
 10
292.9264873523976
 20
875.81431185326676
 30
0.0
  0
VERTEX
  5
10CF
  8
0
 10
291.70331094239418
 20
876.98385933803877
 30
0.0
  0
VERTEX
  5
10D0
  8
0
 10
290.37471127551038
 20
877.49778008485623
 30
0.0
  0
VERTEX
  5
10D1
  8
0
 10
289.55556005836797
 20
877.57361414166166
 30
0.0
  0
SEQEND
  5
10D2
  8
0
  0
POLYLINE
  5
C0F
  8
0
 66
     1
 10
0.0
 20
0.0
 30
0.0
 70
   128
  0
VERTEX
  5
10D3
  8
0
 10
293.97431073073182
 20
872.13939637511396
 30
0.0
  0
VERTEX
  5
10D4
  8
0
 10
293.89082966472188
 20
870.27132240258902
 30
0.0
  0
VERTEX
  5
10D5
  8
0
 10
293.79969328498959
 20
868.9849253243998
 30
0.0
  0
SEQEND
  5
10D6
  8
0
  0
ARC
  5
C10
  8
0
 10
4622.1847483394722
 20
453.27048516007159
 30
0.0
 40
4348.3026206302466
 50
174.51392434847051
 51
174.6460824677084
  0
POLYLINE
  5
C11
  8
0
 66
     1
 10
0.0
 20
0.0
 30
0.0
 70
   128
  0
VERTEX
  5
10D7
  8
0
 10
306.0286639415649
 20
872.139396389897
 30
0.0
  0
VERTEX
  5
10D8
  8
0
 10
306.25555929237038
 20
874.26044007997893
 30
0.0
  0
VERTEX
  5
10D9
  8
0
 10
306.79914824818712
 20
875.814311821008
 30
0.0
  0
VERTEX
  5
10DA
  8
0
 10
307.65492581367511
 20
876.98385931269945
 30
0.0
  0
VERTEX
  5
10DB
  8
0
 10
308.53331808763193
 20
877.49778007406314
 30
0.0
  0
VERTEX
  5
10DC
  8
0
 10
309.04925386036439
 20
877.57361414446098
 30
0.0
  0
SEQEND
  5
10DD
  8
0
  0
LINE
  5
C12
  8
0
 10
306.02866394131479
 20
863.62417061055362
 30
0.0
 11
306.02866394131479
 21
872.13939636398925
 31
0.0
  0
POLYLINE
  5
C13
  8
0
 66
     1
 10
0.0
 20
0.0
 30
0.0
 70
   128
  0
VERTEX
  5
10DE
  8
0
 10
307.89820862675919
 20
858.9999999999925
 30
0.0
  0
VERTEX
  5
10DF
  8
0
 10
307.23131682885878
 20
859.57699051719158
 30
0.0
  0
VERTEX
  5
10E0
  8
0
 10
306.53701760488229
 20
860.8079931782446
 30
0.0
  0
VERTEX
  5
10E1
  8
0
 10
306.13306023456198
 20
862.29330522472242
 30
0.0
  0
VERTEX
  5
10E2
  8
0
 10
306.028663941454
 20
863.62417030768461
 30
0.0
  0
SEQEND
  5
10E3
  8
0
  0
POLYLINE
  5
C14
  8
0
 66
     1
 10
0.0
 20
0.0
 30
0.0
 70
   128
  0
VERTEX
  5
10E4
  8
0
 10
245.9507460739483
 20
877.57361414142235
 30
0.0
  0
VERTEX
  5
10E5
  8
0
 10
246.8500280044932
 20
877.33833162161557
 30
0.0
  0
VERTEX
  5
10E6
  8
0
 10
247.69051025661929
 20
876.61591102444049
 30
0.0
  0
VERTEX
  5
10E7
  8
0
 10
248.3271984393937
 20
875.54643654832091
 30
0.0
  0
VERTEX
  5
10E8
  8
0
 10
248.77117426714949
 20
874.13830616814425
 30
0.0
  0
VERTEX
  5
10E9
  8
0
 10
248.97133599509519
 20
872.13939639017065
 30
0.0
  0
SEQEND
  5
10EA
  8
0
  0
LINE
  5
C15
  8
0
 10
248.97133599531529
 20
863.62417061055362
 30
0.0
 11
248.97133599531529
 21
872.13939636398925
 31
0.0
  0
POLYLINE
  5
C16
  8
0
 66
     1
 10
0.0
 20
0.0
 30
0.0
 70
   128
  0
VERTEX
  5
10EB
  8
0
 10
248.97133599519881
 20
863.62417144970527
 30
0.0
  0
VERTEX
  5
10EC
  8
0
 10
248.77337036425931
 20
861.81094901441872
 30
0.0
  0
VERTEX
  5
10ED
  8
0
 10
248.17637031202281
 20
860.19882379146088
 30
0.0
  0
VERTEX
  5
10EE
  8
0
 10
247.33757555021339
 20
859.11343159308194
 30
0.0
  0
VERTEX
  5
10EF
  8
0
 10
247.14936916569829
 20
858.9999999999925
 30
0.0
  0
SEQEND
  5
10F0
  8
0
  0
LINE
  5
C17
  8
2
 10
240.95170504830281
 20
880.31296899801123
 30
0.0
 11
240.95170504830179
 21
879.87824508564688
 31
0.0
  0
LINE
  5
C18
  8
2
 10
314.04829495169628
 20
880.31296899801123
 30
0.0
 11
314.0482949516973
 21
879.87824508564688
 31
0.0
  0
LINE
  5
C19
  8
0
 10
314.04829495169679
 20
880.31296899801214
 30
0.0
 11
314.04829495167678
 21
881.2400793035697
 31
0.0
  0
LINE
  5
C1A
  8
0
 10
314.04829495167678
 20
121.7599206964228
 30
0.0
 11
314.04829495167678
 21
122.68703100195189
 31
0.0
  0
LINE
  5
C1B
  8
2
 10
314.04829495167678
 20
123.1217549142974
 30
0.0
 11
314.04829495167678
 21
122.68703100195189
 31
0.0
  0
LINE
  5
C1C
  8
2
 10
240.95170504830179
 20
123.1217549143455
 30
0.0
 11
240.95170504830281
 21
122.6870310019813
 31
0.0
  0
POLYLINE
  5
F00
  8
0
 66
     1
 10
0.0
 20
0.0
 30
0.0
 70
   128
  0
VERTEX
  5
10F1
  8
0
 10
624.99999999999591
 20
523.93252562923306
 30
0.0
  0
VERTEX
  5
10F2
  8
0
 10
628.0618919353833
 20
520.11125761845346
 30
0.0
  0
VERTEX
  5
10F3
  8
0
 10
631.18347993595989
 20
516.1997407143607
 30
0.0
  0
VERTEX
  5
10F4
  8
0
 10
634.2872917256276
 20
512.28653013774669
 30
0.0
  0
VERTEX
  5
10F5
  8
0
 10
637.36303579479636
 20
508.36975106811309
 30
0.0
  0
VERTEX
  5
10F6
  8
0
 10
640.39096029199516
 20
504.44468225034637
 30
0.0
  0
SEQEND
  5
10F7
  8
0
  0
POLYLINE
  5
F01
  8
0
 66
     1
 10
0.0
 20
0.0
 30
0.0
 70
   128
  0
VERTEX
  5
10F8
  8
0
 10
643.57361354801424
 20
501.49587934295681
 30
0.0
  0
VERTEX
  5
10F9
  8
0
 10
641.64726377991019
 20
502.92968154018212
 30
0.0
  0
VERTEX
  5
10FA
  8
0
 10
640.39096024335549
 20
504.44468234618029
 30
0.0
  0
SEQEND
  5
10FB
  8
0
  0
POLYLINE
  5
F02
  8
0
 66
     1
 10
0.0
 20
0.0
 30
0.0
 70
   128
  0
VERTEX
  5
10FC
  8
0
 10
640.39096025005847
 20
472.75142602103631
 30
0.0
  0
VERTEX
  5
10FD
  8
0
 10
641.64726379477133
 20
475.79567559819083
 30
0.0
  0
VERTEX
  5
10FE
  8
0
 10
643.57361358598564
 20
478.57966720583897
 30
0.0
  0
SEQEND
  5
10FF
  8
0
  0
POLYLINE
  5
F03
  8
0
 66
     1
 10
0.0
 20
0.0
 30
0.0
 70
   128
  0
VERTEX
  5
1100
  8
0
 10
624.99999999999591
 20
424.9258635225595
 30
0.0
  0
VERTEX
  5
1101
  8
0
 10
628.05823706186084
 20
434.33165142339197
 30
0.0
  0
VERTEX
  5
1102
  8
0
 10
631.1792580740107
 20
443.95783741019562
 30
0.0
  0
VERTEX
  5
1103
  8
0
 10
634.28298298610525
 20
453.57238584887631
 30
0.0
  0
VERTEX
  5
1104
  8
0
 10
637.35976273332687
 20
463.17173363982999
 30
0.0
  0
VERTEX
  5
1105
  8
0
 10
640.39096029205155
 20
472.75142616780278
 30
0.0
  0
SEQEND
  5
1106
  8
0
  0
POLYLINE
  5
F04
  8
0
 66
     1
 10
0.0
 20
0.0
 30
0.0
 70
   128
  0
VERTEX
  5
1107
  8
0
 10
315.52086277754728
 20
874.39096025005449
 30
0.0
  0
VERTEX
  5
1108
  8
0
 10
312.12729575615089
 20
875.64726379476747
 30
0.0
  0
VERTEX
  5
1109
  8
0
 10
309.04925447088448
 20
877.57361358598166
 30
0.0
  0
SEQEND
  5
110A
  8
0
  0
POLYLINE
  5
F05
  8
0
 66
     1
 10
0.0
 20
0.0
 30
0.0
 70
   128
  0
VERTEX
  5
110B
  8
0
 10
371.10173757329039
 20
858.99999999999193
 30
0.0
  0
VERTEX
  5
110C
  8
0
 10
360.16232992888132
 20
862.05823706360127
 30
0.0
  0
VERTEX
  5
110D
  8
0
 10
348.96904889187181
 20
865.179258074627
 30
0.0
  0
VERTEX
  5
110E
  8
0
 10
337.79297491448642
 20
868.28298298872983
 30
0.0
  0
VERTEX
  5
110F
  8
0
 10
326.64043962436432
 20
871.35976273379606
 30
0.0
  0
VERTEX
  5
1110
  8
0
 10
315.52086261331942
 20
874.39096029201141
 30
0.0
  0
SEQEND
  5
1111
  8
0
  0
POLYLINE
  5
F06
  8
0
 66
     1
 10
0.0
 20
0.0
 30
0.0
 70
   128
  0
VERTEX
  5
1112
  8
0
 10
245.95074602290521
 20
877.573612694948
 30
0.0
  0
VERTEX
  5
1113
  8
0
 10
242.8727032707298
 20
875.64726577723127
 30
0.0
  0
VERTEX
  5
1114
  8
0
 10
239.4791371327569
 20
874.39096024364994
 30
0.0
  0
SEQEND
  5
1115
  8
0
  0
POLYLINE
  5
F07
  8
0
 66
     1
 10
0.0
 20
0.0
 30
0.0
 70
   128
  0
VERTEX
  5
1116
  8
0
 10
183.89825541368819
 20
858.99999999999193
 30
0.0
  0
VERTEX
  5
1117
  8
0
 10
194.85076462990719
 20
862.06189193657087
 30
0.0
  0
VERTEX
  5
1118
  8
0
 10
206.04611758254529
 20
865.18347967636987
 30
0.0
  0
VERTEX
  5
1119
  8
0
 10
217.2225827155076
 20
868.28729156096335
 30
0.0
  0
VERTEX
  5
111A
  8
0
 10
228.3714816760116
 20
871.36303584291386
 30
0.0
  0
VERTEX
  5
111B
  8
0
 10
239.47913732715369
 20
874.39096029199129
 30
0.0
  0
SEQEND
  5
111C
  8
0
  0
POLYLINE
  5
F08
  8
0
 66
     1
 10
0.0
 20
0.0
 30
0.0
 70
   128
  0
VERTEX
  5
111D
  8
0
 10
289.54776571425958
 20
125.4263864519821
 30
0.0
  0
VERTEX
  5
111E
  8
0
 10
291.7651911311022
 20
127.3527362200861
 30
0.0
  0
VERTEX
  5
111F
  8
0
 10
294.16213090733032
 20
128.60903975664081
 30
0.0
  0
SEQEND
  5
1120
  8
0
  0
POLYLINE
  5
F09
  8
0
 66
     1
 10
0.0
 20
0.0
 30
0.0
 70
   128
  0
VERTEX
  5
1121
  8
0
 10
329.55088545328272
 20
144.0000000000004
 30
0.0
  0
VERTEX
  5
1122
  8
0
 10
322.59108739068552
 20
140.93810886289469
 30
0.0
  0
VERTEX
  5
1123
  8
0
 10
315.47295745869678
 20
137.81652006405639
 30
0.0
  0
VERTEX
  5
1124
  8
0
 10
308.36081390822341
 20
134.71270827500351
 30
0.0
  0
VERTEX
  5
1125
  8
0
 10
301.25660720655509
 20
131.63696421836951
 30
0.0
  0
VERTEX
  5
1126
  8
0
 10
294.16213077993922
 20
128.60903970800109
 30
0.0
  0
SEQEND
  5
1127
  8
0
  0
POLYLINE
  5
F0A
  8
0
 66
     1
 10
0.0
 20
0.0
 30
0.0
 70
   128
  0
VERTEX
  5
1128
  8
0
 10
225.44911818765189
 20
144.0000000000004
 30
0.0
  0
VERTEX
  5
1129
  8
0
 10
232.40058228485481
 20
140.94176294348881
 30
0.0
  0
VERTEX
  5
112A
  8
0
 10
239.51739504491249
 20
137.8207419396681
 30
0.0
  0
VERTEX
  5
112B
  8
0
 10
246.62927900123711
 20
134.717017010164
 30
0.0
  0
VERTEX
  5
112C
  8
0
 10
253.73578823339989
 20
131.64023726654929
 30
0.0
  0
VERTEX
  5
112D
  8
0
 10
260.83786922600478
 20
128.60903970805199
 30
0.0
  0
SEQEND
  5
112E
  8
0
  0
POLYLINE
  5
F0B
  8
0
 66
     1
 10
0.0
 20
0.0
 30
0.0
 70
   128
  0
VERTEX
  5
112F
  8
0
 10
260.8378691110247
 20
128.6090397497068
 30
0.0
  0
VERTEX
  5
1130
  8
0
 10
263.23480852079052
 20
127.3527342102429
 30
0.0
  0
VERTEX
  5
1131
  8
0
 10
265.45223454977622
 20
125.4263872685701
 30
0.0
  0
SEQEND
  5
1132
  8
0
  0
TEXT
  5
1015
  8
0
 62
     3
 10
0.0
 20
0.0
 30
0.0
 40
10.0
  1
V355
  7
STANDARD1
  0
LINE
  5
1035
  8
2
 10
645.87824508565029
 20
538.0482949516944
 30
0.0
 11
646.31296899801498
 21
538.04829495169349
 31
0.0
  0
ENDSEC
  0
EOF
