  0
SECTION
  2
HEADER
  9
$ACADVER
  1
AC1009
  9
$INSBASE
 10
0.0
 20
0.0
 30
0.0
  9
$EXTMIN
 10
0.0
 20
-2.960436562073669
 30
0.0
  9
$EXTMAX
 10
942.82832217971259
 20
1028.0119095420171
 30
0.0
  9
$LIMMIN
 10
0.0
 20
0.0
  9
$LIMMAX
 10
2250.0
 20
1620.0
  9
$ORTHOMODE
 70
     1
  9
$REGENMODE
 70
     1
  9
$FILLMODE
 70
     1
  9
$QTEXTMODE
 70
     0
  9
$MIRRTEXT
 70
     1
  9
$DRAGMODE
 70
     2
  9
$LTSCALE
 40
20.0
  9
$OSMODE
 70
    37
  9
$ATTMODE
 70
     1
  9
$TEXTSIZE
 40
0.2
  9
$TRACEWID
 40
0.05
  9
$TEXTSTYLE
  7
STANDARD
  9
$CLAYER
  8
0
  9
$CELTYPE
  6
BYLAYER
  9
$CECOLOR
 62
   256
  9
$DIMSCALE
 40
10.0
  9
$DIMASZ
 40
3.0
  9
$DIMEXO
 40
2.0
  9
$DIMDLI
 40
0.3799999999999999
  9
$DIMRND
 40
0.0
  9
$DIMDLE
 40
0.0
  9
$DIMEXE
 40
2.0
  9
$DIMTP
 40
0.0
  9
$DIMTM
 40
0.0
  9
$DIMTXT
 40
3.0
  9
$DIMCEN
 40
0.09
  9
$DIMTSZ
 40
0.0
  9
$DIMTOL
 70
     0
  9
$DIMLIM
 70
     0
  9
$DIMTIH
 70
     0
  9
$DIMTOH
 70
     0
  9
$DIMSE1
 70
     0
  9
$DIMSE2
 70
     0
  9
$DIMTAD
 70
     1
  9
$DIMZIN
 70
     8
  9
$DIMBLK
  1

  9
$DIMASO
 70
     0
  9
$DIMSHO
 70
     0
  9
$DIMPOST
  1

  9
$DIMAPOST
  1

  9
$DIMALT
 70
     0
  9
$DIMALTD
 70
     2
  9
$DIMALTF
 40
25.399999999999999
  9
$DIMLFAC
 40
1.0
  9
$DIMTOFL
 70
     0
  9
$DIMTVP
 40
1.6000000000000001
  9
$DIMTIX
 70
     1
  9
$DIMSOXD
 70
     0
  9
$DIMSAH
 70
     0
  9
$DIMBLK1
  1

  9
$DIMBLK2
  1

  9
$DIMSTYLE
  2
STANDARD
  9
$DIMCLRD
 70
     0
  9
$DIMCLRE
 70
     0
  9
$DIMCLRT
 70
     0
  9
$DIMTFAC
 40
1.0
  9
$DIMGAP
 40
0.09
  9
$LUNITS
 70
     2
  9
$LUPREC
 70
     4
  9
$SKETCHINC
 40
0.1
  9
$FILLETRAD
 40
0.0
  9
$AUNITS
 70
     0
  9
$AUPREC
 70
     0
  9
$MENU
  1
E:\r13\win\SUPPORT\ACAD
  9
$ELEVATION
 40
0.0
  9
$PELEVATION
 40
0.0
  9
$THICKNESS
 40
0.0
  9
$LIMCHECK
 70
     0
  9
$BLIPMODE
 70
     0
  9
$CHAMFERA
 40
0.0
  9
$CHAMFERB
 40
0.0
  9
$SKPOLY
 70
     0
  9
$TDCREATE
 40
2449840.5970717599
  9
$TDUPDATE
 40
2456776.7141196881
  9
$TDINDWG
 40
0.0328047338
  9
$TDUSRTIMER
 40
0.0328047338
  9
$USRTIMER
 70
     1
  9
$ANGBASE
 50
0.0
  9
$ANGDIR
 70
     0
  9
$PDMODE
 70
     0
  9
$PDSIZE
 40
0.0
  9
$PLINEWID
 40
0.0
  9
$COORDS
 70
     1
  9
$SPLFRAME
 70
     0
  9
$SPLINETYPE
 70
     6
  9
$SPLINESEGS
 70
     8
  9
$ATTDIA
 70
     0
  9
$ATTREQ
 70
     1
  9
$HANDLING
 70
     1
  9
$HANDSEED
  5
199A
  9
$SURFTAB1
 70
     6
  9
$SURFTAB2
 70
     6
  9
$SURFTYPE
 70
     6
  9
$SURFU
 70
     6
  9
$SURFV
 70
     6
  9
$UCSNAME
  2

  9
$UCSORG
 10
0.0
 20
0.0
 30
0.0
  9
$UCSXDIR
 10
1.0
 20
0.0
 30
0.0
  9
$UCSYDIR
 10
0.0
 20
1.0
 30
0.0
  9
$PUCSNAME
  2

  9
$PUCSORG
 10
0.0
 20
0.0
 30
0.0
  9
$PUCSXDIR
 10
1.0
 20
0.0
 30
0.0
  9
$PUCSYDIR
 10
0.0
 20
1.0
 30
0.0
  9
$USERI1
 70
     0
  9
$USERI2
 70
     1
  9
$USERI3
 70
     1
  9
$USERI4
 70
     0
  9
$USERI5
 70
     0
  9
$USERR1
 40
0.0
  9
$USERR2
 40
0.0
  9
$USERR3
 40
0.0
  9
$USERR4
 40
0.0
  9
$USERR5
 40
0.0
  9
$WORLDVIEW
 70
     1
  9
$SHADEDGE
 70
     3
  9
$SHADEDIF
 70
    70
  9
$TILEMODE
 70
     1
  9
$MAXACTVP
 70
    16
  9
$PLIMCHECK
 70
     0
  9
$PEXTMIN
 10
1.0000000000000000E+020
 20
1.0000000000000000E+020
 30
1.0000000000000000E+020
  9
$PEXTMAX
 10
-1.0000000000000000E+020
 20
-1.0000000000000000E+020
 30
-1.0000000000000000E+020
  9
$PLIMMIN
 10
0.0
 20
0.0
  9
$PLIMMAX
 10
12.0
 20
9.0
  9
$UNITMODE
 70
     0
  9
$VISRETAIN
 70
     0
  9
$PLINEGEN
 70
     0
  9
$PSLTSCALE
 70
     0
  0
ENDSEC
  0
SECTION
  2
TABLES
  0
TABLE
  2
VPORT
 70
     1
  0
VPORT
  2
*ACTIVE
 70
     0
 10
0.0
 20
0.0
 11
1.0
 21
1.0
 12
1670.6324129125651
 22
808.46736498355438
 13
0.0
 23
0.0
 14
100.0
 24
100.0
 15
100.0
 25
100.0
 16
0.0
 26
0.0
 36
1.0
 17
0.0
 27
0.0
 37
0.0
 40
1637.34443663142
 41
2.6019575856443709
 42
50.0
 43
0.0
 44
0.0
 50
0.0
 51
0.0
 71
     0
 72
   500
 73
     1
 74
     1
 75
     0
 76
     0
 77
     0
 78
     1
  0
ENDTAB
  0
TABLE
  2
LTYPE
 70
     4
  0
LTYPE
  2
CONTINUOUS
 70
     0
  3
実線
 72
    65
 73
     0
 40
0.0
  0
LTYPE
  2
CENTER
 70
     0
  3
____ _ ____ _ ____ _ ____ _ ____ _ ____ _ ____
 72
    65
 73
     4
 40
2.0
 49
1.25
 49
-0.25
 49
0.25
 49
-0.25
  0
LTYPE
  2
HIDDEN
 70
     0
  3
_ _ _ _ _ _ _ _ _ _ _ _ _ _ _ _ _ _ _ _ _ _ _
 72
    65
 73
     2
 40
0.375
 49
0.25
 49
-0.125
  0
LTYPE
  2
PHANTOM2
 70
     0
  3
___ _ _ ___ _ _ ___ _ _ ___ _ _
 72
    65
 73
     6
 40
1.25
 49
0.625
 49
-0.125
 49
0.125
 49
-0.125
 49
0.125
 49
-0.125
  0
ENDTAB
  0
TABLE
  2
LAYER
 70
     5
  0
LAYER
  2
0
 70
     0
 62
     7
  6
CONTINUOUS
  0
LAYER
  2
1
 70
     0
 62
     1
  6
CENTER
  0
LAYER
  2
2
 70
     0
 62
     2
  6
HIDDEN
  0
LAYER
  2
DEFPOINTS
 70
     0
 62
     7
  6
CONTINUOUS
  0
LAYER
  2
3
 70
     0
 62
     3
  6
CONTINUOUS
  0
ENDTAB
  0
TABLE
  2
STYLE
 70
     2
  0
STYLE
  2
STANDARD
 70
     0
 40
0.0
 41
1.0
 50
0.0
 71
     0
 42
0.2
  3
C:/r13/com/fonts/Romans
  4
C:/r13/com/fonts/Extfont
  0
STYLE
  2
STANDARD1
 70
     0
 40
0.0
 41
1.0
 50
0.0
 71
     0
 42
3.0
  3
txt
  4

  0
ENDTAB
  0
TABLE
  2
VIEW
 70
     1
  0
VIEW
  2
ALL
 70
     0
 40
1620.0
 10
1325.9495798319331
 20
810.0
 41
0.0
 11
0.0
 21
0.0
 31
1.0
 12
0.0
 22
0.0
 32
0.0
 42
0.0
 43
0.0
 44
0.0
 50
0.0
 71
     0
  0
ENDTAB
  0
TABLE
  2
UCS
 70
     0
  0
ENDTAB
  0
TABLE
  2
APPID
 70
     3
  0
APPID
  2
ACAD
 70
     0
  0
APPID
  2
ACAD_MLEADERVER
 70
     0
  0
APPID
  2
ACAD_NAV_VCDISPLAY
 70
     0
  0
ENDTAB
  0
TABLE
  2
DIMSTYLE
 70
     1
  0
DIMSTYLE
  2
STANDARD
 70
     0
  3

  4

  5

  6

  7

 40
1.0
 41
0.18
 42
0.0625
 43
0.38
 44
0.18
 45
0.0
 46
0.0
 47
0.0
 48
0.0
140
0.18
141
0.09
142
0.0
143
25.399999999999999
144
1.0
145
0.0
146
1.0
147
0.09
 71
     0
 72
     0
 73
     1
 74
     1
 75
     0
 76
     0
 77
     0
 78
     0
170
     0
171
     2
172
     0
173
     0
174
     0
175
     0
176
     0
177
     0
178
     0
  0
ENDTAB
  0
ENDSEC
  0
SECTION
  2
BLOCKS
  0
BLOCK
  8
0
  2
$MODEL_SPACE
 70
     0
 10
0.0
 20
0.0
 30
0.0
  3
$MODEL_SPACE
  1

  0
ENDBLK
  5
30F
  8
0
  0
BLOCK
 67
     1
  8
0
  2
$PAPER_SPACE
 70
     0
 10
0.0
 20
0.0
 30
0.0
  3
$PAPER_SPACE
  1

  0
ENDBLK
  5
30D
 67
     1
  8
0
  0
ENDSEC
  0
SECTION
  2
ENTITIES
  0
LINE
  5
71A
  8
2
 10
870.82832217971577
 20
624.51190954202093
 30
0.0
 11
871.60963178271652
 21
625.86517747085986
 31
0.0
  0
LINE
  5
71C
  8
2
 10
870.82832217971577
 20
557.51190954202093
 30
0.0
 11
871.60963178271652
 21
556.15864161318223
 31
0.0
  0
LINE
  5
728
  8
0
 10
901.09627137215568
 20
554.5119095420373
 30
0.0
 11
898.81790098803879
 21
554.5119095420373
 31
0.0
  0
ARC
  5
72B
  8
2
 10
886.82832217971577
 20
582.01190954202025
 30
0.0
 40
30.0
 50
239.5165352795415
 51
289.91906411327682
  0
ARC
  5
72C
  8
0
 10
909.39997195710225
 20
640.09333449582107
 30
0.0
 40
16.0
 50
193.18296515854101
 51
231.84469506657149
  0
ARC
  5
72D
  8
2
 10
886.82832217971577
 20
600.01190954202184
 30
0.0
 40
30.0
 50
66.443535690813974
 51
120.4834647204585
  0
LINE
  5
737
  8
0
 10
877.82832217971031
 20
704.72344800357723
 30
0.0
 11
893.82162392879957
 21
636.44435207477716
 31
0.0
  0
LINE
  5
752
  8
0
 10
921.82832217971566
 20
624.51190954201911
 30
0.0
 11
902.82832217971577
 21
624.51190954201911
 31
0.0
  0
LINE
  5
753
  8
0
 10
902.82832217971577
 20
624.51190954201911
 30
0.0
 11
901.09362007551249
 21
627.51650172249583
 31
0.0
  0
LINE
  5
754
  8
0
 10
901.09627137215568
 20
627.51190954200445
 30
0.0
 11
899.51524909141256
 21
627.51190954200467
 31
0.0
  0
ARC
  5
7D0
  8
0
 10
921.82832217971566
 20
558.51190954202275
 30
0.0
 40
1.0
 50
270.0
 51
0.0
  0
ARC
  5
7D1
  8
0
 10
921.82832217971566
 20
623.51190954201934
 30
0.0
 40
1.0
 50
0.0
 51
90.0
  0
LINE
  5
7D9
  8
0
 10
877.82832217971031
 20
775.01190954201945
 30
0.0
 11
877.82832217971031
 21
407.01190954202218
 31
0.0
  0
LINE
  5
7DB
  8
0
 10
901.09627137215534
 20
554.5119095420373
 30
0.0
 11
901.09627137215568
 21
627.51190954200467
 31
0.0
  0
LINE
  5
7DC
  8
0
 10
902.82832217971577
 20
557.51190954202275
 30
0.0
 11
901.09362007551249
 21
554.50731736154603
 31
0.0
  0
LINE
  5
7DD
  8
0
 10
902.82832217971577
 20
557.51190954202275
 30
0.0
 11
902.82832217971622
 21
624.51190954201866
 31
0.0
  0
LINE
  5
7DE
  8
2
 10
870.82832217971577
 20
557.51190954202093
 30
0.0
 11
870.82832217971577
 21
624.51190954202093
 31
0.0
  0
LINE
  5
7DF
  8
0
 10
921.82832217971566
 20
557.51190954202275
 30
0.0
 11
902.82832217971577
 21
557.51190954202275
 31
0.0
  0
LINE
  5
7E6
  8
0
 10
845.82832217971395
 20
407.01190954202218
 30
0.0
 11
845.82832217971747
 21
775.01190954201968
 31
0.0
  0
ARC
  5
7E7
  8
0
 10
861.82832217971395
 20
775.01190954201945
 30
0.0
 40
16.000000000001219
 50
0.0
 51
180.0
  0
ARC
  5
7E8
  8
0
 10
861.82832217971395
 20
407.01190954202218
 30
0.0
 40
16.000000000001219
 50
180.0
 51
0.0
  0
LINE
  5
7EA
  8
0
 10
922.82832217971566
 20
558.51190954202275
 30
0.0
 11
922.82832217971566
 21
623.51190954201934
 31
0.0
  0
LINE
  5
7EB
  8
1
 10
861.82832217971395
 20
361.01190954202059
 30
0.0
 11
861.8283221797135
 21
821.01190954201797
 31
0.0
  0
LINE
  5
7ED
  8
1
 10
825.82832217971566
 20
591.01190954202093
 30
0.0
 11
942.82832217971259
 21
591.01190954202093
 31
0.0
  0
LINE
  5
CE1
  8
1
 10
505.82832217971571
 20
271.01190954202087
 30
0.0
 11
505.82832217971571
 21
154.01190954202411
 31
0.0
  0
LINE
  5
CE2
  8
1
 10
275.82832217971583
 20
235.01190954202269
 30
0.0
 11
735.8283221797135
 21
235.0119095420232
 31
0.0
  0
LINE
  5
CE3
  8
0
 10
473.32832217971759
 20
174.0119095420209
 30
0.0
 11
538.32832217971395
 21
174.0119095420209
 31
0.0
  0
ARC
  5
CE5
  8
0
 10
321.82832217971708
 20
235.01190954202289
 30
0.0
 40
16.000000000001219
 50
89.999999999999986
 51
270.0
  0
ARC
  5
CE6
  8
0
 10
689.82832217971441
 20
235.01190954202281
 30
0.0
 40
16.000000000001219
 50
270.0
 51
89.999999999999986
  0
LINE
  5
CE7
  8
0
 10
321.82832217971708
 20
251.01190954202281
 30
0.0
 11
689.82832217971475
 21
251.01190954201911
 31
0.0
  0
LINE
  5
CE8
  8
0
 10
472.32832217971747
 20
175.0119095420209
 30
0.0
 11
472.32832217971747
 21
194.0119095420209
 31
0.0
  0
LINE
  5
CE9
  8
2
 10
472.32832217971571
 20
226.0119095420209
 30
0.0
 11
539.32832217971566
 21
226.0119095420209
 31
0.0
  0
LINE
  5
CEA
  8
0
 10
472.32832217971747
 20
194.0119095420209
 30
0.0
 11
539.32832217971338
 21
194.0119095420205
 31
0.0
  0
LINE
  5
CEB
  8
0
 10
472.32832217971747
 20
194.0119095420209
 30
0.0
 11
469.32372999924081
 21
195.74661164622421
 31
0.0
  0
LINE
  5
CEC
  8
0
 10
469.32832217973208
 20
195.7439603495813
 30
0.0
 11
542.32832217969928
 21
195.7439603495809
 31
0.0
  0
LINE
  5
CED
  8
0
 10
689.82832217971441
 20
219.01190954202639
 30
0.0
 11
321.82832217971708
 21
219.01190954202639
 31
0.0
  0
ARC
  5
CEE
  8
0
 10
538.32832217971395
 20
175.0119095420209
 30
0.0
 40
1.0
 50
270.0
 51
0.0
  0
ARC
  5
CEF
  8
0
 10
473.32832217971759
 20
175.0119095420209
 30
0.0
 40
1.0
 50
180.0
 51
270.0
  0
LINE
  5
CF0
  8
0
 10
542.32832217969928
 20
195.7439603495809
 30
0.0
 11
542.32832217969928
 21
197.32498263032369
 31
0.0
  0
LINE
  5
CF1
  8
0
 10
539.32832217971395
 20
194.0119095420209
 30
0.0
 11
542.33291436019067
 21
195.74661164622421
 31
0.0
  0
LINE
  5
CF2
  8
0
 10
539.32832217971395
 20
175.0119095420209
 30
0.0
 11
539.32832217971395
 21
194.0119095420209
 31
0.0
  0
LINE
  5
CF4
  8
0
 10
619.53986064127196
 20
219.01190954202639
 30
0.0
 11
551.260764712472
 21
203.01860779293699
 31
0.0
  0
ARC
  5
CF5
  8
2
 10
514.82832217971657
 20
210.0119095420209
 30
0.0
 40
30.0
 50
336.44353569081392
 51
30.483464720458489
  0
ARC
  5
CF6
  8
0
 10
554.90974713351591
 20
187.44025976463439
 30
0.0
 40
16.0
 50
103.18296515854099
 51
141.8446950665714
  0
ARC
  5
CF7
  8
2
 10
496.82832217971492
 20
210.0119095420209
 30
0.0
 40
30.0
 50
149.5165352795415
 51
203.556464309186
  0
ARC
  5
CF8
  8
0
 10
456.74689722591552
 20
187.44025976463439
 30
0.0
 40
16.0
 50
38.155304933428539
 51
76.817034841458906
  0
LINE
  5
CF9
  8
0
 10
469.32832217973208
 20
195.7439603495809
 30
0.0
 11
469.32832217973208
 21
197.32498263032369
 31
0.0
  0
LINE
  5
CFA
  8
0
 10
392.11678371816129
 20
219.01190954202639
 30
0.0
 11
460.39587964695988
 21
203.01860779293699
 31
0.0
  0
LINE
  5
CFB
  8
2
 10
472.32832217971571
 20
226.0119095420209
 30
0.0
 11
470.97505425087701
 21
225.2305999390201
 31
0.0
  0
LINE
  5
CFC
  8
2
 10
539.32832217971566
 20
226.0119095420209
 30
0.0
 11
540.68159010855493
 21
225.2305999390201
 31
0.0
  0
LINE
  5
CFD
  8
1
 10
505.82832217971571
 20
911.01190954202093
 30
0.0
 11
505.82832217971571
 21
1028.0119095420171
 31
0.0
  0
LINE
  5
CFE
  8
1
 10
735.8283221797135
 20
947.01190954201911
 30
0.0
 11
275.82832217971583
 21
947.01190954201854
 31
0.0
  0
LINE
  5
CFF
  8
0
 10
538.32832217971395
 20
1008.011909542021
 30
0.0
 11
473.32832217971759
 21
1008.011909542021
 31
0.0
  0
ARC
  5
D01
  8
0
 10
689.82832217971441
 20
947.01190954201911
 30
0.0
 40
16.000000000001219
 50
270.0
 51
90.0
  0
ARC
  5
D02
  8
0
 10
321.82832217971708
 20
947.01190954201911
 30
0.0
 40
16.000000000001219
 50
90.0
 51
270.0
  0
LINE
  5
D03
  8
0
 10
689.82832217971475
 20
931.01190954201911
 30
0.0
 11
321.82832217971668
 21
931.01190954202275
 31
0.0
  0
LINE
  5
D04
  8
0
 10
539.32832217971395
 20
1007.011909542021
 30
0.0
 11
539.32832217971395
 21
988.01190954202093
 31
0.0
  0
LINE
  5
D05
  8
2
 10
539.32832217971566
 20
956.01190954202082
 30
0.0
 11
472.32832217971571
 21
956.01190954202082
 31
0.0
  0
LINE
  5
D06
  8
0
 10
539.32832217971395
 20
988.01190954202093
 30
0.0
 11
472.3283221797185
 21
988.01190954202139
 31
0.0
  0
LINE
  5
D07
  8
0
 10
539.32832217971395
 20
988.01190954202093
 30
0.0
 11
542.33291436019067
 21
986.27720743781765
 31
0.0
  0
LINE
  5
D08
  8
0
 10
542.32832217969928
 20
986.27985873446039
 30
0.0
 11
469.32832217973208
 21
986.27985873446096
 31
0.0
  0
LINE
  5
D09
  8
0
 10
321.82832217971708
 20
963.01190954201536
 30
0.0
 11
689.82832217971475
 21
963.01190954201536
 31
0.0
  0
ARC
  5
D0A
  8
0
 10
473.32832217971759
 20
1007.011909542021
 30
0.0
 40
1.0
 50
90.0
 51
180.0
  0
ARC
  5
D0B
  8
0
 10
538.32832217971395
 20
1007.011909542021
 30
0.0
 40
1.0
 50
0.0
 51
90.0
  0
LINE
  5
D0C
  8
0
 10
469.32832217973208
 20
986.27985873446096
 30
0.0
 11
469.32832217973208
 21
984.69883645371817
 31
0.0
  0
LINE
  5
D0D
  8
0
 10
472.32832217971747
 20
988.01190954202093
 30
0.0
 11
469.32372999924081
 21
986.27720743781765
 31
0.0
  0
LINE
  5
D0E
  8
0
 10
472.32832217971747
 20
1007.011909542021
 30
0.0
 11
472.32832217971747
 21
988.01190954202093
 31
0.0
  0
LINE
  5
D10
  8
0
 10
392.11678371815952
 20
963.01190954201536
 30
0.0
 11
460.39587964695988
 21
979.00521129110484
 31
0.0
  0
ARC
  5
D11
  8
2
 10
496.82832217971492
 20
972.01190954202093
 30
0.0
 40
30.0
 50
156.44353569081389
 51
210.4834647204585
  0
ARC
  5
D12
  8
0
 10
456.74689722591552
 20
994.58355931940741
 30
0.0
 40
16.0
 50
283.18296515854109
 51
321.84469506657138
  0
ARC
  5
D13
  8
2
 10
514.82832217971657
 20
972.01190954202093
 30
0.0
 40
30.0
 50
329.51653527954147
 51
23.556464309186019
  0
ARC
  5
D14
  8
0
 10
554.90974713351591
 20
994.58355931940741
 30
0.0
 40
16.0
 50
218.1553049334286
 51
256.81703484145891
  0
LINE
  5
D15
  8
0
 10
542.32832217969928
 20
986.27985873446096
 30
0.0
 11
542.32832217969928
 21
984.69883645371817
 31
0.0
  0
LINE
  5
D16
  8
0
 10
619.53986064127025
 20
963.01190954201536
 30
0.0
 11
551.260764712472
 21
979.00521129110484
 31
0.0
  0
LINE
  5
D17
  8
2
 10
539.32832217971566
 20
956.01190954202082
 30
0.0
 11
540.68159010855493
 21
956.79321914502179
 31
0.0
  0
LINE
  5
D18
  8
2
 10
472.32832217971571
 20
956.01190954202082
 30
0.0
 11
470.97505425087701
 21
956.79321914502179
 31
0.0
  0
POLYLINE
  5
D29
  8
0
 66
     1
 10
0.0
 20
0.0
 30
0.0
 70
   128
  0
VERTEX
  5
1869
  8
0
 10
896.97559086664137
 20
627.88706135446319
 30
0.0
  0
VERTEX
  5
186A
  8
0
 10
896.71827060857424
 20
627.31608929105369
 30
0.0
  0
VERTEX
  5
186B
  8
0
 10
895.92017903674093
 20
626.75063340680845
 30
0.0
  0
VERTEX
  5
186C
  8
0
 10
894.74488820923466
 20
626.31445533625083
 30
0.0
  0
VERTEX
  5
186D
  8
0
 10
893.24120999817228
 20
626.01881817650974
 30
0.0
  0
VERTEX
  5
186E
  8
0
 10
891.28666814270787
 20
625.89766097208894
 30
0.0
  0
SEQEND
  5
186F
  8
0
  0
LINE
  5
D2A
  8
0
 10
886.91803069875209
 20
625.89766097170468
 30
0.0
 11
891.28666810884056
 21
625.89766097170468
 31
0.0
  0
POLYLINE
  5
D2B
  8
0
 66
     1
 10
0.0
 20
0.0
 30
0.0
 70
   128
  0
VERTEX
  5
1870
  8
0
 10
892.71515606540629
 20
618.58289064047119
 30
0.0
  0
VERTEX
  5
1871
  8
0
 10
883.95442695914994
 20
629.63711446578816
 30
0.0
  0
VERTEX
  5
1872
  8
0
 10
877.82832217971577
 20
637.25295873516416
 30
0.0
  0
SEQEND
  5
1873
  8
0
  0
POLYLINE
  5
D2C
  8
0
 66
     1
 10
0.0
 20
0.0
 30
0.0
 70
   128
  0
VERTEX
  5
1874
  8
0
 10
896.97559106594815
 20
614.48287386962602
 30
0.0
  0
VERTEX
  5
1875
  8
0
 10
896.71827057583982
 20
615.78120599894373
 30
0.0
  0
VERTEX
  5
1876
  8
0
 10
895.92017879187404
 20
616.90395366424855
 30
0.0
  0
VERTEX
  5
1877
  8
0
 10
894.74488741750645
 20
617.68474800833428
 30
0.0
  0
VERTEX
  5
1878
  8
0
 10
894.29906404816086
 20
617.83124689278338
 30
0.0
  0
SEQEND
  5
1879
  8
0
  0
POLYLINE
  5
D2D
  8
0
 66
     1
 10
0.0
 20
0.0
 30
0.0
 70
   128
  0
VERTEX
  5
187A
  8
0
 10
894.31337419668785
 20
617.87362805398561
 30
0.0
  0
VERTEX
  5
187B
  8
0
 10
893.79718186822595
 20
618.08087965482991
 30
0.0
  0
VERTEX
  5
187C
  8
0
 10
893.16385683417479
 20
618.37632300495704
 30
0.0
  0
VERTEX
  5
187D
  8
0
 10
892.78640328889117
 20
618.57226403153163
 30
0.0
  0
SEQEND
  5
187E
  8
0
  0
POLYLINE
  5
D2E
  8
0
 66
     1
 10
0.0
 20
0.0
 30
0.0
 70
   128
  0
VERTEX
  5
187F
  8
0
 10
891.28666815415011
 20
585.21038949275635
 30
0.0
  0
VERTEX
  5
1880
  8
0
 10
893.45060329707235
 20
585.54541997736885
 30
0.0
  0
VERTEX
  5
1881
  8
0
 10
895.07296093073978
 20
586.3865002317433
 30
0.0
  0
VERTEX
  5
1882
  8
0
 10
896.29804285238345
 20
587.75307478511149
 30
0.0
  0
VERTEX
  5
1883
  8
0
 10
896.87037009598509
 20
589.25529191591795
 30
0.0
  0
VERTEX
  5
1884
  8
0
 10
896.95806522347868
 20
590.15186463252371
 30
0.0
  0
SEQEND
  5
1885
  8
0
  0
LINE
  5
D2F
  8
0
 10
882.51347582454321
 20
585.2103894917044
 30
0.0
 11
891.28666810855725
 21
585.2103894917044
 31
0.0
  0
POLYLINE
  5
D30
  8
0
 66
     1
 10
0.0
 20
0.0
 30
0.0
 70
   128
  0
VERTEX
  5
1886
  8
0
 10
882.5134759622498
 20
585.21038949204456
 30
0.0
  0
VERTEX
  5
1887
  8
0
 10
880.61363450308841
 20
585.5118947341424
 30
0.0
  0
VERTEX
  5
1888
  8
0
 10
878.92350748407875
 20
586.4383918689382
 30
0.0
  0
VERTEX
  5
1889
  8
0
 10
877.82832217971577
 20
587.72747728263937
 30
0.0
  0
SEQEND
  5
188A
  8
0
  0
POLYLINE
  5
D31
  8
0
 66
     1
 10
0.0
 20
0.0
 30
0.0
 70
   128
  0
VERTEX
  5
188B
  8
0
 10
893.82162402865481
 20
593.52772511303829
 30
0.0
  0
VERTEX
  5
188C
  8
0
 10
890.5711010231513
 20
598.3176588049846
 30
0.0
  0
VERTEX
  5
188D
  8
0
 10
887.30093918485102
 20
603.04398921643133
 30
0.0
  0
VERTEX
  5
188E
  8
0
 10
883.98513671801925
 20
607.78913062379615
 30
0.0
  0
VERTEX
  5
188F
  8
0
 10
880.65194707515207
 20
612.53188868217603
 30
0.0
  0
VERTEX
  5
1890
  8
0
 10
878.02201646659182
 20
616.26164853657792
 30
0.0
  0
VERTEX
  5
1891
  8
0
 10
877.82832217971577
 20
616.53578353695946
 30
0.0
  0
SEQEND
  5
1892
  8
0
  0
POLYLINE
  5
D32
  8
0
 66
     1
 10
0.0
 20
0.0
 30
0.0
 70
   128
  0
VERTEX
  5
1893
  8
0
 10
896.95806522347868
 20
590.15186463252371
 30
0.0
  0
VERTEX
  5
1894
  8
0
 10
894.70824285993615
 20
592.25307053278129
 30
0.0
  0
VERTEX
  5
1895
  8
0
 10
893.82162392914381
 20
593.52772526271065
 30
0.0
  0
SEQEND
  5
1896
  8
0
  0
POLYLINE
  5
D33
  8
0
 66
     1
 10
0.0
 20
0.0
 30
0.0
 70
   128
  0
VERTEX
  5
1897
  8
0
 10
891.28666814342944
 20
573.03686608362295
 30
0.0
  0
VERTEX
  5
1898
  8
0
 10
893.45060365655195
 20
572.73707055818966
 30
0.0
  0
VERTEX
  5
1899
  8
0
 10
895.07296085466726
 20
571.99211270009891
 30
0.0
  0
VERTEX
  5
189A
  8
0
 10
896.29804250756126
 20
570.80490749442833
 30
0.0
  0
VERTEX
  5
189B
  8
0
 10
896.87037005653485
 20
569.53268374983554
 30
0.0
  0
VERTEX
  5
189C
  8
0
 10
896.97559106624988
 20
568.64261137357971
 30
0.0
  0
SEQEND
  5
189D
  8
0
  0
LINE
  5
D34
  8
0
 10
882.51347580982895
 20
573.03686608769829
 30
0.0
 11
891.28666812676852
 21
573.03686608769829
 31
0.0
  0
POLYLINE
  5
D35
  8
0
 66
     1
 10
0.0
 20
0.0
 30
0.0
 70
   128
  0
VERTEX
  5
189E
  8
0
 10
877.82832217971577
 20
570.69426983393714
 30
0.0
  0
VERTEX
  5
189F
  8
0
 10
878.27128067849321
 20
571.38299196696687
 30
0.0
  0
VERTEX
  5
18A0
  8
0
 10
879.61729029162336
 20
572.36991906634739
 30
0.0
  0
VERTEX
  5
18A1
  8
0
 10
881.20437595950557
 20
572.91200966956058
 30
0.0
  0
VERTEX
  5
18A2
  8
0
 10
882.51347643611484
 20
573.03686608344185
 30
0.0
  0
SEQEND
  5
18A3
  8
0
  0
POLYLINE
  5
D36
  8
0
 66
     1
 10
0.0
 20
0.0
 30
0.0
 70
   128
  0
VERTEX
  5
18A4
  8
0
 10
893.82162392932719
 20
562.31302672061429
 30
0.0
  0
VERTEX
  5
18A5
  8
0
 10
895.04083395394525
 20
565.59999248198437
 30
0.0
  0
VERTEX
  5
18A6
  8
0
 10
896.97560516573753
 20
568.64261269477993
 30
0.0
  0
SEQEND
  5
18A7
  8
0
  0
POLYLINE
  5
D37
  8
0
 66
     1
 10
0.0
 20
0.0
 30
0.0
 70
   128
  0
VERTEX
  5
18A8
  8
0
 10
877.82832217971577
 20
505.23203241092779
 30
0.0
  0
VERTEX
  5
18A9
  8
0
 10
879.05644918907024
 20
509.56584638553011
 30
0.0
  0
VERTEX
  5
18AA
  8
0
 10
882.03382288240732
 20
520.09211051811099
 30
0.0
  0
VERTEX
  5
18AB
  8
0
 10
885.00468059068385
 20
530.62431945094022
 30
0.0
  0
VERTEX
  5
18AC
  8
0
 10
887.96542392542199
 20
541.16597580786083
 30
0.0
  0
VERTEX
  5
18AD
  8
0
 10
890.90924825062825
 20
551.72386871986134
 30
0.0
  0
VERTEX
  5
18AE
  8
0
 10
893.82162392887062
 20
562.31302672068205
 30
0.0
  0
SEQEND
  5
18AF
  8
0
  0
POLYLINE
  5
D3C
  8
0
 66
     1
 10
0.0
 20
0.0
 30
0.0
 70
   128
  0
VERTEX
  5
18B0
  8
0
 10
897.04909402633689
 20
553.80666494355455
 30
0.0
  0
VERTEX
  5
18B1
  8
0
 10
895.04083395394457
 20
551.32785864716425
 30
0.0
  0
VERTEX
  5
18B2
  8
0
 10
893.82162392920668
 20
548.64681697159722
 30
0.0
  0
SEQEND
  5
18B3
  8
0
  0
POLYLINE
  5
D3D
  8
0
 66
     1
 10
0.0
 20
0.0
 30
0.0
 70
   128
  0
VERTEX
  5
18B4
  8
0
 10
893.82162402871802
 20
548.64681732407644
 30
0.0
  0
VERTEX
  5
18B5
  8
0
 10
890.57110102293905
 20
537.29223060988988
 30
0.0
  0
VERTEX
  5
18B6
  8
0
 10
887.30093918391606
 20
525.99138851845964
 30
0.0
  0
VERTEX
  5
18B7
  8
0
 10
883.98513671821172
 20
514.59399657150686
 30
0.0
  0
VERTEX
  5
18B8
  8
0
 10
880.65194707683281
 20
503.17171014203899
 30
0.0
  0
VERTEX
  5
18B9
  8
0
 10
878.02201647272727
 20
494.1750080764823
 30
0.0
  0
VERTEX
  5
18BA
  8
0
 10
877.82832217971577
 20
493.5130995542404
 30
0.0
  0
SEQEND
  5
18BB
  8
0
  0
LINE
  5
D3E
  8
2
 10
898.81790098803845
 20
627.51190954200399
 30
0.0
 11
899.51524909141256
 21
627.51190954200467
 31
0.0
  0
ARC
  5
D3F
  8
0
 10
886.82832217971577
 20
582.01190954202025
 30
0.0
 40
30.0
 50
289.91906411327682
 51
293.55646430918603
  0
POLYLINE
  5
D40
  8
0
 66
     1
 10
0.0
 20
0.0
 30
0.0
 70
   128
  0
VERTEX
  5
18BC
  8
0
 10
478.03775769552271
 20
976.47025551645538
 30
0.0
  0
VERTEX
  5
18BD
  8
0
 10
477.8012605902079
 20
978.63419066809445
 30
0.0
  0
VERTEX
  5
18BE
  8
0
 10
477.21809576334113
 20
980.25654829788118
 30
0.0
  0
VERTEX
  5
18BF
  8
0
 10
476.30249819415099
 20
981.48163021615994
 30
0.0
  0
VERTEX
  5
18C0
  8
0
 10
475.34119457148171
 20
982.05395746076226
 30
0.0
  0
VERTEX
  5
18C1
  8
0
 10
474.68167173764982
 20
982.15917822857455
 30
0.0
  0
SEQEND
  5
18C2
  8
0
  0
LINE
  5
D41
  8
0
 10
478.03775769571553
 20
967.69706318684848
 30
0.0
 11
478.03775769571553
 21
976.4702554708623
 31
0.0
  0
POLYLINE
  5
D42
  8
0
 66
     1
 10
0.0
 20
0.0
 30
0.0
 70
   128
  0
VERTEX
  5
18C3
  8
0
 10
476.22170056537669
 20
963.01190954202093
 30
0.0
  0
VERTEX
  5
18C4
  8
0
 10
476.74544406010972
 20
963.45396060326618
 30
0.0
  0
VERTEX
  5
18C5
  8
0
 10
477.5125761133296
 20
964.7997296192666
 30
0.0
  0
VERTEX
  5
18C6
  8
0
 10
477.93892854634049
 20
966.38660611519879
 30
0.0
  0
VERTEX
  5
18C7
  8
0
 10
478.0377576956509
 20
967.6970633529595
 30
0.0
  0
SEQEND
  5
18C8
  8
0
  0
POLYLINE
  5
D43
  8
0
 66
     1
 10
0.0
 20
0.0
 30
0.0
 70
   128
  0
VERTEX
  5
18C9
  8
0
 10
474.68167222754181
 20
982.15919251012247
 30
0.0
  0
VERTEX
  5
18CA
  8
0
 10
471.31752459283439
 20
980.22442131617788
 30
0.0
  0
VERTEX
  5
18CB
  8
0
 10
467.6503412626036
 20
979.00521129159142
 30
0.0
  0
SEQEND
  5
18CC
  8
0
  0
POLYLINE
  5
D44
  8
0
 66
     1
 10
0.0
 20
0.0
 30
0.0
 70
   128
  0
VERTEX
  5
18CD
  8
0
 10
467.65034168975961
 20
979.00521139110231
 30
0.0
  0
VERTEX
  5
18CE
  8
0
 10
453.91699235558661
 20
975.75468838524455
 30
0.0
  0
VERTEX
  5
18CF
  8
0
 10
440.28346510245791
 20
972.48452654440416
 30
0.0
  0
VERTEX
  5
18D0
  8
0
 10
426.55180608299662
 20
969.16872408521704
 30
0.0
  0
VERTEX
  5
18D1
  8
0
 10
412.80099788900242
 20
965.83553443521225
 30
0.0
  0
VERTEX
  5
18D2
  8
0
 10
401.9752227944947
 20
963.20560383584746
 30
0.0
  0
VERTEX
  5
18D3
  8
0
 10
401.17897660454781
 20
963.01190954202093
 30
0.0
  0
SEQEND
  5
18D4
  8
0
  0
POLYLINE
  5
D45
  8
0
 66
     1
 10
0.0
 20
0.0
 30
0.0
 70
   128
  0
VERTEX
  5
18D5
  8
0
 10
610.47595714560896
 20
963.01190954202093
 30
0.0
  0
VERTEX
  5
18D6
  8
0
 10
605.42532990361383
 20
964.24003653254385
 30
0.0
  0
VERTEX
  5
18D7
  8
0
 10
593.15970310444231
 20
967.21741022959759
 30
0.0
  0
VERTEX
  5
18D8
  8
0
 10
580.88955599984286
 20
970.18826794154529
 30
0.0
  0
VERTEX
  5
18D9
  8
0
 10
568.61211904119784
 20
973.14901128029214
 30
0.0
  0
VERTEX
  5
18DA
  8
0
 10
556.32188897739093
 20
976.09283560928043
 30
0.0
  0
VERTEX
  5
18DB
  8
0
 10
544.00630309673784
 20
979.00521129113395
 30
0.0
  0
SEQEND
  5
18DC
  8
0
  0
POLYLINE
  5
D46
  8
0
 66
     1
 10
0.0
 20
0.0
 30
0.0
 70
   128
  0
VERTEX
  5
18DD
  8
0
 10
544.00630309682776
 20
979.00521129159142
 30
0.0
  0
VERTEX
  5
18DE
  8
0
 10
540.33911976759214
 20
980.22442131613877
 30
0.0
  0
VERTEX
  5
18DF
  8
0
 10
536.97497214839882
 20
982.15919252822675
 30
0.0
  0
SEQEND
  5
18E0
  8
0
  0
POLYLINE
  5
D47
  8
0
 66
     1
 10
0.0
 20
0.0
 30
0.0
 70
   128
  0
VERTEX
  5
18E1
  8
0
 10
536.97497264199785
 20
982.15917842825309
 30
0.0
  0
VERTEX
  5
18E2
  8
0
 10
535.95276332969684
 20
981.90185793814487
 30
0.0
  0
VERTEX
  5
18E3
  8
0
 10
534.99340494684316
 20
981.10376615417897
 30
0.0
  0
VERTEX
  5
18E4
  8
0
 10
534.28108460869885
 20
979.92847477981149
 30
0.0
  0
VERTEX
  5
18E5
  8
0
 10
533.8096864136453
 20
978.42479666458757
 30
0.0
  0
VERTEX
  5
18E6
  8
0
 10
533.61888666403877
 20
976.47025551224431
 30
0.0
  0
SEQEND
  5
18E7
  8
0
  0
LINE
  5
D48
  8
0
 10
533.6188866637151
 20
967.69706318684848
 30
0.0
 11
533.6188866637151
 21
976.4702554708623
 31
0.0
  0
POLYLINE
  5
D49
  8
0
 66
     1
 10
0.0
 20
0.0
 30
0.0
 70
   128
  0
VERTEX
  5
18E8
  8
0
 10
533.61888666413529
 20
967.69706379900515
 30
0.0
  0
VERTEX
  5
18E9
  8
0
 10
533.83182416477405
 20
965.79722479829377
 30
0.0
  0
VERTEX
  5
18EA
  8
0
 10
534.47403240469453
 20
964.10709894478077
 30
0.0
  0
VERTEX
  5
18EB
  8
0
 10
535.33648813342018
 20
963.01190954202093
 30
0.0
  0
SEQEND
  5
18EC
  8
0
  0
POLYLINE
  5
D4A
  8
0
 66
     1
 10
0.0
 20
0.0
 30
0.0
 70
   128
  0
VERTEX
  5
18ED
  8
0
 10
488.3931752232931
 20
976.47025550220542
 30
0.0
  0
VERTEX
  5
18EE
  8
0
 10
488.6966933876339
 20
978.63419101188322
 30
0.0
  0
VERTEX
  5
18EF
  8
0
 10
489.46269311165469
 20
980.256548207018
 30
0.0
  0
VERTEX
  5
18F0
  8
0
 10
490.7194702521731
 20
981.48162986103898
 30
0.0
  0
VERTEX
  5
18F1
  8
0
 10
492.11824695765262
 20
982.0539574163198
 30
0.0
  0
VERTEX
  5
18F2
  8
0
 10
493.13095315027039
 20
982.15917842871568
 30
0.0
  0
SEQEND
  5
18F3
  8
0
  0
POLYLINE
  5
D4B
  8
0
 66
     1
 10
0.0
 20
0.0
 30
0.0
 70
   128
  0
VERTEX
  5
18F4
  8
0
 10
488.55455788103171
 20
973.16333078102105
 30
0.0
  0
VERTEX
  5
18F5
  8
0
 10
488.67887027917931
 20
971.79765843614257
 30
0.0
  0
VERTEX
  5
18F6
  8
0
 10
488.81939943094062
 20
970.24166617114952
 30
0.0
  0
VERTEX
  5
18F7
  8
0
 10
488.94528835081132
 20
968.83999142287973
 30
0.0
  0
VERTEX
  5
18F8
  8
0
 10
489.0839900623489
 20
967.28954875291345
 30
0.0
  0
VERTEX
  5
18F9
  8
0
 10
489.20111977026698
 20
965.97643481765988
 30
0.0
  0
VERTEX
  5
18FA
  8
0
 10
489.32616887452082
 20
964.57158904549487
 30
0.0
  0
VERTEX
  5
18FB
  8
0
 10
489.46113878786241
 20
963.05260063364813
 30
0.0
  0
VERTEX
  5
18FC
  8
0
 10
489.46474888495521
 20
963.01190954202093
 30
0.0
  0
SEQEND
  5
18FD
  8
0
  0
POLYLINE
  5
D4C
  8
0
 66
     1
 10
0.0
 20
0.0
 30
0.0
 70
   128
  0
VERTEX
  5
18FE
  8
0
 10
488.39317522183251
 20
976.47025553983201
 30
0.0
  0
VERTEX
  5
18FF
  8
0
 10
488.47044651139572
 20
974.47640264234315
 30
0.0
  0
VERTEX
  5
1900
  8
0
 10
488.55455787836507
 20
973.16333081017819
 30
0.0
  0
SEQEND
  5
1901
  8
0
  0
POLYLINE
  5
D4D
  8
0
 66
     1
 10
0.0
 20
0.0
 30
0.0
 70
   128
  0
VERTEX
  5
1902
  8
0
 10
518.52569124366175
 20
982.15917822894642
 30
0.0
  0
VERTEX
  5
1903
  8
0
 10
520.07635836195755
 20
981.90185797087941
 30
0.0
  0
VERTEX
  5
1904
  8
0
 10
521.44061281181553
 20
981.10376639904587
 30
0.0
  0
VERTEX
  5
1905
  8
0
 10
522.40331125010027
 20
979.92847557153971
 30
0.0
  0
VERTEX
  5
1906
  8
0
 10
523.01891117703804
 20
978.42479736047744
 30
0.0
  0
VERTEX
  5
1907
  8
0
 10
523.26346913550992
 20
976.47025550501303
 30
0.0
  0
SEQEND
  5
1908
  8
0
  0
POLYLINE
  5
D4E
  8
0
 66
     1
 10
0.0
 20
0.0
 30
0.0
 70
   128
  0
VERTEX
  5
1909
  8
0
 10
523.10208648754292
 20
973.16333088098907
 30
0.0
  0
VERTEX
  5
190A
  8
0
 10
522.97777755753327
 20
971.79769639010954
 30
0.0
  0
VERTEX
  5
190B
  8
0
 10
522.83724359763278
 20
970.24165139545858
 30
0.0
  0
VERTEX
  5
190C
  8
0
 10
522.71136516079082
 20
968.84009358218873
 30
0.0
  0
VERTEX
  5
190D
  8
0
 10
522.57265261705129
 20
967.28952994939743
 30
0.0
  0
VERTEX
  5
190E
  8
0
 10
522.45553112840412
 20
965.9765084368164
 30
0.0
  0
VERTEX
  5
190F
  8
0
 10
522.33048481855644
 20
964.57169406625235
 30
0.0
  0
VERTEX
  5
1910
  8
0
 10
522.1955124690769
 20
963.05267822021278
 30
0.0
  0
VERTEX
  5
1911
  8
0
 10
522.19189548821498
 20
963.01190954202093
 30
0.0
  0
SEQEND
  5
1912
  8
0
  0
POLYLINE
  5
D4F
  8
0
 66
     1
 10
0.0
 20
0.0
 30
0.0
 70
   128
  0
VERTEX
  5
1913
  8
0
 10
523.2634691376918
 20
976.47025554685024
 30
0.0
  0
VERTEX
  5
1914
  8
0
 10
523.18619784845055
 20
974.47640259205536
 30
0.0
  0
VERTEX
  5
1915
  8
0
 10
523.1020864810672
 20
973.16333081017819
 30
0.0
  0
SEQEND
  5
1916
  8
0
  0
LINE
  5
D50
  8
2
 10
469.32832217973299
 20
984.00148835034349
 30
0.0
 11
469.32832217973208
 21
984.69883645371783
 31
0.0
  0
LINE
  5
D51
  8
2
 10
542.32832217969894
 20
984.00148835034349
 30
0.0
 11
542.32832217969928
 21
984.69883645371874
 31
0.0
  0
POLYLINE
  5
D53
  8
0
 66
     1
 10
0.0
 20
0.0
 30
0.0
 70
   128
  0
VERTEX
  5
1917
  8
0
 10
512.22832217944017
 20
205.55356356758651
 30
0.0
  0
VERTEX
  5
1918
  8
0
 10
512.56206993246064
 20
203.38962842048801
 30
0.0
  0
VERTEX
  5
1919
  8
0
 10
513.39589965771052
 20
201.7672707777588
 30
0.0
  0
VERTEX
  5
191A
  8
0
 10
514.73850135495627
 20
200.54218885437419
 30
0.0
  0
VERTEX
  5
191B
  8
0
 10
516.19711129423536
 20
199.96986162087069
 30
0.0
  0
VERTEX
  5
191C
  8
0
 10
517.23060501824943
 20
199.86464085560641
 30
0.0
  0
SEQEND
  5
191D
  8
0
  0
LINE
  5
D54
  8
0
 10
512.22832217971575
 20
214.32675589719341
 30
0.0
 11
512.22832217971575
 21
205.55356361317951
 31
0.0
  0
POLYLINE
  5
D55
  8
0
 66
     1
 10
0.0
 20
0.0
 30
0.0
 70
   128
  0
VERTEX
  5
191E
  8
0
 10
514.86803969972175
 20
219.0119095420209
 30
0.0
  0
VERTEX
  5
191F
  8
0
 10
514.08258306976973
 20
218.56894648120991
 30
0.0
  0
VERTEX
  5
1920
  8
0
 10
512.97221730770718
 20
217.2229485014264
 30
0.0
  0
VERTEX
  5
1921
  8
0
 10
512.3671983587958
 20
215.635871654928
 30
0.0
  0
VERTEX
  5
1922
  8
0
 10
512.22832217979214
 20
214.3267557310823
 30
0.0
  0
SEQEND
  5
1923
  8
0
  0
POLYLINE
  5
D56
  8
0
 66
     1
 10
0.0
 20
0.0
 30
0.0
 70
   128
  0
VERTEX
  5
1924
  8
0
 10
517.23060328679935
 20
199.8646265738362
 30
0.0
  0
VERTEX
  5
1925
  8
0
 10
519.65386327320107
 20
201.79939776779199
 30
0.0
  0
VERTEX
  5
1926
  8
0
 10
522.23886035875751
 20
203.01860779252999
 30
0.0
  0
SEQEND
  5
1927
  8
0
  0
POLYLINE
  5
D57
  8
0
 66
     1
 10
0.0
 20
0.0
 30
0.0
 70
   128
  0
VERTEX
  5
1928
  8
0
 10
522.23886008685554
 20
203.01860769301859
 30
0.0
  0
VERTEX
  5
1929
  8
0
 10
530.9646232868065
 20
206.2691306987976
 30
0.0
  0
VERTEX
  5
192A
  8
0
 10
539.60604735387255
 20
209.5392925378205
 30
0.0
  0
VERTEX
  5
192B
  8
0
 10
548.29862142096522
 20
212.85509500352509
 30
0.0
  0
VERTEX
  5
192C
  8
0
 10
556.99677819273086
 20
216.18828464490389
 30
0.0
  0
VERTEX
  5
192D
  8
0
 10
563.84168548028879
 20
218.8182152490094
 30
0.0
  0
VERTEX
  5
192E
  8
0
 10
564.34499520267775
 20
219.0119095420209
 30
0.0
  0
SEQEND
  5
192F
  8
0
  0
POLYLINE
  5
D58
  8
0
 66
     1
 10
0.0
 20
0.0
 30
0.0
 70
   128
  0
VERTEX
  5
1930
  8
0
 10
489.41778400067392
 20
203.01860779252999
 30
0.0
  0
VERTEX
  5
1931
  8
0
 10
492.00278108447333
 20
201.79939776781569
 30
0.0
  0
VERTEX
  5
1932
  8
0
 10
494.42604102519238
 20
199.8646265557168
 30
0.0
  0
SEQEND
  5
1933
  8
0
  0
POLYLINE
  5
D59
  8
0
 66
     1
 10
0.0
 20
0.0
 30
0.0
 70
   128
  0
VERTEX
  5
1934
  8
0
 10
447.3129348598024
 20
219.0119095420209
 30
0.0
  0
VERTEX
  5
1935
  8
0
 10
450.50571153334772
 20
217.78378255146211
 30
0.0
  0
VERTEX
  5
1936
  8
0
 10
458.262228949681
 20
214.8064088543679
 30
0.0
  0
VERTEX
  5
1937
  8
0
 10
466.02553374337941
 20
211.83555114241739
 30
0.0
  0
VERTEX
  5
1938
  8
0
 10
473.79951875311713
 20
208.87480780374969
 30
0.0
  0
VERTEX
  5
1939
  8
0
 10
481.59159441794071
 20
205.9309834748087
 30
0.0
  0
VERTEX
  5
193A
  8
0
 10
489.41778400071257
 20
203.0186077929871
 30
0.0
  0
SEQEND
  5
193B
  8
0
  0
POLYLINE
  5
D5A
  8
0
 66
     1
 10
0.0
 20
0.0
 30
0.0
 70
   128
  0
VERTEX
  5
193C
  8
0
 10
499.42832217914679
 20
205.5535635819497
 30
0.0
  0
VERTEX
  5
193D
  8
0
 10
499.09457435818899
 20
203.38962806643531
 30
0.0
  0
VERTEX
  5
193E
  8
0
 10
498.26074493313058
 20
201.7672708704481
 30
0.0
  0
VERTEX
  5
193F
  8
0
 10
496.91814371164008
 20
200.5421892176046
 30
0.0
  0
VERTEX
  5
1940
  8
0
 10
495.4595338933479
 20
199.96986166571381
 30
0.0
  0
VERTEX
  5
1941
  8
0
 10
494.4260391210625
 20
199.8646406559551
 30
0.0
  0
SEQEND
  5
1942
  8
0
  0
LINE
  5
D5B
  8
0
 10
499.42832217971608
 20
214.32675589719341
 30
0.0
 11
499.42832217971608
 21
205.55356361317951
 31
0.0
  0
POLYLINE
  5
D5C
  8
0
 66
     1
 10
0.0
 20
0.0
 30
0.0
 70
   128
  0
VERTEX
  5
1943
  8
0
 10
496.78860818743601
 20
219.0119095420209
 30
0.0
  0
VERTEX
  5
1944
  8
0
 10
497.57405637377741
 20
218.5689510535212
 30
0.0
  0
VERTEX
  5
1945
  8
0
 10
498.6844337526756
 20
217.22294144368789
 30
0.0
  0
VERTEX
  5
1946
  8
0
 10
499.28945019023581
 20
215.63585578006769
 30
0.0
  0
VERTEX
  5
1947
  8
0
 10
499.42832217952332
 20
214.32675528267831
 30
0.0
  0
SEQEND
  5
1948
  8
0
  0
POLYLINE
  5
D5D
  8
0
 66
     1
 10
0.0
 20
0.0
 30
0.0
 70
   128
  0
VERTEX
  5
1949
  8
0
 10
541.04878437782759
 20
203.01860779240951
 30
0.0
  0
VERTEX
  5
194A
  8
0
 10
539.2977702509254
 20
201.79939776779159
 30
0.0
  0
VERTEX
  5
194B
  8
0
 10
537.77538200782885
 20
199.86462655599911
 30
0.0
  0
SEQEND
  5
194C
  8
0
  0
POLYLINE
  5
D5E
  8
0
 66
     1
 10
0.0
 20
0.0
 30
0.0
 70
   128
  0
VERTEX
  5
194D
  8
0
 10
580.47186684902795
 20
219.0119095420209
 30
0.0
  0
VERTEX
  5
194E
  8
0
 10
577.46580143708445
 20
217.78378253266649
 30
0.0
  0
VERTEX
  5
194F
  8
0
 10
570.16990920535147
 20
214.80640883932941
 30
0.0
  0
VERTEX
  5
1950
  8
0
 10
562.87768517327208
 20
211.8355511310528
 30
0.0
  0
VERTEX
  5
1951
  8
0
 10
555.59094686310505
 20
208.8748077963146
 30
0.0
  0
VERTEX
  5
1952
  8
0
 10
548.31278016884175
 20
205.93098347110839
 30
0.0
  0
VERTEX
  5
1953
  8
0
 10
541.0487843777438
 20
203.01860779286611
 30
0.0
  0
SEQEND
  5
1954
  8
0
  0
POLYLINE
  5
D5F
  8
0
 66
     1
 10
0.0
 20
0.0
 30
0.0
 70
   128
  0
VERTEX
  5
1955
  8
0
 10
473.88126230113011
 20
199.86462657387531
 30
0.0
  0
VERTEX
  5
1956
  8
0
 10
472.3588741071755
 20
201.7993977678571
 30
0.0
  0
VERTEX
  5
1957
  8
0
 10
470.60785998160441
 20
203.01860779240951
 30
0.0
  0
SEQEND
  5
1958
  8
0
  0
POLYLINE
  5
D60
  8
0
 66
     1
 10
0.0
 20
0.0
 30
0.0
 70
   128
  0
VERTEX
  5
1959
  8
0
 10
470.60786023280912
 20
203.01860769289809
 30
0.0
  0
VERTEX
  5
195A
  8
0
 10
462.50541566541068
 20
206.26913069886859
 30
0.0
  0
VERTEX
  5
195B
  8
0
 10
454.4280230522383
 20
209.53929253575691
 30
0.0
  0
VERTEX
  5
195C
  8
0
 10
446.27461229118779
 20
212.85509499877429
 30
0.0
  0
VERTEX
  5
195D
  8
0
 10
438.09925059376042
 20
216.1882846480689
 30
0.0
  0
VERTEX
  5
195E
  8
0
 10
431.65807113968708
 20
218.8182152547374
 30
0.0
  0
VERTEX
  5
195F
  8
0
 10
431.18408999809498
 20
219.0119095420209
 30
0.0
  0
SEQEND
  5
1960
  8
0
  0
LINE
  5
D6E
  8
1
 10
835.82832217971782
 20
763.01190954201957
 30
0.0
 11
887.82832217971043
 21
763.01190954201945
 31
0.0
  0
LINE
  5
14EF
  8
1
 10
505.82832217971441
 20
591.01190954201911
 30
0.0
 11
641.01893020698265
 21
404.93800083578247
 31
0.0
  0
LINE
  5
14F0
  8
1
 10
505.82832217971441
 20
591.01190954202025
 30
0.0
 11
287.08532343183077
 21
662.08581824825808
 31
0.0
  0
LINE
  5
14F6
  8
1
 10
275.82832217971583
 20
591.01190954202025
 30
0.0
 11
735.8283221797135
 21
591.01190954202025
 31
0.0
  0
LINE
  5
14F7
  8
1
 10
505.82832217971441
 20
361.01190954202059
 30
0.0
 11
505.82832217971441
 21
821.01190954201797
 31
0.0
  0
LINE
  5
14F8
  8
1
 10
505.82832217971441
 20
591.01190954202036
 30
0.0
 11
724.57132092759787
 21
662.08581824825819
 31
0.0
  0
CIRCLE
  5
14FE
  8
0
 10
505.8283221797148
 20
591.01190954202036
 30
0.0
 40
200.0
  0
ARC
  5
14FF
  8
0
 10
505.82832217971441
 20
591.01190954202093
 30
0.0
 40
39.0
 50
266.59574304292352
 51
273.4042569570895
  0
ARC
  5
1500
  8
0
 10
505.82832217971298
 20
591.01190954202025
 30
0.0
 40
167.99999999999929
 50
242.21808996142951
 51
247.77167855669751
  0
ARC
  5
1501
  8
0
 10
505.82832217971441
 20
591.01190954201923
 30
0.0
 40
183.99999999999781
 50
99.451494509271754
 51
80.548505490728274
  0
LINE
  5
1502
  8
0
 10
586.7793217961746
 20
454.29010080132213
 30
0.0
 11
514.99303457999781
 21
548.92954541103745
 31
0.0
  0
LINE
  5
1503
  8
0
 10
496.66360977943242
 20
548.92954541103848
 30
0.0
 11
424.8773225632533
 21
454.2901008013211
 31
0.0
  0
ARC
  5
1504
  8
0
 10
505.82832217971441
 20
767.01190954201945
 30
0.0
 40
21.0
 50
184.7257472546454
 51
355.27425274535449
  0
ARC
  5
1505
  8
0
 10
476.92690869109828
 20
764.62270499656245
 30
0.0
 40
8.0
 50
4.7257472546454524
 51
99.451494509271754
  0
ARC
  5
1506
  8
0
 10
534.72973566833048
 20
764.62270499656245
 30
0.0
 40
8.0
 50
80.548505490728274
 51
175.27425274535449
  0
ARC
  5
1507
  8
0
 10
431.25114955757698
 20
449.45540024736448
 30
0.0
 40
8.0
 50
142.81881108667019
 51
242.21808996142951
  0
ARC
  5
1508
  8
0
 10
580.40549480185075
 20
449.45540024736539
 30
0.0
 40
8.0
 50
297.78191003857052
 51
37.181188913329791
  0
ARC
  5
1509
  8
0
 10
508.61920758567402
 20
544.0948448570806
 30
0.0
 40
8.0
 50
37.181188913329791
 51
93.404256957089487
  0
ARC
  5
150A
  8
0
 10
503.0374367737561
 20
544.09484485708185
 30
0.0
 40
8.0
 50
86.595743042923544
 51
142.81881108667019
  0
ARC
  5
150B
  8
0
 10
549.58667125397164
 20
573.8594494766171
 30
0.0
 40
8.0
 50
158.5957430429132
 51
214.81881108667511
  0
ARC
  5
150C
  8
0
 10
551.31153329356152
 20
579.16802897975754
 30
0.0
 40
8.0
 50
109.1811889133255
 51
165.4042569570841
  0
ARC
  5
150D
  8
0
 10
663.50217650106492
 20
618.19564849472931
 30
0.0
 40
8.0
 50
9.7819100385733631
 51
109.1811889133255
  0
ARC
  5
150E
  8
0
 10
617.41094903571695
 20
476.3414365164254
 30
0.0
 40
8.0
 50
214.81881108667511
 51
314.2180899614205
  0
LINE
  5
150F
  8
0
 10
543.01897692734315
 20
569.29158441381423
 30
0.0
 11
610.84325470908902
 21
471.77357145362248
 31
0.0
  0
LINE
  5
1510
  8
0
 10
660.87372389534062
 20
625.75152282530541
 30
0.0
 11
548.68308068783665
 21
586.72390331033375
 31
0.0
  0
ARC
  5
1511
  8
0
 10
505.82832217971298
 20
591.01190954202173
 30
0.0
 40
39.0
 50
338.59574304291328
 51
345.4042569570841
  0
ARC
  5
1512
  8
0
 10
535.66335460514415
 20
627.32817091586435
 30
0.0
 40
8.0
 50
230.59574304291471
 51
286.81881108667483
  0
ARC
  5
1513
  8
0
 10
531.14760715959733
 20
630.60905348078711
 30
0.0
 40
8.0
 50
181.18118891332571
 51
237.40425695708001
  0
ARC
  5
1514
  8
0
 10
528.69895066537015
 20
749.36889345075372
 30
0.0
 40
8.0
 50
81.781910038578886
 51
181.18118891332571
  0
ARC
  5
1515
  8
0
 10
649.36735075285617
 20
661.69816900083026
 30
0.0
 40
8.0
 50
286.81881108667483
 51
26.218089961425768
  0
LINE
  5
1516
  8
0
 10
537.978123277892
 20
619.67037449707198
 30
0.0
 11
651.68211942560424
 21
654.04037258203834
 31
0.0
  0
LINE
  5
1517
  8
0
 10
520.70065062289063
 20
749.203980047816
 30
0.0
 11
523.14930711711725
 21
630.44414007784928
 31
0.0
  0
ARC
  5
1518
  8
0
 10
505.82832217971162
 20
591.01190954202036
 30
0.0
 40
39.0
 50
50.595743042914741
 51
57.404256957079959
  0
ARC
  5
1519
  8
0
 10
480.50903719982642
 20
630.60905348078381
 30
0.0
 40
8.0
 50
302.59574304292011
 51
358.81881108667432
  0
ARC
  5
151A
  8
0
 10
475.99328975427829
 20
627.32817091586276
 30
0.0
 40
8.0
 50
253.1811889133252
 51
309.40425695708529
  0
ARC
  5
151B
  8
0
 10
362.2892936065694
 20
661.69816900082856
 30
0.0
 40
8.0
 50
153.78191003857421
 51
253.1811889133252
  0
ARC
  5
151C
  8
0
 10
482.95769369405411
 20
749.36889345075349
 30
0.0
 40
8.0
 50
358.81881108667432
 51
98.218089961421114
  0
LINE
  5
151D
  8
0
 10
488.50733724230639
 20
630.44414007784587
 30
0.0
 11
490.95599373653403
 21
749.20398004781555
 31
0.0
  0
LINE
  5
151E
  8
0
 10
359.97452493382139
 20
654.04037258203641
 30
0.0
 11
473.67852108153028
 21
619.6703744970705
 31
0.0
  0
ARC
  5
151F
  8
0
 10
505.82832217971247
 20
591.01190954201877
 30
0.0
 40
39.0
 50
122.59574304292001
 51
129.40425695708521
  0
ARC
  5
1520
  8
0
 10
460.34511106586768
 20
579.16802897975413
 30
0.0
 40
8.0
 50
14.595743042915871
 51
70.81881108667443
  0
ARC
  5
1521
  8
0
 10
462.06997310545529
 20
573.85944947661301
 30
0.0
 40
8.0
 50
325.18118891332477
 51
21.404256957086758
  0
ARC
  5
1522
  8
0
 10
394.24569532371078
 20
476.3414365164241
 30
0.0
 40
8.0
 50
225.7819100385795
 51
325.18118891332477
  0
ARC
  5
1523
  8
0
 10
348.1544678583611
 20
618.19564849472738
 30
0.0
 40
8.0
 50
70.81881108667443
 51
170.21808996142661
  0
LINE
  5
1524
  8
0
 10
462.97356367159199
 20
586.72390331033012
 30
0.0
 11
350.78292046408592
 21
625.75152282530348
 31
0.0
  0
LINE
  5
1525
  8
0
 10
400.81338965033882
 20
471.77357145362112
 30
0.0
 11
468.63766743208328
 21
569.29158441380991
 31
0.0
  0
ARC
  5
1526
  8
0
 10
505.82832217971441
 20
591.01190954201923
 30
0.0
 40
39.0
 50
194.59574304291581
 51
201.4042569570868
  0
CIRCLE
  5
153D
  8
0
 10
505.82832217971298
 20
591.01190954202025
 30
0.0
 40
34.3771550809006
  0
ARC
  5
1586
  8
0
 10
454.42496784208993
 20
437.38347739861757
 30
0.0
 40
10.000000000002609
 50
209.4807001993747
 51
293.51929980062471
  0
ARC
  5
1587
  8
0
 10
505.82832217971298
 20
591.01190954202025
 30
0.0
 40
167.99999999999929
 50
292.22832144330278
 51
297.7819100385845
  0
ARC
  5
1588
  8
0
 10
439.62610205298569
 20
429.01726132704948
 30
0.0
 40
7.0
 50
29.480700199374709
 51
67.77167855669714
  0
ARC
  5
1589
  8
0
 10
461.2089530508872
 20
421.79574040164113
 30
0.0
 40
7.0
 50
75.908054075632961
 51
113.51929980062459
  0
ARC
  5
158A
  8
0
 10
474.6397636025178
 20
432.04249797527842
 30
0.0
 40
10.000000000002609
 50
216.88070019937811
 51
300.9192998006219
  0
ARC
  5
158B
  8
0
 10
461.04168695351939
 20
421.83993401085951
 30
0.0
 40
7.0
 50
36.880700199378147
 51
74.491945924358035
  0
ARC
  5
158D
  8
0
 10
483.37487798593492
 20
417.45833613070528
 30
0.0
 40
7.0
 50
83.308054075629272
 51
120.9192998006219
  0
ARC
  5
158E
  8
0
 10
483.20331307846681
 20
417.48061852173112
 30
0.0
 40
7.0
 50
44.280700199379822
 51
81.891945924363725
  0
ARC
  5
158F
  8
0
 10
495.3740882427353
 20
429.34957938192929
 30
0.0
 40
10.000000000002609
 50
224.28070019937979
 51
308.3192998006183
  0
ARC
  5
1591
  8
0
 10
505.91482510224358
 20
416.01193092132382
 30
0.0
 40
7.0
 50
90.708054075636895
 51
128.3192998006183
  0
ARC
  5
1592
  8
0
 10
505.74181925718511
 20
416.01193092132382
 30
0.0
 40
7.0
 50
51.680700199381668
 51
89.29194592436312
  0
ARC
  5
1593
  8
0
 10
516.2825561166934
 20
429.34957938192929
 30
0.0
 40
10.000000000002609
 50
231.68070019938159
 51
315.71929980062009
  0
ARC
  5
1595
  8
0
 10
528.45333128096195
 20
417.48061852173129
 30
0.0
 40
7.0
 50
98.10805407562313
 51
135.71929980062021
  0
ARC
  5
1596
  8
0
 10
528.28176637349384
 20
417.4583361307055
 30
0.0
 40
7.0
 50
59.080700199378022
 51
96.691945924357611
  0
ARC
  5
1597
  8
0
 10
537.01688075691095
 20
432.04249797527888
 30
0.0
 40
10.000000000002609
 50
239.08070019937799
 51
323.11929980062177
  0
ARC
  5
1599
  8
0
 10
550.61495740590931
 20
421.83993401086019
 30
0.0
 40
7.0
 50
105.50805407562849
 51
143.1192998006218
  0
ARC
  5
159A
  8
0
 10
550.44769130854161
 20
421.79574040164181
 30
0.0
 40
7.0
 50
66.480700199375335
 51
104.091945924367
  0
ARC
  5
159B
  8
0
 10
557.23167651733843
 20
437.38347739861848
 30
0.0
 40
10.000000000002609
 50
246.48070019937541
 51
330.51929980062528
  0
ARC
  5
159D
  8
0
 10
572.03054230644295
 20
429.01726132705051
 30
0.0
 40
7.0
 50
112.2283214433028
 51
150.5192998006253
  0
ARC
  5
159E
  8
0
 10
680.35199905401237
 20
603.91486309053596
 30
0.0
 40
7.0
 50
184.2283214433017
 51
222.51929980061749
  0
ARC
  5
15A0
  8
0
 10
667.82215371610732
 20
592.42560829275806
 30
0.0
 40
10.000000000002609
 50
318.48070019937938
 51
42.519299800617553
  0
ARC
  5
15A1
  8
0
 10
680.55060584227044
 20
581.15677931756875
 30
0.0
 40
7.0
 50
138.4807001993795
 51
176.0919459243604
  0
ARC
  5
15A2
  8
0
 10
680.56026328891414
 20
581.32951540571685
 30
0.0
 40
7.0
 50
177.50805407563371
 51
215.11929980062939
  0
ARC
  5
15A4
  8
0
 10
666.65501157228175
 20
571.54974165080898
 30
0.0
 40
10.000000000002609
 50
311.08070019937168
 51
35.119299800629392
  0
ARC
  5
15A5
  8
0
 10
677.82607493698174
 20
558.73540033718859
 30
0.0
 40
7.0
 50
131.08070019937171
 51
168.69194592436011
  0
ARC
  5
15A6
  8
0
 10
677.85789959584395
 20
558.905453897906
 30
0.0
 40
7.0
 50
170.10805407562981
 51
207.7192998006268
  0
ARC
  5
15A8
  8
0
 10
662.80887066762455
 20
550.99806948093749
 30
0.0
 40
10.000000000002609
 50
303.68070019937812
 51
27.719299800626882
  0
ARC
  5
15A9
  8
0
 10
672.23646132531553
 20
536.85167296482382
 30
0.0
 40
7.0
 50
123.68070019937809
 51
161.29194592436161
  0
ARC
  5
15AA
  8
0
 10
672.28992307156454
 20
537.0162113011238
 30
0.0
 40
7.0
 50
162.7080540756283
 51
200.3192998006233
  0
ARC
  5
15AC
  8
0
 10
656.34779876822927
 20
531.11293486366185
 30
0.0
 40
10.000000000002609
 50
296.2807001993823
 51
20.319299800623241
  0
ARC
  5
15AD
  8
0
 10
663.87487497549751
 20
515.87012922394888
 30
0.0
 40
7.0
 50
116.2807001993822
 51
153.89194592436229
  0
ARC
  5
15AE
  8
0
 10
663.94908326072732
 20
516.02641150966178
 30
0.0
 40
7.0
 50
155.30805407562869
 51
192.91929980062471
  0
ARC
  5
15B0
  8
0
 10
652.88060047738304
 20
496.14027285610342
 30
0.0
 40
7.0
 50
108.88070019938139
 51
146.491945924361
  0
ARC
  5
15B1
  8
0
 10
647.37942231145746
 20
512.22557791341694
 30
0.0
 40
10.000000000002609
 50
288.88070019938141
 51
12.919299800624721
  0
ARC
  5
15B2
  8
0
 10
652.974319164078
 20
496.28569579166901
 30
0.0
 40
7.0
 50
147.90805407562871
 51
185.5192998006207
  0
ARC
  5
15B3
  8
0
 10
639.43677688499258
 20
477.99075740107281
 30
0.0
 40
7.0
 50
101.4807001993734
 51
139.77167855668921
  0
ARC
  5
15B4
  8
0
 10
636.05313359970182
 20
494.65061808830529
 30
0.0
 40
10.000000000002609
 50
281.48070019937342
 51
5.5192998006206837
  0
ARC
  5
15B6
  8
0
 10
505.82832217971338
 20
591.01190954202025
 30
0.0
 40
167.99999999999929
 50
4.2283214433017369
 51
9.7819100385733631
  0
ARC
  5
15B7
  8
0
 10
505.82832217971338
 20
591.01190954202025
 30
0.0
 40
167.99999999999929
 50
314.2180899614205
 51
319.77167855669842
  0
ARC
  5
15B8
  8
0
 10
547.48766620290485
 20
760.98102160523433
 30
0.0
 40
7.0
 50
256.22832144329942
 51
294.5192998006296
  0
ARC
  5
15BA
  8
0
 10
554.54266169940433
 20
745.51405556323175
 30
0.0
 40
10.000000000002609
 50
30.480700199377949
 51
114.5192998006296
  0
ARC
  5
15BB
  8
0
 10
569.19326294634595
 20
754.13727324013178
 30
0.0
 40
7.0
 50
210.48070019937791
 51
248.0919459243668
  0
ARC
  5
15BC
  8
0
 10
569.03196547924904
 20
754.19983640447265
 30
0.0
 40
7.0
 50
249.5080540756278
 51
287.11929980062001
  0
ARC
  5
15BE
  8
0
 10
574.03612394524566
 20
737.95303985723672
 30
0.0
 40
10.000000000002609
 50
23.080700199376331
 51
107.1192998006199
  0
ARC
  5
15BF
  8
0
 10
589.67533517852576
 20
744.61750322655064
 30
0.0
 40
7.0
 50
203.08070019937639
 51
240.69194592436301
  0
ARC
  5
15C0
  8
0
 10
589.52343899191533
 20
744.7003197159562
 30
0.0
 40
7.0
 50
242.10805407562339
 51
279.71929980061691
  0
ARC
  5
15C2
  8
0
 10
592.39340278086377
 20
727.94432652396029
 30
0.0
 40
10.000000000002609
 50
15.68070019937702
 51
99.719299800616838
  0
ARC
  5
15C3
  8
0
 10
608.76071109884583
 20
732.53902111927437
 30
0.0
 40
7.0
 50
195.68070019937699
 51
233.2919459243569
  0
ARC
  5
15C4
  8
0
 10
608.62074643006713
 20
732.64071140356009
 30
0.0
 40
7.0
 50
234.7080540756323
 51
272.31929980062478
  0
ARC
  5
15C6
  8
0
 10
609.30870861723827
 20
715.65463745961665
 30
0.0
 40
10.000000000002609
 50
8.2807001993779021
 51
92.319299800624805
  0
ARC
  5
15C7
  8
0
 10
626.13147271350931
 20
718.10302635056405
 30
0.0
 40
7.0
 50
188.28070019937789
 51
225.89194592436371
  0
ARC
  5
15C8
  8
0
 10
626.00577104855995
 20
718.22189650599967
 30
0.0
 40
7.0
 50
227.3080540756313
 51
264.91929980062201
  0
ARC
  5
15CA
  8
0
 10
641.49826351697561
 20
701.54998903295336
 30
0.0
 40
7.0
 50
180.88070019937891
 51
218.49194592436021
  0
ARC
  5
15CB
  8
0
 10
624.50027178326695
 20
701.28869031336478
 30
0.0
 40
10.000000000002609
 50
0.8807001993789301
 51
84.919299800621928
  0
ARC
  5
15CC
  8
0
 10
641.38891875336662
 20
701.68405895909495
 30
0.0
 40
7.0
 50
219.90805407563269
 51
257.51929980062789
  0
ARC
  5
15CD
  8
0
 10
654.60510849865454
 20
683.15564428621303
 30
0.0
 40
7.0
 50
173.48070019937839
 51
211.771678556692
  0
ARC
  5
15CE
  8
0
 10
637.71503615343522
 20
685.08578836719278
 30
0.0
 40
10.000000000002609
 50
353.48070019937842
 51
77.519299800627863
  0
ARC
  5
15D0
  8
0
 10
505.82832217971389
 20
591.01190954202093
 30
0.0
 40
167.99999999999929
 50
76.228321443299365
 51
81.781910038578886
  0
ARC
  5
15D1
  8
0
 10
505.82832217971389
 20
591.01190954202093
 30
0.0
 40
167.99999999999929
 50
26.218089961425768
 51
31.77167855669196
  0
ARC
  5
15D2
  8
0
 10
357.05153586077148
 20
683.15564428621121
 30
0.0
 40
7.0
 50
328.228321443308
 51
6.519299800627949
  0
ARC
  5
15D4
  8
0
 10
373.9416082059908
 20
685.08578836719118
 30
0.0
 40
10.000000000002609
 50
102.4807001993854
 51
186.5192998006215
  0
ARC
  5
15D5
  8
0
 10
370.2677256060594
 20
701.68405895909336
 30
0.0
 40
7.0
 50
282.48070019938541
 51
320.09194592436438
  0
ARC
  5
15D6
  8
0
 10
370.15838084245001
 20
701.54998903295177
 30
0.0
 40
7.0
 50
321.50805407562763
 51
359.11929980062098
  0
ARC
  5
15D8
  8
0
 10
387.15637257615867
 20
701.28869031336353
 30
0.0
 40
10.000000000002609
 50
95.080700199378043
 51
179.11929980062101
  0
ARC
  5
15D9
  8
0
 10
385.65087331086562
 20
718.22189650599853
 30
0.0
 40
7.0
 50
275.0807001993781
 51
312.69194592435269
  0
ARC
  5
15DA
  8
0
 10
385.52517164591632
 20
718.10302635056269
 30
0.0
 40
7.0
 50
314.10805407563419
 51
351.71929980062208
  0
ARC
  5
15DC
  8
0
 10
402.34793574218719
 20
715.65463745961586
 30
0.0
 40
10.000000000002609
 50
87.680700199375181
 51
171.71929980062211
  0
ARC
  5
15DD
  8
0
 10
403.03589792935799
 20
732.64071140355918
 30
0.0
 40
7.0
 50
267.68070019937511
 51
305.29194592436642
  0
ARC
  5
15DE
  8
0
 10
402.8959332605798
 20
732.53902111927334
 30
0.0
 40
7.0
 50
306.7080540756275
 51
344.3192998006229
  0
ARC
  5
15E0
  8
0
 10
419.26324157856169
 20
727.94432652395926
 30
0.0
 40
10.000000000002609
 50
80.280700199383176
 51
164.31929980062301
  0
ARC
  5
15E1
  8
0
 10
422.13320536751019
 20
744.70031971595529
 30
0.0
 40
7.0
 50
260.2807001993832
 51
297.89194592436257
  0
ARC
  5
15E2
  8
0
 10
421.98130918089942
 20
744.61750322654973
 30
0.0
 40
7.0
 50
299.30805407562218
 51
336.91929980062372
  0
ARC
  5
15E4
  8
0
 10
442.62467888017608
 20
754.19983640447208
 30
0.0
 40
7.0
 50
252.8807001993801
 51
290.4919459243585
  0
ARC
  5
15E5
  8
0
 10
437.62052041418002
 20
737.95303985723604
 30
0.0
 40
10.000000000002609
 50
72.880700199380044
 51
156.91929980062361
  0
ARC
  5
15E6
  8
0
 10
442.46338141307911
 20
754.13727324013121
 30
0.0
 40
7.0
 50
291.90805407563278
 51
329.51929980062198
  0
ARC
  5
15E7
  8
0
 10
464.16897815652032
 20
760.98102160523399
 30
0.0
 40
7.0
 50
245.4807001993704
 51
283.77167855670058
  0
ARC
  5
15E8
  8
0
 10
457.11398266002078
 20
745.51405556323152
 30
0.0
 40
10.000000000002609
 50
65.480700199370403
 51
149.51929980062201
  0
ARC
  5
15EA
  8
0
 10
505.82832217971338
 20
591.01190954202116
 30
0.0
 40
167.99999999999929
 50
148.228321443308
 51
153.78191003857421
  0
ARC
  5
15EB
  8
0
 10
505.82832217971338
 20
591.01190954202116
 30
0.0
 40
167.99999999999929
 50
98.218089961421114
 51
103.77167855670071
  0
ARC
  5
15EC
  8
0
 10
372.2198674744356
 20
477.99075740107139
 30
0.0
 40
7.0
 50
40.228321443310747
 51
78.519299800626555
  0
ARC
  5
15EE
  8
0
 10
375.60351075972608
 20
494.65061808830387
 30
0.0
 40
10.000000000002609
 50
174.48070019937921
 51
258.51929980062658
  0
ARC
  5
15EF
  8
0
 10
358.6823251953499
 20
496.28569579166742
 30
0.0
 40
7.0
 50
354.48070019937933
 51
32.091945924359898
  0
ARC
  5
15F0
  8
0
 10
358.77604388204531
 20
496.14027285610177
 30
0.0
 40
7.0
 50
33.508054075635158
 51
71.119299800618577
  0
ARC
  5
15F2
  8
0
 10
364.27722204796987
 20
512.22557791341535
 30
0.0
 40
10.000000000002609
 50
167.0807001993752
 51
251.11929980061859
  0
ARC
  5
15F3
  8
0
 10
347.70756109870058
 20
516.02641150965985
 30
0.0
 40
7.0
 50
347.0807001993752
 51
24.6919459243619
  0
ARC
  5
15F4
  8
0
 10
347.7817693839304
 20
515.87012922394706
 30
0.0
 40
7.0
 50
26.10805407562826
 51
63.71929980061779
  0
ARC
  5
15F6
  8
0
 10
355.30884559119818
 20
531.11293486366014
 30
0.0
 40
10.000000000002609
 50
159.6807001993767
 51
243.71929980061779
  0
ARC
  5
15F7
  8
0
 10
339.3667212878629
 20
537.01621130112187
 30
0.0
 40
7.0
 50
339.68070019937682
 51
17.29194592436032
  0
ARC
  5
15F8
  8
0
 10
339.42018303411191
 20
536.85167296482189
 30
0.0
 40
7.0
 50
18.708054075632841
 51
56.319299800621913
  0
ARC
  5
15FA
  8
0
 10
348.84777369180227
 20
550.9980694809359
 30
0.0
 40
10.000000000002609
 50
152.28070019937309
 51
236.31929980062191
  0
ARC
  5
15FB
  8
0
 10
333.7987447635835
 20
558.90545389790395
 30
0.0
 40
7.0
 50
332.28070019937309
 51
9.8919459243576942
  0
ARC
  5
15FC
  8
0
 10
333.83056942244571
 20
558.73540033718666
 30
0.0
 40
7.0
 50
11.308054075633731
 51
48.919299800628259
  0
ARC
  5
15FE
  8
0
 10
331.09638107051279
 20
581.3295154057148
 30
0.0
 40
7.0
 50
324.88070019937061
 51
2.4919459243597539
  0
ARC
  5
15FF
  8
0
 10
345.00163278714513
 20
571.54974165080705
 30
0.0
 40
10.000000000002609
 50
144.88070019937061
 51
228.91929980062821
  0
ARC
  5
1600
  8
0
 10
331.10603851715661
 20
581.15677931756682
 30
0.0
 40
7.0
 50
3.9080540756330442
 51
41.519299800620523
  0
ARC
  5
1601
  8
0
 10
331.30464530541423
 20
603.91486309053403
 30
0.0
 40
7.0
 50
317.4807001993824
 51
355.77167855669819
  0
ARC
  5
1602
  8
0
 10
343.83449064331921
 20
592.42560829275612
 30
0.0
 40
10.000000000002609
 50
137.4807001993824
 51
221.5192998006205
  0
ARC
  5
1604
  8
0
 10
505.82832217971298
 20
591.01190954202082
 30
0.0
 40
167.99999999999929
 50
220.2283214433107
 51
225.7819100385795
  0
ARC
  5
1605
  8
0
 10
505.82832217971298
 20
591.01190954202082
 30
0.0
 40
167.99999999999929
 50
170.21808996142661
 51
175.7716785566983
  0
CIRCLE
  5
1701
  8
0
 10
505.82832217971441
 20
763.01190954201945
 30
0.0
 40
6.9175000000000004
  0
CIRCLE
  5
1702
  8
3
 10
505.82832217971441
 20
763.01190954201945
 30
0.0
 40
8.0
  0
LINE
  5
17B4
  8
1
 10
505.82832217971441
 20
591.01190954201911
 30
0.0
 11
370.63771415244599
 21
404.93800083578247
 31
0.0
  0
LINE
  5
17B5
  8
1
 10
469.56180892881872
 20
763.01190954201945
 30
0.0
 11
542.09483543061015
 21
763.01190954201945
 31
0.0
  0
TEXT
  5
1826
  8
0
 62
     3
 10
0.0
 20
0.0
 30
0.0
 40
10.0
  1
V400
  7
STANDARD1
  0
LINE
  5
184E
  8
2
 10
469.32832217973208
 20
197.32498263032369
 30
0.0
 11
469.3283221797326
 21
198.0223307336984
 31
0.0
  0
LINE
  5
184F
  8
2
 10
542.32832217969894
 20
198.0223307336984
 30
0.0
 11
542.32832217969928
 21
197.32498263032369
 31
0.0
  0
ENDSEC
  0
EOF
