  0
SECTION
  2
HEADER
  9
$ACADVER
  1
AC1009
  9
$INSBASE
 10
0.0
 20
0.0
 30
0.0
  9
$EXTMIN
 10
0.0
 20
-2.960436562073669
 30
0.0
  9
$EXTMAX
 10
851.9999999999992
 20
1128.999999999998
 30
0.0
  9
$LIMMIN
 10
0.0
 20
0.0
  9
$LIMMAX
 10
1540.0
 20
1080.0
  9
$ORTHOMODE
 70
     1
  9
$REGENMODE
 70
     1
  9
$FILLMODE
 70
     1
  9
$QTEXTMODE
 70
     0
  9
$MIRRTEXT
 70
     1
  9
$DRAGMODE
 70
     2
  9
$LTSCALE
 40
20.0
  9
$OSMODE
 70
    37
  9
$ATTMODE
 70
     1
  9
$TEXTSIZE
 40
4.0
  9
$TRACEWID
 40
0.05
  9
$TEXTSTYLE
  7
STANDARD
  9
$CLAYER
  8
0
  9
$CELTYPE
  6
BYLAYER
  9
$CECOLOR
 62
   256
  9
$DIMSCALE
 40
4.0
  9
$DIMASZ
 40
3.0
  9
$DIMEXO
 40
2.0
  9
$DIMDLI
 40
0.38
  9
$DIMRND
 40
0.0
  9
$DIMDLE
 40
0.0
  9
$DIMEXE
 40
2.0
  9
$DIMTP
 40
0.0
  9
$DIMTM
 40
0.0
  9
$DIMTXT
 40
3.0
  9
$DIMCEN
 40
0.0
  9
$DIMTSZ
 40
0.0
  9
$DIMTOL
 70
     0
  9
$DIMLIM
 70
     0
  9
$DIMTIH
 70
     0
  9
$DIMTOH
 70
     0
  9
$DIMSE1
 70
     0
  9
$DIMSE2
 70
     0
  9
$DIMTAD
 70
     1
  9
$DIMZIN
 70
     8
  9
$DIMBLK
  1

  9
$DIMASO
 70
     0
  9
$DIMSHO
 70
     0
  9
$DIMPOST
  1

  9
$DIMAPOST
  1

  9
$DIMALT
 70
     0
  9
$DIMALTD
 70
     2
  9
$DIMALTF
 40
25.399999999999999
  9
$DIMLFAC
 40
1.0
  9
$DIMTOFL
 70
     0
  9
$DIMTVP
 40
1.6000000000000001
  9
$DIMTIX
 70
     1
  9
$DIMSOXD
 70
     0
  9
$DIMSAH
 70
     0
  9
$DIMBLK1
  1

  9
$DIMBLK2
  1

  9
$DIMSTYLE
  2
STANDARD
  9
$DIMCLRD
 70
     4
  9
$DIMCLRE
 70
     4
  9
$DIMCLRT
 70
     4
  9
$DIMTFAC
 40
1.0
  9
$DIMGAP
 40
0.09
  9
$LUNITS
 70
     2
  9
$LUPREC
 70
     1
  9
$SKETCHINC
 40
0.1
  9
$FILLETRAD
 40
3.0
  9
$AUNITS
 70
     0
  9
$AUPREC
 70
     0
  9
$MENU
  1
E:\r13\win\SUPPORT\ACAD
  9
$ELEVATION
 40
0.0
  9
$PELEVATION
 40
0.0
  9
$THICKNESS
 40
0.0
  9
$LIMCHECK
 70
     0
  9
$BLIPMODE
 70
     0
  9
$CHAMFERA
 40
1.1999999999999991
  9
$CHAMFERB
 40
1.1999999999999991
  9
$SKPOLY
 70
     0
  9
$TDCREATE
 40
2450059.5671413201
  9
$TDUPDATE
 40
2456776.714127095
  9
$TDINDWG
 40
0.3511902546
  9
$TDUSRTIMER
 40
0.3511902546
  9
$USRTIMER
 70
     1
  9
$ANGBASE
 50
0.0
  9
$ANGDIR
 70
     0
  9
$PDMODE
 70
     0
  9
$PDSIZE
 40
0.0
  9
$PLINEWID
 40
0.0
  9
$COORDS
 70
     1
  9
$SPLFRAME
 70
     0
  9
$SPLINETYPE
 70
     6
  9
$SPLINESEGS
 70
     8
  9
$ATTDIA
 70
     0
  9
$ATTREQ
 70
     1
  9
$HANDLING
 70
     1
  9
$HANDSEED
  5
3593
  9
$SURFTAB1
 70
     6
  9
$SURFTAB2
 70
     6
  9
$SURFTYPE
 70
     6
  9
$SURFU
 70
     6
  9
$SURFV
 70
     6
  9
$UCSNAME
  2

  9
$UCSORG
 10
0.0
 20
0.0
 30
0.0
  9
$UCSXDIR
 10
1.0
 20
0.0
 30
0.0
  9
$UCSYDIR
 10
0.0
 20
1.0
 30
0.0
  9
$PUCSNAME
  2

  9
$PUCSORG
 10
0.0
 20
0.0
 30
0.0
  9
$PUCSXDIR
 10
1.0
 20
0.0
 30
0.0
  9
$PUCSYDIR
 10
0.0
 20
1.0
 30
0.0
  9
$USERI1
 70
     3
  9
$USERI2
 70
     1
  9
$USERI3
 70
     1
  9
$USERI4
 70
     0
  9
$USERI5
 70
     0
  9
$USERR1
 40
4.0
  9
$USERR2
 40
3.0
  9
$USERR3
 40
3.0
  9
$USERR4
 40
3.0
  9
$USERR5
 40
10.0
  9
$WORLDVIEW
 70
     1
  9
$SHADEDGE
 70
     3
  9
$SHADEDIF
 70
    70
  9
$TILEMODE
 70
     1
  9
$MAXACTVP
 70
    16
  9
$PLIMCHECK
 70
     0
  9
$PEXTMIN
 10
1.0000000000000000E+020
 20
1.0000000000000000E+020
 30
1.0000000000000000E+020
  9
$PEXTMAX
 10
-1.0000000000000000E+020
 20
-1.0000000000000000E+020
 30
-1.0000000000000000E+020
  9
$PLIMMIN
 10
0.0
 20
0.0
  9
$PLIMMAX
 10
12.0
 20
9.0
  9
$UNITMODE
 70
     0
  9
$VISRETAIN
 70
     0
  9
$PLINEGEN
 70
     0
  9
$PSLTSCALE
 70
     0
  0
ENDSEC
  0
SECTION
  2
TABLES
  0
TABLE
  2
VPORT
 70
     1
  0
VPORT
  2
*ACTIVE
 70
     0
 10
0.0
 20
0.0
 11
1.0
 21
1.0
 12
1150.583333241239
 22
563.01978435451338
 13
0.0
 23
0.0
 14
20.0
 24
20.0
 15
10.0
 25
10.0
 16
0.0
 26
0.0
 36
1.0
 17
0.0
 27
0.0
 37
0.0
 40
1141.9887299848331
 41
2.6019575856443709
 42
50.0
 43
0.0
 44
0.0
 50
0.0
 51
0.0
 71
     0
 72
 10000
 73
     1
 74
     1
 75
     0
 76
     0
 77
     0
 78
     2
  0
ENDTAB
  0
TABLE
  2
LTYPE
 70
     4
  0
LTYPE
  2
CONTINUOUS
 70
     0
  3
実線
 72
    65
 73
     0
 40
0.0
  0
LTYPE
  2
CENTER
 70
     0
  3
____ _ ____ _ ____ _ ____ _ ____ _ ____ _ ____
 72
    65
 73
     4
 40
2.0
 49
1.25
 49
-0.25
 49
0.25
 49
-0.25
  0
LTYPE
  2
HIDDEN
 70
     0
  3
_ _ _ _ _ _ _ _ _ _ _ _ _ _ _ _ _ _ _ _ _ _ _
 72
    65
 73
     2
 40
0.375
 49
0.25
 49
-0.125
  0
LTYPE
  2
PHANTOM2
 70
     0
  3
___ _ _ ___ _ _ ___ _ _ ___ _ _
 72
    65
 73
     6
 40
1.25
 49
0.625
 49
-0.125
 49
0.125
 49
-0.125
 49
0.125
 49
-0.125
  0
ENDTAB
  0
TABLE
  2
LAYER
 70
     5
  0
LAYER
  2
0
 70
     0
 62
     7
  6
CONTINUOUS
  0
LAYER
  2
3
 70
     0
 62
     3
  6
CONTINUOUS
  0
LAYER
  2
1
 70
     0
 62
     1
  6
CENTER
  0
LAYER
  2
2
 70
     0
 62
     2
  6
HIDDEN
  0
LAYER
  2
DEFPOINTS
 70
     0
 62
     7
  6
CONTINUOUS
  0
ENDTAB
  0
TABLE
  2
STYLE
 70
     2
  0
STYLE
  2
STANDARD
 70
     0
 40
0.0
 41
1.0
 50
0.0
 71
     0
 42
4.0
  3
SIMPLEX
  4
BIGFONT
  0
STYLE
  2
STANDARD1
 70
     0
 40
0.0
 41
1.0
 50
0.0
 71
     0
 42
3.0
  3
txt
  4

  0
ENDTAB
  0
TABLE
  2
VIEW
 70
     1
  0
VIEW
  2
ALL
 70
     0
 40
270.0
 10
220.59941989218049
 20
135.0
 41
441.19883978436093
 11
0.0
 21
0.0
 31
1.0
 12
0.0
 22
0.0
 32
0.0
 42
50.0
 43
0.0
 44
0.0
 50
0.0
 71
     0
  0
ENDTAB
  0
TABLE
  2
UCS
 70
     0
  0
ENDTAB
  0
TABLE
  2
APPID
 70
     4
  0
APPID
  2
ACAD
 70
     0
  0
APPID
  2
ACAD_EXEMPT_FROM_CAD_STANDARDS
 70
     0
  0
APPID
  2
ACAD_MLEADERVER
 70
     0
  0
APPID
  2
ACAD_NAV_VCDISPLAY
 70
     0
  0
ENDTAB
  0
TABLE
  2
DIMSTYLE
 70
     1
  0
DIMSTYLE
  2
STANDARD
 70
     0
  3

  4

  5

  6

  7

 40
1.0
 41
0.18
 42
0.0625
 43
0.38
 44
0.18
 45
0.0
 46
0.0
 47
0.0
 48
0.0
140
0.18
141
0.09
142
0.0
143
25.399999999999999
144
1.0
145
0.0
146
1.0
147
0.09
 71
     0
 72
     0
 73
     1
 74
     1
 75
     0
 76
     0
 77
     0
 78
     0
170
     0
171
     2
172
     0
173
     0
174
     0
175
     0
176
     0
177
     0
178
     0
  0
ENDTAB
  0
ENDSEC
  0
SECTION
  2
BLOCKS
  0
BLOCK
  8
0
  2
$MODEL_SPACE
 70
     0
 10
0.0
 20
0.0
 30
0.0
  3
$MODEL_SPACE
  1

  0
ENDBLK
  5
199F
  8
0
  0
BLOCK
 67
     1
  8
0
  2
$PAPER_SPACE
 70
     0
 10
0.0
 20
0.0
 30
0.0
  3
$PAPER_SPACE
  1

  0
ENDBLK
  5
199D
 67
     1
  8
0
  0
ENDSEC
  0
SECTION
  2
ENTITIES
  0
LINE
  5
217F
  8
0
 10
774.00000000000045
 20
393.99999999999949
 30
0.0
 11
774.0
 21
809.99999999999898
 31
0.0
  0
ARC
  5
2184
  8
0
 10
324.99999999999858
 20
602.0000000000008
 30
0.0
 40
42.5
 50
193.61643220941249
 51
202.3835677905918
  0
ARC
  5
2185
  8
0
 10
275.91937710101951
 20
590.11124666551484
 30
0.0
 40
8.0
 50
13.61643220941253
 51
70.458781356276845
  0
ARC
  5
2186
  8
0
 10
278.30490810206311
 20
582.76933717618203
 30
0.0
 40
8.0
 50
325.5412186437236
 51
22.383567790591769
  0
LINE
  5
2187
  8
0
 10
278.59525638158988
 20
597.65045551497724
 30
0.0
 11
147.95345931856261
 21
644.01893859027962
 31
0.0
  0
ARC
  5
2188
  8
0
 10
145.27758003799181
 20
636.47972974081722
 30
0.0
 40
8.0
 50
70.458781356276845
 51
169.13976878068081
  0
LINE
  5
2189
  8
0
 10
206.4644522137705
 20
463.9406190129186
 30
0.0
 11
284.90117569060749
 21
578.24283147085919
 31
0.0
  0
ARC
  5
218B
  8
0
 10
199.86818462522609
 20
468.46712471824128
 30
0.0
 40
8.0
 50
226.86023121931501
 51
325.5412186437236
  0
ARC
  5
2190
  8
0
 10
324.9999999999996
 20
601.99999999999966
 30
0.0
 40
191.0
 50
221.17664213557839
 51
226.86023121931501
  0
ARC
  5
2191
  8
0
 10
149.0545444853951
 20
544.83185604063419
 30
0.0
 40
10.0
 50
154.97710161619321
 51
241.02289838380401
  0
ARC
  5
2192
  8
0
 10
179.21801058275531
 20
488.10262706475248
 30
0.0
 40
10.0
 50
174.97710161618849
 51
261.02289838381893
  0
ARC
  5
2193
  8
0
 10
166.98105830760159
 20
505.79701633309458
 30
0.0
 40
10.0
 50
168.3104349495236
 51
254.35623171714499
  0
ARC
  5
2194
  8
0
 10
156.88104113988939
 20
524.79238592086313
 30
0.0
 40
10.0
 50
161.6437682828587
 51
247.68956505047299
  0
ARC
  5
2195
  8
0
 10
176.7213750507799
 20
472.29861456727332
 30
0.0
 40
6.0
 50
41.176642135577808
 51
81.02289838381887
  0
ARC
  5
2196
  8
0
 10
324.9999999999996
 20
601.99999999999966
 30
0.0
 40
191.0
 50
201.17664213557691
 51
201.49002453108591
  0
ARC
  5
2197
  8
0
 10
163.27945399792131
 20
489.50348893947921
 30
0.0
 40
6.0
 50
354.97710161618693
 51
34.823357864421773
  0
ARC
  5
2198
  8
0
 10
162.66657026623849
 20
490.38970660878022
 30
0.0
 40
6.0
 50
34.509975468912749
 51
74.356231717145022
  0
ARC
  5
2199
  8
0
 10
151.31290267782791
 20
509.03875956185487
 30
0.0
 40
6.0
 50
348.3104349495182
 51
28.156691197752139
  0
ARC
  5
219A
  8
0
 10
150.80704663846291
 20
509.99013640274433
 30
0.0
 40
6.0
 50
27.843308802244572
 51
67.689565050486905
  0
ARC
  5
219B
  8
0
 10
141.6951713916005
 20
529.83117148764575
 30
0.0
 40
6.0
 50
341.64376828285299
 51
21.490024531085851
  0
ARC
  5
219C
  8
0
 10
141.3031838796978
 20
530.83484176042282
 30
0.0
 40
6.0
 50
21.176642135577001
 51
61.022898383818251
  0
ARC
  5
219D
  8
0
 10
324.9999999999996
 20
601.99999999999966
 30
0.0
 40
191.0
 50
214.50997546891281
 51
214.82335786442101
  0
ARC
  5
219E
  8
0
 10
324.9999999999996
 20
601.99999999999966
 30
0.0
 40
191.0
 50
207.84330880224459
 51
208.15669119775211
  0
ARC
  5
219F
  8
0
 10
324.9999999999996
 20
601.99999999999966
 30
0.0
 40
191.0
 50
187.84330880224701
 51
188.15669119775359
  0
ARC
  5
21A0
  8
0
 10
324.9999999999996
 20
601.99999999999966
 30
0.0
 40
191.0
 50
181.17664213558041
 51
181.49002453108631
  0
ARC
  5
21A1
  8
0
 10
134.5563234558222
 20
551.59954301460425
 30
0.0
 40
6.0
 50
334.97710161618971
 51
14.823357864421631
  0
ARC
  5
21A2
  8
0
 10
134.28350543003171
 20
552.64193380060919
 30
0.0
 40
6.0
 50
14.50997546891336
 51
54.356231717147892
  0
ARC
  5
21A3
  8
0
 10
129.99289954224511
 20
574.04949426111841
 30
0.0
 40
6.0
 50
328.31043494951689
 51
8.1566911977536414
  0
ARC
  5
21A4
  8
0
 10
129.84294039835089
 20
575.11650901317455
 30
0.0
 40
6.0
 50
7.8433088022470949
 51
47.689565050486273
  0
ARC
  5
21A5
  8
0
 10
128.0666121308204
 20
596.87742814910905
 30
0.0
 40
6.0
 50
321.64376828285532
 51
1.4900245310863021
  0
ARC
  5
21A6
  8
0
 10
128.0415398089917
 20
597.95463732314226
 30
0.0
 40
6.0
 50
1.1766421355788439
 51
41.022898383814571
  0
ARC
  5
21A7
  8
0
 10
324.9999999999996
 20
601.99999999999966
 30
0.0
 40
191.0
 50
194.5099754689133
 51
194.82335786442161
  0
ARC
  5
21A8
  8
0
 10
128.80351095427341
 20
619.77463603369256
 30
0.0
 40
6.0
 50
314.97710161619
 51
354.82335786442042
  0
ARC
  5
21A9
  8
0
 10
143.60740828514281
 20
565.64442723642605
 30
0.0
 40
10.0
 50
148.31043494952709
 51
234.35623171714451
  0
ARC
  5
21AA
  8
0
 10
140.6132957117652
 20
586.94864518644579
 30
0.0
 40
10.0
 50
141.64376828285589
 51
227.6895650504737
  0
ARC
  5
21AB
  8
0
 10
140.11269700146559
 20
608.45640688996241
 30
0.0
 40
10.0
 50
134.97710161618991
 51
221.02289838381461
  0
ARC
  5
21AC
  8
0
 10
324.9999999999996
 20
601.99999999999966
 30
0.0
 40
191.0
 50
169.13976878068081
 51
174.82335786441871
  0
ARC
  5
21AE
  8
0
 10
325.0
 20
602.00000000000114
 30
0.0
 40
42.5
 50
121.6164322094161
 51
130.38356779058989
  0
ARC
  5
21AF
  8
0
 10
298.52637710031883
 20
645.00461940961225
 30
0.0
 40
8.0
 50
301.61643220941608
 51
358.45878135627481
  0
ARC
  5
21B0
  8
0
 10
292.28097585837031
 20
640.46706980287922
 30
0.0
 40
8.0
 50
253.54121864372641
 51
310.38356779058989
  0
LINE
  5
21B1
  8
0
 10
306.52348297690241
 20
644.78945064163236
 30
0.0
 11
310.25199548823139
 21
783.36583231258919
 31
0.0
  0
ARC
  5
21B2
  8
0
 10
302.25488961164768
 20
783.58100108056931
 30
0.0
 40
8.0
 50
358.45878135627481
 51
97.139768780680384
  0
LINE
  5
21B3
  8
0
 10
157.0682273730726
 20
672.0713101768149
 30
0.0
 11
290.01437189558101
 21
632.79487934148756
 31
0.0
  0
ARC
  5
21B5
  8
0
 10
159.33483133586191
 20
679.74350063820634
 30
0.0
 40
8.0
 50
154.86023121931669
 51
253.54121864372641
  0
ARC
  5
21BA
  8
0
 10
324.9999999999996
 20
601.99999999999977
 30
0.0
 40
191.0
 50
149.17664213557981
 51
154.86023121931669
  0
ARC
  5
21BB
  8
0
 10
216.2597283258915
 20
751.66814395936558
 30
0.0
 40
10.0
 50
82.977101616185891
 51
169.0228983838104
  0
ARC
  5
21BC
  8
0
 10
171.62804907731601
 20
705.45068714208844
 30
0.0
 40
10.0
 50
102.9771016161861
 51
189.02289838381489
  0
ARC
  5
21BD
  8
0
 10
184.6749870804581
 20
722.55658733196958
 30
0.0
 40
10.0
 50
96.310434949516761
 51
182.3562317171446
  0
ARC
  5
21BE
  8
0
 10
199.61958015803839
 20
738.03216649106855
 30
0.0
 40
10.0
 50
89.643768282860535
 51
175.68956505047669
  0
ARC
  5
21BF
  8
0
 10
155.8260371998376
 20
702.94142019255253
 30
0.0
 40
6.0
 50
329.1766421355768
 51
9.0228983838149492
  0
ARC
  5
21C0
  8
0
 10
324.9999999999996
 20
601.99999999999977
 30
0.0
 40
191.0
 50
129.17664213558331
 51
129.4900245310827
  0
ARC
  5
21C1
  8
0
 10
168.035063041184
 20
721.04204536849602
 30
0.0
 40
6.0
 50
282.97710161618608
 51
322.82335786441968
  0
ARC
  5
21C2
  8
0
 10
168.68851464176259
 20
721.89878875577392
 30
0.0
 40
6.0
 50
322.50997546890852
 51
2.3562317171478599
  0
ARC
  5
21C3
  8
0
 10
182.9163417422148
 20
738.45964259107916
 30
0.0
 40
6.0
 50
276.31043494951672
 51
316.15669119775589
  0
ARC
  5
21C4
  8
0
 10
183.66483677332411
 20
739.23473188551429
 30
0.0
 40
6.0
 50
315.84330880225031
 51
355.68956505047998
  0
ARC
  5
21C5
  8
0
 10
199.71905817895549
 20
754.03185724193509
 30
0.0
 40
6.0
 50
269.64376828284747
 51
309.49002453108272
  0
ARC
  5
21C6
  8
0
 10
200.55247452933099
 20
754.71481069047388
 30
0.0
 40
6.0
 50
309.17664213558339
 51
349.02289838381517
  0
ARC
  5
21C7
  8
0
 10
324.9999999999996
 20
601.99999999999977
 30
0.0
 40
191.0
 50
142.50997546891759
 51
142.82335786441971
  0
ARC
  5
21C8
  8
0
 10
324.9999999999996
 20
601.99999999999977
 30
0.0
 40
191.0
 50
135.84330880225059
 51
136.15669119775589
  0
ARC
  5
21C9
  8
0
 10
324.9999999999996
 20
601.99999999999966
 30
0.0
 40
191.0
 50
115.8433088022454
 51
116.1566911977594
  0
ARC
  5
21CA
  8
0
 10
324.9999999999996
 20
601.99999999999966
 30
0.0
 40
191.0
 50
109.1766421355768
 51
109.49002453108631
  0
ARC
  5
21CB
  8
0
 10
218.21598443638911
 20
767.54810183179563
 30
0.0
 40
6.0
 50
262.97710161618591
 51
302.82335786442292
  0
ARC
  5
21CC
  8
0
 10
219.12305157960421
 20
768.12968366064172
 30
0.0
 40
6.0
 50
302.50997546891659
 51
342.35623171714758
  0
ARC
  5
21CD
  8
0
 10
238.15698131806241
 20
778.82559233948211
 30
0.0
 40
6.0
 50
256.31043494951632
 51
296.15669119775941
  0
ARC
  5
21CE
  8
0
 10
239.1254327270635
 20
779.29793765209445
 30
0.0
 40
6.0
 50
295.84330880224542
 51
335.68956505048328
  0
ARC
  5
21CF
  8
0
 10
259.27238104961037
 20
787.71182005223136
 30
0.0
 40
6.0
 50
249.64376828285
 51
289.49002453108631
  0
ARC
  5
21D0
  8
0
 10
260.2891200804541
 20
788.06854118855802
 30
0.0
 40
6.0
 50
289.1766421355768
 51
329.02289838381222
  0
ARC
  5
21D1
  8
0
 10
324.9999999999996
 20
601.99999999999966
 30
0.0
 40
191.0
 50
122.50997546891659
 51
122.8233578644229
  0
ARC
  5
21D2
  8
0
 10
281.27663407279039
 20
794.08661398440881
 30
0.0
 40
6.0
 50
242.97710161618511
 51
282.82335786442201
  0
ARC
  5
21D3
  8
0
 10
234.37040212595301
 20
763.28011653390149
 30
0.0
 40
10.0
 50
76.31043494952965
 51
162.356231717143
  0
ARC
  5
21D4
  8
0
 10
253.70668576364619
 20
772.71105220575726
 30
0.0
 40
10.0
 50
69.643768282850047
 51
155.6895650504747
  0
ARC
  5
21D5
  8
0
 10
274.00708917385441
 20
779.83341374858958
 30
0.0
 40
10.0
 50
62.97710161618518
 51
149.02289838381211
  0
ARC
  5
21D6
  8
0
 10
324.9999999999996
 20
601.99999999999966
 30
0.0
 40
191.0
 50
97.139768780680384
 51
102.82335786442199
  0
ARC
  5
21D8
  8
0
 10
325.00000000000091
 20
601.99999999999955
 30
0.0
 40
42.5
 50
49.616432209410583
 51
58.38356779059243
  0
ARC
  5
21D9
  8
0
 10
357.71902414162929
 20
640.46706980287865
 30
0.0
 40
8.0
 50
229.61643220941059
 51
286.45878135627362
  0
ARC
  5
21DA
  8
0
 10
351.47362289968078
 20
645.00461940961168
 30
0.0
 40
8.0
 50
181.5412186437251
 51
238.38356779059239
  0
LINE
  5
21DB
  8
0
 10
359.98562810441859
 20
632.79487934148733
 30
0.0
 11
492.93177262692677
 21
672.07131017681422
 31
0.0
  0
ARC
  5
21DC
  8
0
 10
490.66516866413752
 20
679.74350063820589
 30
0.0
 40
8.0
 50
286.45878135627362
 51
25.13976878068334
  0
LINE
  5
21DD
  8
0
 10
339.74800451176822
 20
783.36583231258908
 30
0.0
 11
343.47651702309707
 21
644.78945064163156
 31
0.0
  0
ARC
  5
21DF
  8
0
 10
347.74511038835141
 20
783.58100108056897
 30
0.0
 40
8.0
 50
82.86023121931963
 51
181.5412186437251
  0
ARC
  5
21E4
  8
0
 10
324.99999999999909
 20
601.99999999999966
 30
0.0
 40
191.0
 50
77.176642135578021
 51
82.86023121931963
  0
ARC
  5
21E5
  8
0
 10
433.74027167410708
 20
751.66814395936581
 30
0.0
 40
10.0
 50
10.977101616191829
 51
97.022898383814095
  0
ARC
  5
21E6
  8
0
 10
375.99291082614451
 20
779.83341374858958
 30
0.0
 40
10.0
 50
30.977101616187859
 51
117.02289838381481
  0
ARC
  5
21E7
  8
0
 10
396.29331423635273
 20
772.71105220575726
 30
0.0
 40
10.0
 50
24.310434949524652
 51
110.3562317171499
  0
ARC
  5
21E8
  8
0
 10
415.62959787404583
 20
763.28011653390149
 30
0.0
 40
10.0
 50
17.64376828285695
 51
103.68956505047031
  0
ARC
  5
21E9
  8
0
 10
368.72336592720882
 20
794.08661398440881
 30
0.0
 40
6.0
 50
257.17664213557811
 51
297.02289838381478
  0
ARC
  5
21EA
  8
0
 10
324.99999999999909
 20
601.99999999999966
 30
0.0
 40
191.0
 50
57.176642135577069
 51
57.490024531083392
  0
ARC
  5
21EB
  8
0
 10
389.71087991954482
 20
788.06854118855813
 30
0.0
 40
6.0
 50
210.97710161618789
 51
250.8233578644232
  0
ARC
  5
21EC
  8
0
 10
390.72761895038821
 20
787.71182005223136
 30
0.0
 40
6.0
 50
250.50997546891369
 51
290.35623171715002
  0
ARC
  5
21ED
  8
0
 10
410.87456727293511
 20
779.29793765209445
 30
0.0
 40
6.0
 50
204.3104349495166
 51
244.15669119775461
  0
ARC
  5
21EE
  8
0
 10
411.84301868193643
 20
778.82559233948211
 30
0.0
 40
6.0
 50
243.84330880224061
 51
283.68956505048368
  0
ARC
  5
21EF
  8
0
 10
430.8769484203948
 20
768.12968366064183
 30
0.0
 40
6.0
 50
197.64376828285239
 51
237.49002453108341
  0
ARC
  5
21F0
  8
0
 10
431.7840155636095
 20
767.54810183179563
 30
0.0
 40
6.0
 50
237.17664213557711
 51
277.02289838381409
  0
ARC
  5
21F1
  8
0
 10
324.99999999999909
 20
601.99999999999966
 30
0.0
 40
191.0
 50
70.50997546891368
 51
70.823357864423159
  0
ARC
  5
21F2
  8
0
 10
324.99999999999909
 20
601.99999999999966
 30
0.0
 40
191.0
 50
63.843308802240578
 51
64.156691197754625
  0
ARC
  5
21F3
  8
0
 10
324.99999999999909
 20
602.0
 30
0.0
 40
191.0
 50
43.843308802244067
 51
44.15669119774936
  0
ARC
  5
21F4
  8
0
 10
324.99999999999909
 20
602.0
 30
0.0
 40
191.0
 50
37.176642135580259
 51
37.490024531082398
  0
ARC
  5
21F5
  8
0
 10
449.44752547066759
 20
754.71481069047388
 30
0.0
 40
6.0
 50
190.9771016161848
 51
230.82335786441669
  0
ARC
  5
21F6
  8
0
 10
450.2809418210436
 20
754.03185724193509
 30
0.0
 40
6.0
 50
230.50997546890841
 51
270.35623171715253
  0
ARC
  5
21F7
  8
0
 10
466.33516322667492
 20
739.23473188551429
 30
0.0
 40
6.0
 50
184.3104349495199
 51
224.15669119774941
  0
ARC
  5
21F8
  8
0
 10
467.08365825778401
 20
738.45964259107916
 30
0.0
 40
6.0
 50
223.84330880224411
 51
263.68956505048328
  0
ARC
  5
21F9
  8
0
 10
481.31148535823598
 20
721.89878875577392
 30
0.0
 40
6.0
 50
177.64376828285211
 51
217.49002453109151
  0
ARC
  5
21FA
  8
0
 10
481.96493695881458
 20
721.04204536849602
 30
0.0
 40
6.0
 50
217.17664213558029
 51
257.02289838381392
  0
ARC
  5
21FB
  8
0
 10
324.99999999999909
 20
602.0
 30
0.0
 40
191.0
 50
50.509975468917318
 51
50.823357864416629
  0
ARC
  5
21FC
  8
0
 10
494.17396280016089
 20
702.94142019255253
 30
0.0
 40
6.0
 50
170.977101616185
 51
210.82335786442309
  0
ARC
  5
21FD
  8
0
 10
450.38041984196019
 20
738.03216649106855
 30
0.0
 40
10.0
 50
4.310434949523219
 51
90.356231717139451
  0
ARC
  5
21FE
  8
0
 10
465.32501291954082
 20
722.55658733196958
 30
0.0
 40
10.0
 50
357.64376828285538
 51
83.689565050483253
  0
ARC
  5
21FF
  8
0
 10
478.37195092268252
 20
705.45068714208844
 30
0.0
 40
10.0
 50
350.97710161618511
 51
77.02289838381391
  0
ARC
  5
2200
  8
0
 10
324.99999999999909
 20
602.0
 30
0.0
 40
191.0
 50
25.13976878068334
 51
30.823357864420132
  0
ARC
  5
2202
  8
0
 10
325.0
 20
601.99999999999841
 30
0.0
 40
42.5
 50
337.61643220941409
 51
346.38356779058898
  0
ARC
  5
2203
  8
0
 10
371.69509189793598
 20
582.76933717618112
 30
0.0
 40
8.0
 50
157.61643220941411
 51
214.45878135627629
  0
ARC
  5
2204
  8
0
 10
374.08062289897907
 20
590.11124666551405
 30
0.0
 40
8.0
 50
109.5412186437231
 51
166.3835677905889
  0
LINE
  5
2205
  8
0
 10
365.0988243093916
 20
578.24283147085828
 30
0.0
 11
443.5355477862276
 21
463.94061901291798
 31
0.0
  0
ARC
  5
2206
  8
0
 10
450.13181537477249
 20
468.46712471824083
 30
0.0
 40
8.0
 50
214.45878135627629
 51
313.13976878068257
  0
LINE
  5
2207
  8
0
 10
502.04654068143651
 20
644.01893859027882
 30
0.0
 11
371.40474361840819
 21
597.65045551497656
 31
0.0
  0
ARC
  5
2209
  8
0
 10
504.72241996200728
 20
636.47972974081642
 30
0.0
 40
8.0
 50
10.860231219319139
 51
109.5412186437231
  0
ARC
  5
220E
  8
0
 10
324.9999999999996
 20
601.99999999999966
 30
0.0
 40
191.0
 50
5.1766421355812078
 51
10.860231219319139
  0
ARC
  5
220F
  8
0
 10
500.9454555146034
 20
544.83185604063431
 30
0.0
 40
10.0
 50
298.97710161619608
 51
25.022898383806709
  0
ARC
  5
2210
  8
0
 10
509.8873029985329
 20
608.45640688996264
 30
0.0
 40
10.0
 50
318.97710161618539
 51
45.022898383810059
  0
ARC
  5
2211
  8
0
 10
509.38670428823377
 20
586.94864518644579
 30
0.0
 40
10.0
 50
312.31043494952632
 51
38.356231717144041
  0
ARC
  5
2212
  8
0
 10
506.39259171485622
 20
565.64442723642605
 30
0.0
 40
10.0
 50
305.64376828285549
 51
31.68956505047289
  0
ARC
  5
2213
  8
0
 10
521.19648904572568
 20
619.77463603369267
 30
0.0
 40
6.0
 50
185.17664213557961
 51
225.02289838381009
  0
ARC
  5
2214
  8
0
 10
324.9999999999996
 20
601.99999999999966
 30
0.0
 40
191.0
 50
345.17664213557828
 51
345.4900245310867
  0
ARC
  5
2215
  8
0
 10
521.95846019100691
 20
597.95463732314226
 30
0.0
 40
6.0
 50
138.97710161618539
 51
178.8233578644211
  0
ARC
  5
2216
  8
0
 10
521.93338786917855
 20
596.87742814910905
 30
0.0
 40
6.0
 50
178.50997546891369
 51
218.35623171714471
  0
ARC
  5
2217
  8
0
 10
520.15705960164769
 20
575.11650901317466
 30
0.0
 40
6.0
 50
132.31043494951371
 51
172.15669119775291
  0
ARC
  5
2218
  8
0
 10
520.00710045775395
 20
574.04949426111853
 30
0.0
 40
6.0
 50
171.8433088022463
 51
211.6895650504832
  0
ARC
  5
2219
  8
0
 10
515.71649456996727
 20
552.64193380060931
 30
0.0
 40
6.0
 50
125.64376828285209
 51
165.49002453108659
  0
ARC
  5
221A
  8
0
 10
515.44367654417692
 20
551.59954301460425
 30
0.0
 40
6.0
 50
165.17664213557839
 51
205.02289838381029
  0
ARC
  5
221B
  8
0
 10
324.9999999999996
 20
601.99999999999966
 30
0.0
 40
191.0
 50
358.50997546891369
 51
358.82335786441951
  0
ARC
  5
221C
  8
0
 10
324.9999999999996
 20
601.99999999999966
 30
0.0
 40
191.0
 50
351.84330880224633
 51
352.15669119775288
  0
ARC
  5
221D
  8
0
 10
324.9999999999996
 20
601.99999999999977
 30
0.0
 40
191.0
 50
331.8433088022478
 51
332.15669119775549
  0
ARC
  5
221E
  8
0
 10
324.9999999999996
 20
601.99999999999977
 30
0.0
 40
191.0
 50
325.17664213557902
 51
325.49002453108722
  0
ARC
  5
221F
  8
0
 10
508.69681612030121
 20
530.83484176042293
 30
0.0
 40
6.0
 50
118.9771016161817
 51
158.823357864423
  0
ARC
  5
2220
  8
0
 10
508.30482860839811
 20
529.83117148764575
 30
0.0
 40
6.0
 50
158.50997546891409
 51
198.3562317171469
  0
ARC
  5
2221
  8
0
 10
499.19295336153613
 20
509.99013640274438
 30
0.0
 40
6.0
 50
112.31043494951309
 51
152.15669119775541
  0
ARC
  5
2222
  8
0
 10
498.6870973221707
 20
509.03875956185499
 30
0.0
 40
6.0
 50
151.8433088022478
 51
191.68956505048189
  0
ARC
  5
2223
  8
0
 10
487.33342973376051
 20
490.38970660878022
 30
0.0
 40
6.0
 50
105.64376828285489
 51
145.49002453108719
  0
ARC
  5
2224
  8
0
 10
486.72054600207719
 20
489.50348893947933
 30
0.0
 40
6.0
 50
145.17664213557819
 51
185.02289838381299
  0
ARC
  5
2225
  8
0
 10
324.9999999999996
 20
601.99999999999977
 30
0.0
 40
191.0
 50
338.50997546891421
 51
338.82335786442297
  0
ARC
  5
2226
  8
0
 10
473.27862494921919
 20
472.29861456727338
 30
0.0
 40
6.0
 50
98.977101616181145
 51
138.82335786442209
  0
ARC
  5
2227
  8
0
 10
493.11895886010961
 20
524.79238592086324
 30
0.0
 40
10.0
 50
292.31043494952701
 51
18.356231717141291
  0
ARC
  5
2228
  8
0
 10
483.01894169239762
 20
505.79701633309469
 30
0.0
 40
10.0
 50
285.64376828285498
 51
11.6895650504764
  0
ARC
  5
2229
  8
0
 10
470.78198941724349
 20
488.1026270647526
 30
0.0
 40
10.0
 50
278.97710161618107
 51
5.0228983838114916
  0
ARC
  5
222A
  8
0
 10
324.9999999999996
 20
601.99999999999977
 30
0.0
 40
191.0
 50
313.13976878068257
 51
318.8233578644215
  0
ARC
  5
222B
  8
0
 10
296.07631604117438
 20
799.8974999999989
 30
0.0
 40
8.0
 50
4.1575916772028183
 51
98.315183354404596
  0
ARC
  5
222C
  8
0
 10
353.92368395882482
 20
799.89749999999844
 30
0.0
 40
8.0
 50
81.684816645595404
 51
175.84240832279721
  0
ARC
  5
222D
  8
0
 10
324.9999999999996
 20
601.99999999999966
 30
0.0
 40
191.0
 50
241.139768780683
 51
246.8233578644134
  0
ARC
  5
222E
  8
0
 10
324.9999999999996
 20
416.99999999999909
 30
0.0
 40
10.0
 50
226.97710161619341
 51
313.02289838380608
  0
ARC
  5
222F
  8
0
 10
261.72627348475038
 20
428.15686515460601
 30
0.0
 40
10.0
 50
206.97710161618679
 51
293.02289838381381
  0
ARC
  5
2230
  8
0
 10
282.33606391264811
 20
421.98669894273161
 30
0.0
 40
10.0
 50
213.64376828285711
 51
299.68956505048311
  0
ARC
  5
2231
  8
0
 10
303.52281088683179
 20
418.25090381773958
 30
0.0
 40
10.0
 50
220.31043494952741
 51
306.35623171713951
  0
ARC
  5
2232
  8
0
 10
247.46726722355379
 20
420.8987152220717
 30
0.0
 40
6.0
 50
26.977101616186768
 51
66.823357864427194
  0
ARC
  5
2233
  8
0
 10
324.9999999999996
 20
601.99999999999966
 30
0.0
 40
191.0
 50
266.50997546890949
 51
266.82335786442468
  0
ARC
  5
2234
  8
0
 10
267.98385714965912
 20
413.43128718032341
 30
0.0
 40
6.0
 50
73.176642135573914
 51
113.0228983838138
  0
ARC
  5
2235
  8
0
 10
269.0160917275698
 20
413.12225643410432
 30
0.0
 40
6.0
 50
33.643768282855852
 51
73.490024531093113
  0
ARC
  5
2236
  8
0
 10
290.26087129462758
 20
408.08715118179578
 30
0.0
 40
6.0
 50
79.843308802243286
 51
119.6895650504831
  0
ARC
  5
2237
  8
0
 10
291.32200255147927
 20
407.90004511113978
 30
0.0
 40
6.0
 50
40.310434949517031
 51
80.156691197753261
  0
ARC
  5
2238
  8
0
 10
313.00767256092013
 20
405.36535380916717
 30
0.0
 40
6.0
 50
86.509975468909474
 51
126.3562317171487
  0
ARC
  5
2239
  8
0
 10
314.08335051681712
 20
405.30270270270262
 30
0.0
 40
6.0
 50
46.977101616189941
 51
86.823357864424736
  0
ARC
  5
223A
  8
0
 10
324.9999999999996
 20
601.99999999999966
 30
0.0
 40
191.0
 50
253.1766421355739
 51
253.4900245310931
  0
ARC
  5
223B
  8
0
 10
324.9999999999996
 20
601.99999999999966
 30
0.0
 40
191.0
 50
259.84330880224331
 51
260.15669119775322
  0
ARC
  5
223C
  8
0
 10
324.9999999999996
 20
601.99999999999966
 30
0.0
 40
191.0
 50
279.84330880224672
 51
280.15669119775669
  0
ARC
  5
223D
  8
0
 10
324.9999999999996
 20
601.99999999999966
 30
0.0
 40
191.0
 50
286.50997546890687
 51
286.8233578644261
  0
ARC
  5
223E
  8
0
 10
335.91664948318203
 20
405.30270270270262
 30
0.0
 40
6.0
 50
93.176642135575264
 51
133.02289838381
  0
ARC
  5
223F
  8
0
 10
336.99232743907902
 20
405.36535380916717
 30
0.0
 40
6.0
 50
53.643768282851269
 51
93.49002453109054
  0
ARC
  5
2240
  8
0
 10
358.67799744851982
 20
407.90004511113978
 30
0.0
 40
6.0
 50
99.843308802246753
 51
139.689565050483
  0
ARC
  5
2241
  8
0
 10
359.73912870537151
 20
408.08715118179578
 30
0.0
 40
6.0
 50
60.310434949516853
 51
100.1566911977567
  0
ARC
  5
2242
  8
0
 10
380.98390827242929
 20
413.12225643410432
 30
0.0
 40
6.0
 50
106.5099754689069
 51
146.35623171714411
  0
ARC
  5
2243
  8
0
 10
382.01614285033969
 20
413.43128718032341
 30
0.0
 40
6.0
 50
66.977101616186133
 51
106.823357864426
  0
ARC
  5
2244
  8
0
 10
324.9999999999996
 20
601.99999999999966
 30
0.0
 40
191.0
 50
273.17664213557532
 51
273.49002453109051
  0
ARC
  5
2245
  8
0
 10
236.67054631144771
 20
441.72864382216602
 30
0.0
 40
8.0
 50
142.458781356277
 51
241.139768780683
  0
ARC
  5
2246
  8
0
 10
413.32945368855047
 20
441.72864382216579
 30
0.0
 40
8.0
 50
298.86023121931697
 51
37.541218643722281
  0
ARC
  5
2247
  8
0
 10
402.53273277644519
 20
420.8987152220717
 30
0.0
 40
6.0
 50
113.17664213557281
 51
153.02289838381321
  0
ARC
  5
2248
  8
0
 10
346.47718911316719
 20
418.25090381773958
 30
0.0
 40
10.0
 50
233.64376828286049
 51
319.68956505047248
  0
ARC
  5
2249
  8
0
 10
367.66393608735098
 20
421.98669894273161
 30
0.0
 40
10.0
 50
240.310434949517
 51
326.35623171714292
  0
ARC
  5
224A
  8
0
 10
388.27372651524871
 20
428.15686515460601
 30
0.0
 40
10.0
 50
246.97710161618619
 51
333.02289838381319
  0
ARC
  5
224B
  8
0
 10
324.9999999999996
 20
601.99999999999966
 30
0.0
 40
191.0
 50
293.17664213558658
 51
298.86023121931697
  0
ARC
  5
224C
  8
0
 10
324.99999999999818
 20
601.99999999999932
 30
0.0
 40
207.9999999999994
 50
98.315183354404596
 51
81.684816645595404
  0
LINE
  5
2251
  8
1
 10
757.0
 20
351.99999999999937
 30
0.0
 11
757.0
 21
851.99999999999898
 31
0.0
  0
LINE
  5
2252
  8
0
 10
775.75280512340532
 20
658.6605616705765
 30
0.0
 11
775.75280512340476
 21
653.61602860596236
 31
0.0
  0
LINE
  5
2253
  8
0
 10
793.50000000000091
 20
659.42185615051255
 30
0.0
 11
793.50000000000091
 21
649.00000558510305
 31
0.0
  0
ARC
  5
2254
  8
0
 10
757.0
 20
809.99999999999898
 30
0.0
 40
17.0
 50
0.0
 51
180.0
  0
LINE
  5
2257
  8
0
 10
792.43395729606607
 20
667.74185443254885
 30
0.0
 11
774.0
 21
738.49537926933499
 31
0.0
  0
LINE
  5
2258
  8
0
 10
775.36206404139011
 20
662.06196636088941
 30
0.0
 11
774.0
 21
667.91212182760455
 31
0.0
  0
ARC
  5
2259
  8
0
 10
760.75280512340532
 20
658.6605616705765
 30
0.0
 40
15.0
 50
0.0
 51
13.1064125012955
  0
ARC
  5
225A
  8
0
 10
760.50000000000091
 20
659.42185615051255
 30
0.0
 40
33.0
 50
0.0
 51
14.603067084987829
  0
ARC
  5
225C
  8
0
 10
760.75280512340532
 20
545.3394383294218
 30
0.0
 40
15.0
 50
346.89358749870451
 51
0.0
  0
LINE
  5
2264
  8
0
 10
775.36206404139011
 20
541.93803363910899
 30
0.0
 11
774.00000000000045
 21
536.08787817239522
 31
0.0
  0
ARC
  5
2268
  8
0
 10
757.0
 20
393.99999999999949
 30
0.0
 40
17.0
 50
180.0
 51
0.0
  0
LINE
  5
2269
  8
1
 10
715.0
 20
601.99999999999932
 30
0.0
 11
851.9999999999992
 21
601.99999999999898
 31
0.0
  0
LINE
  5
226A
  8
0
 10
826.99999999999898
 20
567.00000762939385
 30
0.0
 11
826.99999999999955
 21
636.99999237060445
 31
0.0
  0
LINE
  5
226C
  8
0
 10
740.0
 20
393.99999999999949
 30
0.0
 11
740.0
 21
809.99999999999898
 31
0.0
  0
LINE
  5
226D
  8
2
 10
766.99999999999955
 20
565.49999999999841
 30
0.0
 11
766.99999999999955
 21
638.49999999999909
 31
0.0
  0
LINE
  5
226E
  8
0
 10
800.99999999999955
 20
565.99999237060513
 30
0.0
 11
801.0
 21
637.99999237060297
 31
0.0
  0
ARC
  5
226F
  8
0
 10
800.64782612268471
 20
559.00000762939385
 30
0.0
 40
4.0
 50
113.0111031717905
 51
114.45935795256651
  0
LINE
  5
2270
  8
0
 10
800.99999999999898
 20
566.00000762939385
 30
0.0
 11
799.08418811091985
 21
562.68172409976432
 31
0.0
  0
ARC
  5
2271
  8
2
 10
784.50000000000091
 20
594.49997539714775
 30
0.0
 40
35.0
 50
242.081003078267
 51
293.87013051802791
  0
LINE
  5
2272
  8
0
 10
825.99999999999898
 20
566.00000762939385
 30
0.0
 11
800.99999999999955
 21
566.00000762939385
 31
0.0
  0
LINE
  5
2273
  8
0
 10
799.08418811092724
 20
562.68172409977626
 30
0.0
 11
799.08418811092577
 21
641.31827590022294
 31
0.0
  0
ARC
  5
2274
  8
0
 10
825.99999999999898
 20
567.00000762939385
 30
0.0
 40
1.0
 50
270.0
 51
0.0
  0
LINE
  5
2276
  8
0
 10
775.75280512340532
 20
545.3394383294218
 30
0.0
 11
775.75280512340476
 21
554.89529753894215
 31
0.0
  0
ARC
  5
2277
  8
0
 10
801.50000000000091
 20
555.00000762939385
 30
0.0
 40
8.0
 50
113.317379419792
 51
180.00009464176981
  0
ARC
  5
2278
  8
0
 10
767.75280512340476
 20
554.89528547581028
 30
0.0
 40
8.0
 50
0.0000863957723311
 51
38.657006171529538
  0
ARC
  5
227A
  8
0
 10
801.50000000000091
 20
648.99999237060445
 30
0.0
 40
8.0
 50
179.99990535823019
 51
246.6826205802079
  0
ARC
  5
227B
  8
0
 10
825.99999999999898
 20
636.99999237060445
 30
0.0
 40
1.0
 50
0.0
 51
90.0
  0
LINE
  5
227C
  8
0
 10
825.99999999999898
 20
637.99999237060445
 30
0.0
 11
800.99999999999955
 21
637.99999237060445
 31
0.0
  0
ARC
  5
227D
  8
0
 10
735.48801216545792
 20
500.26354845282918
 30
0.0
 40
154.7275947944629
 50
65.768645854659852
 51
66.035660248332974
  0
LINE
  5
227E
  8
0
 10
800.99999999999898
 20
637.99999237060445
 30
0.0
 11
799.08418811091985
 21
641.31827590023397
 31
0.0
  0
ARC
  5
227F
  8
0
 10
800.64782612268118
 20
644.99999237060445
 30
0.0
 40
4.0
 50
245.54069523772961
 51
246.98889682765781
  0
LINE
  5
22E5
  8
1
 10
324.9999999999996
 20
601.99999999999966
 30
0.0
 11
562.76412907378813
 21
679.25424859373675
 31
0.0
  0
CIRCLE
  5
233C
  8
0
 10
324.9999999999996
 20
601.99999999999966
 30
0.0
 40
37.810913735304041
  0
ARC
  5
233D
  8
0
 10
328.859870240904
 20
551.647726945812
 30
0.0
 40
8.0
 50
37.541218643722992
 51
94.383567790592295
  0
ARC
  5
233E
  8
0
 10
321.14012975909418
 20
551.64772694581188
 30
0.0
 40
8.0
 50
85.616432209407705
 51
142.45878135627771
  0
LINE
  5
233F
  8
0
 10
314.79680822769478
 20
556.52238303104355
 30
0.0
 11
230.32722478004851
 21
446.60329990739802
 31
0.0
  0
LINE
  5
2340
  8
0
 10
419.67277521994993
 20
446.60329990739768
 30
0.0
 11
335.2031917723034
 21
556.522383031044
 31
0.0
  0
ARC
  5
2341
  8
0
 10
324.9999999999996
 20
801.99999999999898
 30
0.0
 40
21.0
 50
184.15759167720279
 51
355.84240832279721
  0
ARC
  5
2342
  8
0
 10
324.99999999999818
 20
601.9999999999992
 30
0.0
 40
42.5
 50
265.61643220940772
 51
274.38356779059228
  0
CIRCLE
  5
2343
  8
0
 10
325.0
 20
601.99999999999932
 30
0.0
 40
225.0
  0
LINE
  5
2346
  8
1
 10
324.9999999999996
 20
351.99999999999932
 30
0.0
 11
324.9999999999996
 21
851.9999999999992
 31
0.0
  0
LINE
  5
2347
  8
1
 10
75.0
 20
601.9999999999992
 30
0.0
 11
575.0
 21
601.9999999999992
 31
0.0
  0
LINE
  5
2349
  8
1
 10
324.99999999999909
 20
601.9999999999992
 30
0.0
 11
178.0536869268812
 21
399.7457514062628
 31
0.0
  0
LINE
  5
234B
  8
1
 10
324.9999999999996
 20
601.99999999999932
 30
0.0
 11
87.235870926211703
 21
679.25424859373652
 31
0.0
  0
LINE
  5
234C
  8
1
 10
324.9999999999996
 20
601.99999999999807
 30
0.0
 11
471.94631307311761
 21
399.745751406262
 31
0.0
  0
LINE
  5
234D
  8
1
 10
296.99999999999949
 20
797.9999999999992
 30
0.0
 11
352.99999999999949
 21
797.9999999999992
 31
0.0
  0
CIRCLE
  5
2353
  8
3
 10
324.9999999999996
 20
797.9999999999992
 30
0.0
 40
8.0
  0
CIRCLE
  5
2354
  8
0
 10
324.9999999999996
 20
797.9999999999992
 30
0.0
 40
6.9175000000000004
  0
LINE
  5
23BB
  8
2
 10
766.99999999999955
 20
565.49999999999875
 30
0.0
 11
768.11220169076842
 21
563.57361016332254
 31
0.0
  0
LINE
  5
23BD
  8
2
 10
766.99999999999955
 20
638.49999999999875
 30
0.0
 11
768.11220169076842
 21
640.42638983667496
 31
0.0
  0
LINE
  5
2A63
  8
2
 10
361.49999999999949
 20
159.9999999999998
 30
0.0
 11
363.42638983667581
 21
158.8877983092309
 31
0.0
  0
LINE
  5
2A64
  8
2
 10
288.49999999999949
 20
159.9999999999998
 30
0.0
 11
286.57361016332328
 21
158.8877983092309
 31
0.0
  0
ARC
  5
2A66
  8
0
 10
367.99999237060501
 20
126.35217387731809
 30
0.0
 40
4.0
 50
155.54069523772921
 51
156.98889682765821
  0
LINE
  5
2A67
  8
0
 10
360.99999237060501
 20
126.0000000000002
 30
0.0
 11
364.31827590023482
 21
127.91581188907929
 31
0.0
  0
ARC
  5
2A68
  8
2
 10
332.50002460285123
 20
142.49999999999841
 30
0.0
 40
35.0
 50
335.54069523772978
 51
27.91899692173287
  0
LINE
  5
2A69
  8
0
 10
360.99999237060501
 20
101.0000000000002
 30
0.0
 11
360.99999237060501
 21
125.9999999999998
 31
0.0
  0
ARC
  5
2A6A
  8
0
 10
359.99999237060501
 20
101.0000000000002
 30
0.0
 40
1.0
 50
270.0
 51
0.0
  0
ARC
  5
2A6B
  8
0
 10
371.99999237060501
 20
125.49999999999839
 30
0.0
 40
8.0
 50
89.999905358228574
 51
156.68262058020761
  0
ARC
  5
2A6D
  8
0
 10
277.89528547581091
 20
159.24719487659439
 30
0.0
 40
8.0
 50
270.00008639577072
 51
308.65700617152982
  0
ARC
  5
2A6E
  8
0
 10
278.00000762939447
 20
125.49999999999839
 30
0.0
 40
8.0
 50
23.317379419792399
 51
90.000094641771426
  0
LINE
  5
2A6F
  8
0
 10
268.33943832942259
 20
151.24719487659399
 30
0.0
 11
277.89529753894249
 21
151.24719487659439
 31
0.0
  0
LINE
  5
2A70
  8
0
 10
267.57814384948642
 20
133.49999999999841
 30
0.0
 11
277.99999441489581
 21
133.49999999999841
 31
0.0
  0
ARC
  5
2A71
  8
0
 10
290.00000762939447
 20
101.0000000000002
 30
0.0
 40
1.0
 50
180.0
 51
270.0
  0
LINE
  5
2A72
  8
0
 10
285.6817240997766
 20
127.9158118890721
 30
0.0
 11
364.3182759002234
 21
127.9158118890734
 31
0.0
  0
LINE
  5
2A73
  8
0
 10
289.00000762939447
 20
101.0000000000002
 30
0.0
 11
289.00000762939447
 21
125.9999999999998
 31
0.0
  0
ARC
  5
2A74
  8
2
 10
317.49997539714832
 20
142.49999999999841
 30
0.0
 40
35.0
 50
152.08100307826709
 51
204.4593047622709
  0
LINE
  5
2A75
  8
0
 10
289.00000762939447
 20
126.0000000000002
 30
0.0
 11
285.68172409976478
 21
127.91581188907929
 31
0.0
  0
ARC
  5
2A76
  8
0
 10
282.00000762939447
 20
126.3521738773145
 30
0.0
 40
4.0
 50
23.011103171790861
 51
24.45935795256716
  0
LINE
  5
2A77
  8
0
 10
288.99999237060592
 20
125.9999999999998
 30
0.0
 11
360.99999237060371
 21
125.9999999999993
 31
0.0
  0
LINE
  5
2A78
  8
2
 10
288.49999999999909
 20
159.9999999999998
 30
0.0
 11
361.49999999999949
 21
159.9999999999998
 31
0.0
  0
LINE
  5
2A79
  8
0
 10
117.0
 20
186.99999999999929
 30
0.0
 11
532.99999999999955
 21
186.99999999999929
 31
0.0
  0
LINE
  5
2A7A
  8
0
 10
290.00000762939447
 20
100.0000000000002
 30
0.0
 11
359.99999237060501
 21
99.999999999999787
 31
0.0
  0
ARC
  5
2A7B
  8
0
 10
117.0
 20
169.99999999999929
 30
0.0
 40
17.0
 50
90.0
 51
270.0
  0
LINE
  5
2A7C
  8
0
 10
259.2581455674503
 20
134.56604270393311
 30
0.0
 11
188.50462073066501
 21
152.99999999999929
 31
0.0
  0
LINE
  5
2A7D
  8
0
 10
264.93803363910962
 20
151.63793595860921
 30
0.0
 11
259.0878781723959
 21
152.99999999999881
 31
0.0
  0
ARC
  5
2A7E
  8
0
 10
268.33943832942259
 20
166.24719487659399
 30
0.0
 40
15.0
 50
256.89358749870308
 51
270.0
  0
ARC
  5
2A7F
  8
0
 10
267.57814384948642
 20
166.49999999999841
 30
0.0
 40
33.0
 50
255.3969329150126
 51
270.0
  0
ARC
  5
2A80
  8
0
 10
382.42185615051312
 20
166.49999999999841
 30
0.0
 40
33.0
 50
270.0
 51
284.6030670849874
  0
LINE
  5
2A83
  8
0
 10
390.74185443254959
 20
134.56604270393311
 30
0.0
 11
461.49537926933539
 21
152.99999999999929
 31
0.0
  0
ARC
  5
2A85
  8
0
 10
532.99999999999955
 20
169.99999999999929
 30
0.0
 40
17.0
 50
270.0
 51
90.0
  0
LINE
  5
2A86
  8
0
 10
382.42185615051312
 20
133.49999999999841
 30
0.0
 11
372.00000558510368
 21
133.49999999999841
 31
0.0
  0
LINE
  5
2A88
  8
1
 10
75.0
 20
169.99999999999929
 30
0.0
 11
574.99999999999955
 21
169.99999999999929
 31
0.0
  0
LINE
  5
2A89
  8
0
 10
117.0
 20
152.99999999999881
 30
0.0
 11
532.99999999999955
 21
152.99999999999929
 31
0.0
  0
LINE
  5
2A8B
  8
1
 10
324.9999999999996
 20
211.99999999999929
 30
0.0
 11
324.9999999999996
 21
74.999999999999986
 31
0.0
  0
LINE
  5
2A8C
  8
2
 10
288.5
 20
1043.9999999999991
 30
0.0
 11
286.57361016332379
 21
1045.1122016907671
 31
0.0
  0
LINE
  5
2A8D
  8
2
 10
361.5
 20
1043.9999999999991
 30
0.0
 11
363.42638983667621
 21
1045.1122016907671
 31
0.0
  0
ARC
  5
2A8F
  8
0
 10
282.00000762939408
 20
1077.647826122681
 30
0.0
 40
4.0
 50
335.54069523772921
 51
336.98889682765832
  0
LINE
  5
2A90
  8
0
 10
289.00000762939402
 20
1077.999999999998
 30
0.0
 11
285.68172409976478
 21
1076.0841881109191
 31
0.0
  0
ARC
  5
2A91
  8
2
 10
317.49997539714792
 20
1061.5
 30
0.0
 40
35.0
 50
156.26361086525719
 51
207.91899692173291
  0
LINE
  5
2A92
  8
0
 10
289.00000762939402
 20
1102.999999999998
 30
0.0
 11
289.00000762939402
 21
1077.9999999999991
 31
0.0
  0
ARC
  5
2A93
  8
0
 10
278.00000762939408
 20
1078.5
 30
0.0
 40
8.0
 50
269.9999053582286
 51
336.68262058020758
  0
ARC
  5
2A94
  8
0
 10
277.8952854758104
 20
1044.752805123404
 30
0.0
 40
8.0
 50
51.342993828470362
 51
89.999913604226023
  0
ARC
  5
2A95
  8
0
 10
372.10471452418818
 20
1044.752805123404
 30
0.0
 40
8.0
 50
90.000086395770708
 51
128.65700617152979
  0
ARC
  5
2A96
  8
0
 10
371.9999923706045
 20
1078.5
 30
0.0
 40
8.0
 50
203.31737941979239
 51
270.00009464176821
  0
LINE
  5
2A97
  8
0
 10
381.66056167057701
 20
1052.752805123404
 30
0.0
 11
372.1047024610566
 21
1052.752805123404
 31
0.0
  0
LINE
  5
2A98
  8
0
 10
382.42185615051272
 20
1070.5
 30
0.0
 11
364.3949303178893
 21
1070.5
 31
0.0
  0
LINE
  5
2A99
  8
0
 10
364.31827590022249
 20
1076.0841881109261
 30
0.0
 11
285.68172409977569
 21
1076.084188110925
 31
0.0
  0
LINE
  5
2A9A
  8
0
 10
360.99999237060462
 20
1102.999999999998
 30
0.0
 11
360.99999237060462
 21
1077.9999999999991
 31
0.0
  0
ARC
  5
2A9B
  8
2
 10
332.50002460285077
 20
1061.5
 30
0.0
 40
35.0
 50
332.08100307826709
 51
23.736389134719989
  0
LINE
  5
2A9C
  8
0
 10
360.99999237060462
 20
1077.999999999998
 30
0.0
 11
364.31827590023431
 21
1076.0841881109191
 31
0.0
  0
ARC
  5
2A9D
  8
0
 10
367.9999923706045
 20
1077.6478261226839
 30
0.0
 40
4.0
 50
203.01110317179081
 51
204.45935795256719
  0
LINE
  5
2A9E
  8
0
 10
361.00000762939362
 20
1077.9999999999991
 30
0.0
 11
289.00000762939538
 21
1077.9999999999991
 31
0.0
  0
LINE
  5
2A9F
  8
2
 10
361.50000000000051
 20
1043.9999999999991
 30
0.0
 11
288.49999999999949
 21
1043.9999999999991
 31
0.0
  0
LINE
  5
2AA0
  8
0
 10
532.99999999999909
 20
1016.999999999999
 30
0.0
 11
116.9999999999995
 21
1016.999999999999
 31
0.0
  0
LINE
  5
2AA1
  8
1
 10
324.99999999999949
 20
991.9999999999992
 30
0.0
 11
324.9999999999996
 21
1128.999999999998
 31
0.0
  0
ARC
  5
2AA2
  8
0
 10
532.99999999999909
 20
1033.9999999999991
 30
0.0
 40
17.0
 50
270.0
 51
90.0
  0
LINE
  5
2AA3
  8
0
 10
390.74185443254919
 20
1069.433957296065
 30
0.0
 11
461.49537926933448
 21
1050.9999999999991
 31
0.0
  0
LINE
  5
2AA4
  8
0
 10
385.06196636088953
 20
1052.362064041389
 30
0.0
 11
390.9121218276037
 21
1051.0
 31
0.0
  0
ARC
  5
2AA5
  8
0
 10
381.6605616705765
 20
1037.7528051234051
 30
0.0
 40
15.0
 50
76.893587498703099
 51
90.0
  0
ARC
  5
2AA6
  8
0
 10
382.42185615051272
 20
1037.5
 30
0.0
 40
33.0
 50
75.396932915012556
 51
90.0
  0
ARC
  5
2AA7
  8
0
 10
267.57814384948603
 20
1037.5
 30
0.0
 40
33.0
 50
90.0
 51
104.6030670849874
  0
ARC
  5
2AA8
  8
0
 10
268.33943832942208
 20
1037.7528051234051
 30
0.0
 40
15.0
 50
90.0
 51
103.1064125012969
  0
LINE
  5
2AA9
  8
0
 10
264.93803363910911
 20
1052.362064041389
 30
0.0
 11
259.08787817239408
 21
1050.9999999999991
 31
0.0
  0
LINE
  5
2AAA
  8
0
 10
259.2581455674499
 20
1069.433957296065
 30
0.0
 11
188.50462073066359
 21
1050.9999999999991
 31
0.0
  0
ARC
  5
2AAC
  8
0
 10
116.9999999999995
 20
1033.9999999999991
 30
0.0
 40
17.0
 50
90.0
 51
270.0
  0
LINE
  5
2AAD
  8
0
 10
267.57814384948603
 20
1070.5
 30
0.0
 11
285.60506968210939
 21
1070.5
 31
0.0
  0
LINE
  5
2AAE
  8
0
 10
268.33943832942208
 20
1052.752805123404
 30
0.0
 11
277.89529753894249
 21
1052.752805123404
 31
0.0
  0
LINE
  5
2AAF
  8
1
 10
574.99999999999909
 20
1033.9999999999991
 30
0.0
 11
74.999999999999545
 21
1033.9999999999991
 31
0.0
  0
LINE
  5
2AB0
  8
0
 10
532.99999999999909
 20
1051.0
 30
0.0
 11
116.9999999999995
 21
1050.9999999999991
 31
0.0
  0
ARC
  5
2AB2
  8
0
 10
290.00000762939408
 20
1102.999999999998
 30
0.0
 40
1.0
 50
90.0
 51
180.0
  0
ARC
  5
2AB3
  8
0
 10
359.99999237060462
 20
1102.999999999998
 30
0.0
 40
1.0
 50
0.0
 51
90.0
  0
LINE
  5
2AB4
  8
0
 10
359.99999237060462
 20
1103.999999999998
 30
0.0
 11
290.00000762939408
 21
1103.9999999999991
 31
0.0
  0
POLYLINE
  5
2AB5
  8
0
 66
     1
 10
0.0
 20
0.0
 30
0.0
 70
   128
  0
VERTEX
  5
34B5
  8
0
 10
789.13532131283
 20
640.21391552725777
 30
0.0
  0
VERTEX
  5
34B6
  8
0
 10
791.22629681706758
 20
640.3582548949779
 30
0.0
  0
VERTEX
  5
34B7
  8
0
 10
793.08376850793184
 20
640.7937157935919
 30
0.0
  0
VERTEX
  5
34B8
  8
0
 10
794.26404294034955
 20
641.37055526789095
 30
0.0
  0
VERTEX
  5
34B9
  8
0
 10
794.79959481587366
 20
641.94266889128801
 30
0.0
  0
VERTEX
  5
34BA
  8
0
 10
794.88557059449556
 20
642.28484895126883
 30
0.0
  0
SEQEND
  5
34BB
  8
0
  0
LINE
  5
2AB6
  8
0
 10
787.94446057078494
 20
640.21391552706052
 30
0.0
 11
789.13532136055755
 21
640.21391552706052
 31
0.0
  0
POLYLINE
  5
2AB7
  8
0
 66
     1
 10
0.0
 20
0.0
 30
0.0
 70
   128
  0
VERTEX
  5
34BC
  8
0
 10
794.86145912363281
 20
601.41178842115903
 30
0.0
  0
VERTEX
  5
34BD
  8
0
 10
794.60876949214105
 20
599.75723411144816
 30
0.0
  0
VERTEX
  5
34BE
  8
0
 10
793.73166162378266
 20
598.13996912604466
 30
0.0
  0
VERTEX
  5
34BF
  8
0
 10
792.46448807002571
 20
597.02772378791985
 30
0.0
  0
VERTEX
  5
34C0
  8
0
 10
790.87791768184115
 20
596.34444945968778
 30
0.0
  0
VERTEX
  5
34C1
  8
0
 10
789.13532133448325
 20
596.11943916848566
 30
0.0
  0
SEQEND
  5
34C2
  8
0
  0
LINE
  5
2AB8
  8
0
 10
789.13532137489574
 20
596.119439181384
 30
0.0
 11
780.05775838859881
 21
596.119439181384
 31
0.0
  0
POLYLINE
  5
2AB9
  8
0
 66
     1
 10
0.0
 20
0.0
 30
0.0
 70
   128
  0
VERTEX
  5
34C3
  8
0
 10
780.05775837459305
 20
596.11943916867301
 30
0.0
  0
VERTEX
  5
34C4
  8
0
 10
777.94889602327248
 20
596.45165958712437
 30
0.0
  0
VERTEX
  5
34C5
  8
0
 10
776.07609144663593
 20
597.49272431457007
 30
0.0
  0
VERTEX
  5
34C6
  8
0
 10
774.89648398358656
 20
598.96599236596364
 30
0.0
  0
VERTEX
  5
34C7
  8
0
 10
774.37323673775109
 20
600.55208550988368
 30
0.0
  0
VERTEX
  5
34C8
  8
0
 10
774.29472003739875
 20
601.53720371371469
 30
0.0
  0
SEQEND
  5
34C9
  8
0
  0
LINE
  5
2ABA
  8
0
 10
792.43395729599877
 20
610.54718784268505
 30
0.0
 11
773.99999999999955
 21
634.557240128074
 31
0.0
  0
POLYLINE
  5
2ABB
  8
0
 66
     1
 10
0.0
 20
0.0
 30
0.0
 70
   128
  0
VERTEX
  5
34CA
  8
0
 10
793.49999999958015
 20
608.02669301306184
 30
0.0
  0
VERTEX
  5
34CB
  8
0
 10
793.23850269131663
 20
609.27509765202899
 30
0.0
  0
VERTEX
  5
34CC
  8
0
 10
792.43395729629492
 20
610.54718781307179
 30
0.0
  0
SEQEND
  5
34CD
  8
0
  0
LINE
  5
2ABC
  8
0
 10
793.4999999999136
 20
604.41839031243933
 30
0.0
 11
793.49999999958163
 21
608.02669300232981
 31
0.0
  0
POLYLINE
  5
2ABD
  8
0
 66
     1
 10
0.0
 20
0.0
 30
0.0
 70
   128
  0
VERTEX
  5
34CE
  8
0
 10
794.86145912363281
 20
601.41178842115903
 30
0.0
  0
VERTEX
  5
34CF
  8
0
 10
793.75396712419251
 20
603.21699909767608
 30
0.0
  0
VERTEX
  5
34D0
  8
0
 10
793.5000000003879
 20
604.41839379606051
 30
0.0
  0
SEQEND
  5
34D1
  8
0
  0
POLYLINE
  5
2ABE
  8
0
 66
     1
 10
0.0
 20
0.0
 30
0.0
 70
   128
  0
VERTEX
  5
34D2
  8
0
 10
791.04620907178514
 20
636.7963280735238
 30
0.0
  0
VERTEX
  5
34D3
  8
0
 10
779.28135134928243
 20
649.75915537306525
 30
0.0
  0
VERTEX
  5
34D4
  8
0
 10
773.99999999999864
 20
655.53193015016575
 30
0.0
  0
SEQEND
  5
34D5
  8
0
  0
POLYLINE
  5
2ABF
  8
0
 66
     1
 10
0.0
 20
0.0
 30
0.0
 70
   128
  0
VERTEX
  5
34D6
  8
0
 10
793.48328110154443
 20
631.03644929929555
 30
0.0
  0
VERTEX
  5
34D7
  8
0
 10
793.20171621040072
 20
632.90006622278065
 30
0.0
  0
VERTEX
  5
34D8
  8
0
 10
792.61566714389335
 20
634.47737784815376
 30
0.0
  0
VERTEX
  5
34D9
  8
0
 10
791.86185665674248
 20
635.76733447192953
 30
0.0
  0
VERTEX
  5
34DA
  8
0
 10
791.04620906942955
 20
636.79632807614314
 30
0.0
  0
SEQEND
  5
34DB
  8
0
  0
POLYLINE
  5
2AC0
  8
0
 66
     1
 10
0.0
 20
0.0
 30
0.0
 70
   128
  0
VERTEX
  5
34DC
  8
0
 10
794.88557233981055
 20
577.36855580314818
 30
0.0
  0
VERTEX
  5
34DD
  8
0
 10
794.608770451287
 20
578.86836918057065
 30
0.0
  0
VERTEX
  5
34DE
  8
0
 10
793.73166343230923
 20
580.24520363376712
 30
0.0
  0
VERTEX
  5
34DF
  8
0
 10
792.46448613116854
 20
581.21334047098742
 30
0.0
  0
VERTEX
  5
34E0
  8
0
 10
790.87791564765075
 20
581.81673423127893
 30
0.0
  0
VERTEX
  5
34E1
  8
0
 10
789.13532135871765
 20
582.01688782816552
 30
0.0
  0
SEQEND
  5
34E2
  8
0
  0
LINE
  5
2AC1
  8
0
 10
780.05775837131841
 20
582.01688782806275
 30
0.0
 11
789.13532136060985
 21
582.01688782806275
 31
0.0
  0
POLYLINE
  5
2AC2
  8
0
 66
     1
 10
0.0
 20
0.0
 30
0.0
 70
   128
  0
VERTEX
  5
34E3
  8
0
 10
774.29476441023007
 20
577.39501772485153
 30
0.0
  0
VERTEX
  5
34E4
  8
0
 10
774.56812765355653
 20
578.87675787902833
 30
0.0
  0
VERTEX
  5
34E5
  8
0
 10
775.43362989806565
 20
580.2367353268163
 30
0.0
  0
VERTEX
  5
34E6
  8
0
 10
776.68678689532351
 20
581.19865965807526
 30
0.0
  0
VERTEX
  5
34E7
  8
0
 10
778.26772888744597
 20
581.80723161869889
 30
0.0
  0
VERTEX
  5
34E8
  8
0
 10
780.05775843204208
 20
582.01688782820554
 30
0.0
  0
SEQEND
  5
34E9
  8
0
  0
LINE
  5
2AC3
  8
0
 10
773.99999999999955
 20
497.82917391904658
 30
0.0
 11
792.43395729599877
 21
556.77106190033544
 31
0.0
  0
POLYLINE
  5
2AC4
  8
0
 66
     1
 10
0.0
 20
0.0
 30
0.0
 70
   128
  0
VERTEX
  5
34EA
  8
0
 10
792.43395729675149
 20
556.77106189692665
 30
0.0
  0
VERTEX
  5
34EB
  8
0
 10
793.23850268846809
 20
560.17909819003751
 30
0.0
  0
VERTEX
  5
34EC
  8
0
 10
793.49999999962745
 20
563.55899331106218
 30
0.0
  0
SEQEND
  5
34ED
  8
0
  0
LINE
  5
2AC5
  8
0
 10
793.49999999962711
 20
563.55899331927492
 30
0.0
 11
793.49999999945885
 21
572.4541663157014
 31
0.0
  0
POLYLINE
  5
2AC6
  8
0
 66
     1
 10
0.0
 20
0.0
 30
0.0
 70
   128
  0
VERTEX
  5
34EE
  8
0
 10
793.49999999999682
 20
572.45416486901729
 30
0.0
  0
VERTEX
  5
34EF
  8
0
 10
793.85464819805793
 20
574.96147153044137
 30
0.0
  0
VERTEX
  5
34F0
  8
0
 10
794.88558628318287
 20
577.36856767096094
 30
0.0
  0
SEQEND
  5
34F1
  8
0
  0
LINE
  5
2AC7
  8
0
 10
793.49999999962711
 20
549.55253874625646
 30
0.0
 11
793.49999999962711
 21
563.55899331927492
 31
0.0
  0
POLYLINE
  5
2AC8
  8
0
 66
     1
 10
0.0
 20
0.0
 30
0.0
 70
   128
  0
VERTEX
  5
34F2
  8
0
 10
792.38085634811569
 20
542.41957896544216
 30
0.0
  0
VERTEX
  5
34F3
  8
0
 10
793.23850268168678
 20
546.10371467021821
 30
0.0
  0
VERTEX
  5
34F4
  8
0
 10
793.49999999962745
 20
549.55253875106052
 30
0.0
  0
SEQEND
  5
34F5
  8
0
  0
POLYLINE
  5
2AC9
  8
0
 66
     1
 10
0.0
 20
0.0
 30
0.0
 70
   128
  0
VERTEX
  5
34F6
  8
0
 10
773.99999999999864
 20
485.86417567934569
 30
0.0
  0
VERTEX
  5
34F7
  8
0
 10
776.76669324668956
 20
494.3220351168892
 30
0.0
  0
VERTEX
  5
34F8
  8
0
 10
792.38085634811523
 20
542.41957896544034
 30
0.0
  0
SEQEND
  5
34F9
  8
0
  0
ARC
  5
2ACB
  8
2
 10
784.50000000000091
 20
609.50002460285054
 30
0.0
 40
35.0
 50
66.129869481952596
 51
117.9189969217329
  0
ARC
  5
2ACC
  8
0
 10
735.48801216545792
 20
703.73645154716689
 30
0.0
 40
154.7275947944608
 50
293.96433975166741
 51
294.2313541453405
  0
POLYLINE
  5
2ACE
  8
0
 66
     1
 10
0.0
 20
0.0
 30
0.0
 70
   128
  0
VERTEX
  5
34FA
  8
0
 10
294.40401190558993
 20
1066.1353213128509
 30
0.0
  0
VERTEX
  5
34FB
  8
0
 10
294.17417887372
 20
1068.226296818169
 30
0.0
  0
VERTEX
  5
34FC
  8
0
 10
293.46887810066983
 20
1070.0837685099229
 30
0.0
  0
VERTEX
  5
34FD
  8
0
 10
292.50267027646441
 20
1071.264042939941
 30
0.0
  0
VERTEX
  5
34FE
  8
0
 10
291.49922104675528
 20
1071.7995948154869
 30
0.0
  0
VERTEX
  5
34FF
  8
0
 10
290.8714850218276
 20
1071.8855705943261
 30
0.0
  0
SEQEND
  5
3500
  8
0
  0
LINE
  5
2ACF
  8
0
 10
294.40401190600102
 20
1057.057758371318
 30
0.0
 11
294.40401190600102
 21
1066.1353213606089
 31
0.0
  0
POLYLINE
  5
2AD0
  8
0
 66
     1
 10
0.0
 20
0.0
 30
0.0
 70
   128
  0
VERTEX
  5
3501
  8
0
 10
294.40401190591911
 20
1057.0577583711361
 30
0.0
  0
VERTEX
  5
3502
  8
0
 10
294.17226773564113
 20
1054.9488960211829
 30
0.0
  0
VERTEX
  5
3503
  8
0
 10
293.45999483684858
 20
1053.0760914461291
 30
0.0
  0
VERTEX
  5
3504
  8
0
 10
292.48784829859142
 20
1051.896483981252
 30
0.0
  0
VERTEX
  5
3505
  8
0
 10
291.4878000637782
 20
1051.373236736848
 30
0.0
  0
VERTEX
  5
3506
  8
0
 10
290.8908411574721
 20
1051.294720037243
 30
0.0
  0
SEQEND
  5
3507
  8
0
  0
LINE
  5
2AD1
  8
0
 10
306.91892063994868
 20
1064.923102967922
 30
0.0
 11
308.36759678789991
 21
1050.99999999999
 31
0.0
  0
ARC
  5
2AD2
  8
0
 10
313.08651800811867
 20
1064.3011194979149
 30
0.0
 40
6.1988806032074519
 50
90.010351194936305
 51
174.24136390754759
  0
LINE
  5
2AD3
  8
0
 10
343.0810793602991
 20
1064.923102970022
 30
0.0
 11
341.63240321211742
 21
1050.9999999999991
 31
0.0
  0
ARC
  5
2AD4
  8
0
 10
336.91348199225058
 20
1064.3011194979131
 30
0.0
 40
6.19888060329734
 50
5.7586361118988512
 51
89.989648815765804
  0
POLYLINE
  5
2AD5
  8
0
 66
     1
 10
0.0
 20
0.0
 30
0.0
 70
   128
  0
VERTEX
  5
3508
  8
0
 10
290.87148511505978
 20
1071.885616589095
 30
0.0
  0
VERTEX
  5
3509
  8
0
 10
288.30511187053889
 20
1070.8541809834969
 30
0.0
  0
VERTEX
  5
350A
  8
0
 10
285.60506968505979
 20
1070.500000000387
 30
0.0
  0
SEQEND
  5
350B
  8
0
  0
POLYLINE
  5
2AD6
  8
0
 66
     1
 10
0.0
 20
0.0
 30
0.0
 70
   128
  0
VERTEX
  5
350C
  8
0
 10
355.59598809440922
 20
1066.1353213128509
 30
0.0
  0
VERTEX
  5
350D
  8
0
 10
355.82582112627921
 20
1068.226296818169
 30
0.0
  0
VERTEX
  5
350E
  8
0
 10
356.53112189932932
 20
1070.0837685099229
 30
0.0
  0
VERTEX
  5
350F
  8
0
 10
357.49732972353468
 20
1071.264042939941
 30
0.0
  0
VERTEX
  5
3510
  8
0
 10
358.50077895324381
 20
1071.7995948154869
 30
0.0
  0
VERTEX
  5
3511
  8
0
 10
359.12851497817149
 20
1071.8855705943261
 30
0.0
  0
SEQEND
  5
3512
  8
0
  0
LINE
  5
2AD7
  8
0
 10
355.59598809399807
 20
1057.057758371318
 30
0.0
 11
355.59598809399807
 21
1066.1353213606089
 31
0.0
  0
POLYLINE
  5
2AD8
  8
0
 66
     1
 10
0.0
 20
0.0
 30
0.0
 70
   128
  0
VERTEX
  5
3513
  8
0
 10
355.59598809407998
 20
1057.0577583711361
 30
0.0
  0
VERTEX
  5
3514
  8
0
 10
355.82773226435802
 20
1054.9488960211829
 30
0.0
  0
VERTEX
  5
3515
  8
0
 10
356.54000516315051
 20
1053.0760914461291
 30
0.0
  0
VERTEX
  5
3516
  8
0
 10
357.51215170140767
 20
1051.896483981252
 30
0.0
  0
VERTEX
  5
3517
  8
0
 10
358.5121999362209
 20
1051.373236736848
 30
0.0
  0
VERTEX
  5
3518
  8
0
 10
359.10915884252699
 20
1051.294720037243
 30
0.0
  0
SEQEND
  5
3519
  8
0
  0
POLYLINE
  5
2AD9
  8
0
 66
     1
 10
0.0
 20
0.0
 30
0.0
 70
   128
  0
VERTEX
  5
351A
  8
0
 10
359.12851488493919
 20
1071.885616589095
 30
0.0
  0
VERTEX
  5
351B
  8
0
 10
361.6948881294602
 20
1070.8541809834969
 30
0.0
  0
VERTEX
  5
351C
  8
0
 10
364.3949303149393
 20
1070.500000000387
 30
0.0
  0
SEQEND
  5
351D
  8
0
  0
POLYLINE
  5
2ADA
  8
0
 66
     1
 10
0.0
 20
0.0
 30
0.0
 70
   128
  0
VERTEX
  5
351E
  8
0
 10
332.4141500004385
 20
137.86467868714931
 30
0.0
  0
VERTEX
  5
351F
  8
0
 10
332.74131089734101
 20
135.77370318065431
 30
0.0
  0
VERTEX
  5
3520
  8
0
 10
333.75951644356752
 20
133.9162314881093
 30
0.0
  0
VERTEX
  5
3521
  8
0
 10
335.19186748929809
 20
132.735957058331
 30
0.0
  0
VERTEX
  5
3522
  8
0
 10
336.7307069031317
 20
132.20040518331069
 30
0.0
  0
VERTEX
  5
3523
  8
0
 10
337.7232759126905
 20
132.1144294056582
 30
0.0
  0
SEQEND
  5
3524
  8
0
  0
LINE
  5
2ADB
  8
0
 10
332.41415000000188
 20
146.9422416286809
 30
0.0
 11
332.41415000000188
 21
137.86467863938941
 31
0.0
  0
POLYLINE
  5
2ADC
  8
0
 66
     1
 10
0.0
 20
0.0
 30
0.0
 70
   128
  0
VERTEX
  5
3525
  8
0
 10
332.41415000034931
 20
146.94224162886229
 30
0.0
  0
VERTEX
  5
3526
  8
0
 10
332.74404066129819
 20
149.051103983639
 30
0.0
  0
VERTEX
  5
3527
  8
0
 10
333.77248250279939
 20
150.9239085615088
 30
0.0
  0
VERTEX
  5
3528
  8
0
 10
335.21420133802849
 20
152.10351602332301
 30
0.0
  0
VERTEX
  5
3529
  8
0
 10
336.74854989281772
 20
152.6267632636015
 30
0.0
  0
VERTEX
  5
352A
  8
0
 10
337.6922981896019
 20
152.70527996268601
 30
0.0
  0
SEQEND
  5
352B
  8
0
  0
POLYLINE
  5
2ADD
  8
0
 66
     1
 10
0.0
 20
0.0
 30
0.0
 70
   128
  0
VERTEX
  5
352C
  8
0
 10
374.27120385338412
 20
134.98336711139271
 30
0.0
  0
VERTEX
  5
352D
  8
0
 10
400.08442421745121
 20
146.71418352211251
 30
0.0
  0
VERTEX
  5
352E
  8
0
 10
413.80524278515571
 20
153.00000000000071
 30
0.0
  0
SEQEND
  5
352F
  8
0
  0
POLYLINE
  5
2ADE
  8
0
 66
     1
 10
0.0
 20
0.0
 30
0.0
 70
   128
  0
VERTEX
  5
3530
  8
0
 10
370.32189544163839
 20
133.80528157014919
 30
0.0
  0
VERTEX
  5
3531
  8
0
 10
371.3536913059375
 20
133.952486546518
 30
0.0
  0
VERTEX
  5
3532
  8
0
 10
374.2712038531331
 20
134.98336711126899
 30
0.0
  0
SEQEND
  5
3533
  8
0
  0
LINE
  5
2ADF
  8
0
 10
396.8821983502944
 20
152.9999999999998
 30
0.0
 11
353.27178246649743
 21
134.56604270400041
 31
0.0
  0
POLYLINE
  5
2AE0
  8
0
 66
     1
 10
0.0
 20
0.0
 30
0.0
 70
   128
  0
VERTEX
  5
3534
  8
0
 10
353.2717824830338
 20
134.56604270369709
 30
0.0
  0
VERTEX
  5
3535
  8
0
 10
350.81129443191958
 20
133.76149731831239
 30
0.0
  0
VERTEX
  5
3536
  8
0
 10
348.37805321800028
 20
133.5000000003717
 30
0.0
  0
SEQEND
  5
3537
  8
0
  0
LINE
  5
2AE1
  8
0
 10
348.37805320820053
 20
133.50000000037221
 30
0.0
 11
341.80458655813942
 21
133.50000000000159
 31
0.0
  0
POLYLINE
  5
2AE2
  8
0
 66
     1
 10
0.0
 20
0.0
 30
0.0
 70
   128
  0
VERTEX
  5
3538
  8
0
 10
337.72326949982522
 20
132.1144148121609
 30
0.0
  0
VERTEX
  5
3539
  8
0
 10
339.73868725525023
 20
133.14583218560139
 30
0.0
  0
VERTEX
  5
353A
  8
0
 10
341.80459025925262
 20
133.5000000000025
 30
0.0
  0
SEQEND
  5
353B
  8
0
  0
POLYLINE
  5
2AE3
  8
0
 66
     1
 10
0.0
 20
0.0
 30
0.0
 70
   128
  0
VERTEX
  5
353C
  8
0
 10
317.58584999956111
 20
137.86467868714931
 30
0.0
  0
VERTEX
  5
353D
  8
0
 10
317.25868910265848
 20
135.77370318065431
 30
0.0
  0
VERTEX
  5
353E
  8
0
 10
316.24048355643208
 20
133.9162314881093
 30
0.0
  0
VERTEX
  5
353F
  8
0
 10
314.8081325107014
 20
132.735957058331
 30
0.0
  0
VERTEX
  5
3540
  8
0
 10
313.2692930968679
 20
132.20040518331069
 30
0.0
  0
VERTEX
  5
3541
  8
0
 10
312.27672408730899
 20
132.1144294056582
 30
0.0
  0
SEQEND
  5
3542
  8
0
  0
LINE
  5
2AE4
  8
0
 10
301.62194679179902
 20
133.50000000037221
 30
0.0
 11
308.19541344186018
 21
133.50000000000159
 31
0.0
  0
LINE
  5
2AE5
  8
0
 10
253.11780164970469
 20
152.9999999999998
 30
0.0
 11
296.72821753350217
 21
134.56604270400041
 31
0.0
  0
POLYLINE
  5
2AE6
  8
0
 66
     1
 10
0.0
 20
0.0
 30
0.0
 70
   128
  0
VERTEX
  5
3543
  8
0
 10
312.27673050017438
 20
132.1144148121609
 30
0.0
  0
VERTEX
  5
3544
  8
0
 10
310.26131274474938
 20
133.14583218560139
 30
0.0
  0
VERTEX
  5
3545
  8
0
 10
308.19540974074698
 20
133.5000000000025
 30
0.0
  0
SEQEND
  5
3546
  8
0
  0
POLYLINE
  5
2AE7
  8
0
 66
     1
 10
0.0
 20
0.0
 30
0.0
 70
   128
  0
VERTEX
  5
3547
  8
0
 10
296.72821751696569
 20
134.56604270369709
 30
0.0
  0
VERTEX
  5
3548
  8
0
 10
299.18870556808002
 20
133.76149731831239
 30
0.0
  0
VERTEX
  5
3549
  8
0
 10
301.62194678199921
 20
133.5000000003717
 30
0.0
  0
SEQEND
  5
354A
  8
0
  0
POLYLINE
  5
2AE8
  8
0
 66
     1
 10
0.0
 20
0.0
 30
0.0
 70
   128
  0
VERTEX
  5
354B
  8
0
 10
317.58584999965018
 20
146.94224162886229
 30
0.0
  0
VERTEX
  5
354C
  8
0
 10
317.25595933870142
 20
149.051103983639
 30
0.0
  0
VERTEX
  5
354D
  8
0
 10
316.2275174972001
 20
150.9239085615088
 30
0.0
  0
VERTEX
  5
354E
  8
0
 10
314.785798661971
 20
152.10351602332301
 30
0.0
  0
VERTEX
  5
354F
  8
0
 10
313.25145010718188
 20
152.6267632636015
 30
0.0
  0
VERTEX
  5
3550
  8
0
 10
312.3077018103977
 20
152.70527996268601
 30
0.0
  0
SEQEND
  5
3551
  8
0
  0
LINE
  5
2AE9
  8
0
 10
317.58584999999772
 20
146.9422416286809
 30
0.0
 11
317.58584999999772
 21
137.86467863938941
 31
0.0
  0
POLYLINE
  5
2AEA
  8
0
 66
     1
 10
0.0
 20
0.0
 30
0.0
 70
   128
  0
VERTEX
  5
3552
  8
0
 10
275.72879614661542
 20
134.98336711139271
 30
0.0
  0
VERTEX
  5
3553
  8
0
 10
249.9155757825483
 20
146.71418352211251
 30
0.0
  0
VERTEX
  5
3554
  8
0
 10
236.1947572148438
 20
153.00000000000071
 30
0.0
  0
SEQEND
  5
3555
  8
0
  0
POLYLINE
  5
2AEB
  8
0
 66
     1
 10
0.0
 20
0.0
 30
0.0
 70
   128
  0
VERTEX
  5
3556
  8
0
 10
279.67810455836121
 20
133.80528157014919
 30
0.0
  0
VERTEX
  5
3557
  8
0
 10
278.6463086940621
 20
133.952486546518
 30
0.0
  0
VERTEX
  5
3558
  8
0
 10
275.72879614686639
 20
134.98336711126899
 30
0.0
  0
SEQEND
  5
3559
  8
0
  0
LINE
  5
2AF2
  8
1
 10
715.0
 20
797.99999999999898
 30
0.0
 11
799.0
 21
797.9999999999992
 31
0.0
  0
LINE
  5
3401
  8
0
 10
364.35897003545182
 20
128.0083611719507
 30
0.0
 11
364.65338149838101
 21
128.6665925996424
 31
0.0
  0
LINE
  5
3402
  8
0
 10
285.34661850161859
 20
128.6665925996424
 30
0.0
 11
285.64102996454869
 21
128.00836117194871
 31
0.0
  0
LINE
  5
3403
  8
0
 10
364.35897003545108
 20
1075.9916388280481
 30
0.0
 11
364.65338149838061
 21
1075.333407400356
 31
0.0
  0
LINE
  5
3404
  8
0
 10
285.64102996454727
 20
1075.9916388280481
 30
0.0
 11
285.34661850161802
 21
1075.333407400356
 31
0.0
  0
TEXT
  5
3474
  8
0
 62
     3
 10
0.0
 20
0.0
 30
0.0
 40
10.0
  1
V450
  7
STANDARD1
  0
ENDSEC
  0
EOF
