  0
SECTION
  2
HEADER
  9
$ACADVER
  1
AC1009
  9
$INSBASE
 10
0.0
 20
0.0
 30
0.0
  9
$EXTMIN
 10
0.0
 20
-2.960436562073669
 30
0.0
  9
$EXTMAX
 10
90.081855388813096
 20
215.79396236588099
 30
0.0
  9
$LIMMIN
 10
0.0
 20
0.0
  9
$LIMMAX
 10
750.0
 20
540.0
  9
$ORTHOMODE
 70
     1
  9
$REGENMODE
 70
     1
  9
$FILLMODE
 70
     1
  9
$QTEXTMODE
 70
     0
  9
$MIRRTEXT
 70
     0
  9
$DRAGMODE
 70
     2
  9
$LTSCALE
 40
20.0
  9
$OSMODE
 70
  3071
  9
$ATTMODE
 70
     1
  9
$TEXTSIZE
 40
0.2
  9
$TRACEWID
 40
0.05
  9
$TEXTSTYLE
  7
STANDARD
  9
$CLAYER
  8
0
  9
$CELTYPE
  6
BYLAYER
  9
$CECOLOR
 62
   256
  9
$DIMSCALE
 40
1.0
  9
$DIMASZ
 40
3.0
  9
$DIMEXO
 40
2.0
  9
$DIMDLI
 40
0.38
  9
$DIMRND
 40
0.0
  9
$DIMDLE
 40
0.0
  9
$DIMEXE
 40
2.0
  9
$DIMTP
 40
0.0
  9
$DIMTM
 40
0.0
  9
$DIMTXT
 40
3.2000000000000002
  9
$DIMCEN
 40
0.0
  9
$DIMTSZ
 40
0.0
  9
$DIMTOL
 70
     0
  9
$DIMLIM
 70
     0
  9
$DIMTIH
 70
     0
  9
$DIMTOH
 70
     0
  9
$DIMSE1
 70
     0
  9
$DIMSE2
 70
     0
  9
$DIMTAD
 70
     1
  9
$DIMZIN
 70
     0
  9
$DIMBLK
  1

  9
$DIMASO
 70
     0
  9
$DIMSHO
 70
     0
  9
$DIMPOST
  1

  9
$DIMAPOST
  1

  9
$DIMALT
 70
     0
  9
$DIMALTD
 70
     2
  9
$DIMALTF
 40
25.399999999999999
  9
$DIMLFAC
 40
1.0
  9
$DIMTOFL
 70
     0
  9
$DIMTVP
 40
1.6000000000000001
  9
$DIMTIX
 70
     1
  9
$DIMSOXD
 70
     0
  9
$DIMSAH
 70
     0
  9
$DIMBLK1
  1

  9
$DIMBLK2
  1

  9
$DIMSTYLE
  2
STANDARD
  9
$DIMCLRD
 70
     0
  9
$DIMCLRE
 70
     0
  9
$DIMCLRT
 70
     0
  9
$DIMTFAC
 40
1.0
  9
$DIMGAP
 40
0.09
  9
$LUNITS
 70
     2
  9
$LUPREC
 70
     4
  9
$SKETCHINC
 40
0.1
  9
$FILLETRAD
 40
0.0
  9
$AUNITS
 70
     0
  9
$AUPREC
 70
     4
  9
$MENU
  1
E:\r13\win\SUPPORT\ACAD
  9
$ELEVATION
 40
0.0
  9
$PELEVATION
 40
0.0
  9
$THICKNESS
 40
0.0
  9
$LIMCHECK
 70
     0
  9
$BLIPMODE
 70
     0
  9
$CHAMFERA
 40
0.0
  9
$CHAMFERB
 40
0.0
  9
$SKPOLY
 70
     0
  9
$TDCREATE
 40
2449840.6227546302
  9
$TDUPDATE
 40
2456602.6127278698
  9
$TDINDWG
 40
0.0273303241
  9
$TDUSRTIMER
 40
2456598.370900128
  9
$USRTIMER
 70
     1
  9
$ANGBASE
 50
0.0
  9
$ANGDIR
 70
     0
  9
$PDMODE
 70
     0
  9
$PDSIZE
 40
0.0
  9
$PLINEWID
 40
0.0
  9
$COORDS
 70
     1
  9
$SPLFRAME
 70
     0
  9
$SPLINETYPE
 70
     6
  9
$SPLINESEGS
 70
     8
  9
$ATTDIA
 70
     0
  9
$ATTREQ
 70
     1
  9
$HANDLING
 70
     1
  9
$HANDSEED
  5
77C
  9
$SURFTAB1
 70
     6
  9
$SURFTAB2
 70
     6
  9
$SURFTYPE
 70
     6
  9
$SURFU
 70
     6
  9
$SURFV
 70
     6
  9
$UCSNAME
  2

  9
$UCSORG
 10
0.0
 20
0.0
 30
0.0
  9
$UCSXDIR
 10
1.0
 20
0.0
 30
0.0
  9
$UCSYDIR
 10
0.0
 20
1.0
 30
0.0
  9
$PUCSNAME
  2

  9
$PUCSORG
 10
0.0
 20
0.0
 30
0.0
  9
$PUCSXDIR
 10
1.0
 20
0.0
 30
0.0
  9
$PUCSYDIR
 10
0.0
 20
1.0
 30
0.0
  9
$USERI1
 70
     0
  9
$USERI2
 70
     1
  9
$USERI3
 70
     0
  9
$USERI4
 70
     0
  9
$USERI5
 70
     0
  9
$USERR1
 40
0.0
  9
$USERR2
 40
0.0
  9
$USERR3
 40
0.0
  9
$USERR4
 40
0.0
  9
$USERR5
 40
0.0
  9
$WORLDVIEW
 70
     1
  9
$SHADEDGE
 70
     3
  9
$SHADEDIF
 70
    70
  9
$TILEMODE
 70
     1
  9
$MAXACTVP
 70
    16
  9
$PLIMCHECK
 70
     0
  9
$PEXTMIN
 10
1.0000000000000000E+020
 20
1.0000000000000000E+020
 30
1.0000000000000000E+020
  9
$PEXTMAX
 10
-1.0000000000000000E+020
 20
-1.0000000000000000E+020
 30
-1.0000000000000000E+020
  9
$PLIMMIN
 10
0.0
 20
0.0
  9
$PLIMMAX
 10
12.0
 20
9.0
  9
$UNITMODE
 70
     0
  9
$VISRETAIN
 70
     0
  9
$PLINEGEN
 70
     0
  9
$PSLTSCALE
 70
     0
  0
ENDSEC
  0
SECTION
  2
TABLES
  0
TABLE
  2
VPORT
 70
     1
  0
VPORT
  2
*ACTIVE
 70
     0
 10
0.0
 20
0.0
 11
1.0
 21
1.0
 12
367.41563342245701
 22
55.833353503706263
 13
0.0
 23
0.0
 14
20.0
 24
20.0
 15
20.0
 25
20.0
 16
0.0
 26
0.0
 36
1.0
 17
0.0
 27
0.0
 37
0.0
 40
495.35821432139329
 41
1.831871345029239
 42
50.0
 43
0.0
 44
0.0
 50
0.0
 51
0.0
 71
    16
 72
   100
 73
     1
 74
     0
 75
     0
 76
     0
 77
     0
 78
     2
  0
ENDTAB
  0
TABLE
  2
LTYPE
 70
     4
  0
LTYPE
  2
CONTINUOUS
 70
     0
  3
Solid Line
 72
    65
 73
     0
 40
0.0
  0
LTYPE
  2
PHANTOM2
 70
     0
  3
___ _ _ ___ _ _ ___ _ _ ___ _ _
 72
    65
 73
     6
 40
1.25
 49
0.625
 49
-0.125
 49
0.125
 49
-0.125
 49
0.125
 49
-0.125
  0
LTYPE
  2
CENTER
 70
     0
  3
____ _ ____ _ ____ _ ____ _ ____ _ ____ _ ____
 72
    65
 73
     4
 40
2.0
 49
1.25
 49
-0.25
 49
0.25
 49
-0.25
  0
LTYPE
  2
HIDDEN
 70
     0
  3
_ _ _ _ _ _ _ _ _ _ _ _ _ _ _ _ _ _ _ _ _ _ _
 72
    65
 73
     2
 40
0.375
 49
0.25
 49
-0.125
  0
ENDTAB
  0
TABLE
  2
LAYER
 70
     4
  0
LAYER
  2
0
 70
     0
 62
     7
  6
CONTINUOUS
  0
LAYER
  2
1
 70
     0
 62
     1
  6
CENTER
  0
LAYER
  2
2
 70
     0
 62
     2
  6
HIDDEN
  0
LAYER
  2
3
 70
     0
 62
     3
  6
CONTINUOUS
  0
ENDTAB
  0
TABLE
  2
STYLE
 70
     3
  0
STYLE
  2
STANDARD
 70
     0
 40
0.0
 41
1.0
 50
0.0
 71
     0
 42
0.2
  3
TXT
  4
BIGFONT
  0
STYLE
  2
ANNOTATIVE
 70
     0
 40
0.0
 41
1.0
 50
0.0
 71
     0
 42
0.2
  3
txt
  4

  0
STYLE
  2
STANDARD1
 70
     0
 40
0.0
 41
1.0
 50
0.0
 71
     0
 42
3.0
  3
txt
  4

  0
ENDTAB
  0
TABLE
  2
VIEW
 70
     1
  0
VIEW
  2
ALL
 70
     0
 40
540.0
 10
441.98319299999991
 20
270.0
 41
0.0
 11
0.0
 21
0.0
 31
1.0
 12
0.0
 22
0.0
 32
0.0
 42
0.0
 43
0.0
 44
0.0
 50
0.0
 71
     0
  0
ENDTAB
  0
TABLE
  2
UCS
 70
     0
  0
ENDTAB
  0
TABLE
  2
APPID
 70
     7
  0
APPID
  2
ACAD
 70
     0
  0
APPID
  2
ACADANNOTATIVE
 70
     0
  0
APPID
  2
ACAD_NAV_VCDISPLAY
 70
     0
  0
APPID
  2
ACAD_EXEMPT_FROM_CAD_STANDARDS
 70
     0
  0
APPID
  2
ACAD_DSTYLE_DIMJAG
 70
     0
  0
APPID
  2
ACAD_DSTYLE_DIMTALN
 70
     0
  0
APPID
  2
ACAD_MLEADERVER
 70
     0
  0
ENDTAB
  0
TABLE
  2
DIMSTYLE
 70
     2
  0
DIMSTYLE
  2
STANDARD
 70
     0
  3

  4

  5

  6

  7

 40
1.0
 41
0.18
 42
0.0625
 43
0.38
 44
0.18
 45
0.0
 46
0.0
 47
0.0
 48
0.0
140
0.18
141
0.09
142
0.0
143
25.399999999999999
144
1.0
145
0.0
146
1.0
147
0.09
 71
     0
 72
     0
 73
     1
 74
     1
 75
     0
 76
     0
 77
     0
 78
     0
170
     0
171
     2
172
     0
173
     0
174
     0
175
     0
176
     0
177
     0
178
     0
  0
DIMSTYLE
  2
ANNOTATIVE
 70
     0
  3

  4

  5

  6

  7

 40
1.0
 41
0.18
 42
0.0625
 43
0.38
 44
0.18
 45
0.0
 46
0.0
 47
0.0
 48
0.0
140
0.18
141
0.09
142
0.0
143
25.399999999999999
144
1.0
145
0.0
146
1.0
147
0.09
 71
     0
 72
     0
 73
     1
 74
     1
 75
     0
 76
     0
 77
     0
 78
     0
170
     0
171
     2
172
     0
173
     0
174
     0
175
     0
176
     0
177
     0
178
     0
  0
ENDTAB
  0
ENDSEC
  0
SECTION
  2
BLOCKS
  0
BLOCK
  8
0
  2
$MODEL_SPACE
 70
     0
 10
0.0
 20
0.0
 30
0.0
  3
$MODEL_SPACE
  1

  0
ENDBLK
  5
688
  8
0
  0
BLOCK
 67
     1
  8
0
  2
$PAPER_SPACE
 70
     0
 10
0.0
 20
0.0
 30
0.0
  3
$PAPER_SPACE
  1

  0
ENDBLK
  5
684
 67
     1
  8
0
  0
ENDSEC
  0
SECTION
  2
ENTITIES
  0
CIRCLE
  5
57A
  8
0
 10
53.966872676157656
 20
56.35191763332692
 30
0.0
 40
4.1879999999999979
  0
LINE
  5
57B
  8
1
 10
26.966872676157671
 20
56.35191763332692
 30
0.0
 11
80.966872676157678
 21
56.35191763332692
 31
0.0
  0
LINE
  5
57C
  8
1
 10
53.966872676157656
 20
29.35191763332692
 30
0.0
 11
53.966872676157656
 21
83.351917633326934
 31
0.0
  0
CIRCLE
  5
57D
  8
0
 10
53.966872676157656
 20
56.35191763332692
 30
0.0
 40
25.0
  0
LINE
  5
587
  8
2
 10
58.046872676157662
 20
99.384939999603986
 30
0.0
 11
58.046872676157662
 21
108.572939999604
 31
0.0
  0
LINE
  5
588
  8
2
 10
49.886872676157658
 20
108.572939999604
 30
0.0
 11
49.886872676157658
 21
99.384939999603986
 31
0.0
  0
LINE
  5
58D
  8
2
 10
49.886872676157658
 20
99.384939999603986
 30
0.0
 11
58.046872676157662
 21
99.384939999603986
 31
0.0
  0
LINE
  5
58E
  8
2
 10
58.966872676157656
 20
108.572939999604
 30
0.0
 11
58.966872676157656
 21
98.572939999603975
 31
0.0
  0
LINE
  5
58F
  8
2
 10
48.966872676157656
 20
108.572939999604
 30
0.0
 11
48.966872676157656
 21
98.572939999603975
 31
0.0
  0
LINE
  5
590
  8
1
 10
53.966872676157656
 20
148.57293999960399
 30
0.0
 11
53.966872676157656
 21
96.572939999603975
 31
0.0
  0
LINE
  5
591
  8
0
 10
78.966872676157664
 20
98.572939999603975
 30
0.0
 11
78.966872676157664
 21
118.5729399996039
 31
0.0
  0
LINE
  5
592
  8
0
 10
28.96687267615766
 20
118.5729399996039
 30
0.0
 11
28.96687267615766
 21
98.572939999603975
 31
0.0
  0
LINE
  5
593
  8
0
 10
58.966872676157656
 20
145.652939999604
 30
0.0
 11
58.046872676157662
 21
146.5729399996039
 31
0.0
  0
LINE
  5
594
  8
0
 10
49.886872676157658
 20
146.5729399996039
 30
0.0
 11
48.966872676157656
 21
145.652939999604
 31
0.0
  0
LINE
  5
595
  8
0
 10
58.966872676157656
 20
118.5729399996039
 30
0.0
 11
58.966872676157656
 21
145.652939999604
 31
0.0
  0
LINE
  5
596
  8
0
 10
48.966872676157656
 20
145.652939999604
 30
0.0
 11
48.966872676157656
 21
118.5729399996039
 31
0.0
  0
LINE
  5
597
  8
0
 10
28.96687267615766
 20
118.5729399996039
 30
0.0
 11
78.966872676157664
 21
118.5729399996039
 31
0.0
  0
LINE
  5
598
  8
0
 10
28.96687267615766
 20
98.572939999603975
 30
0.0
 11
78.966872676157664
 21
98.572939999603975
 31
0.0
  0
LINE
  5
599
  8
0
 10
49.886872676157658
 20
146.5729399996039
 30
0.0
 11
58.046872676157662
 21
146.5729399996039
 31
0.0
  0
LINE
  5
59A
  8
0
 10
48.966872676157656
 20
145.652939999604
 30
0.0
 11
58.966872676157656
 21
145.652939999604
 31
0.0
  0
LINE
  5
59B
  8
3
 10
58.046872676157662
 20
146.5729399996039
 30
0.0
 11
58.046872676157662
 21
119.5729399996039
 31
0.0
  0
LINE
  5
59C
  8
3
 10
58.966872676157656
 20
118.5729399996039
 30
0.0
 11
58.046872676157662
 21
119.5729399996039
 31
0.0
  0
LINE
  5
59D
  8
0
 10
58.966872676157656
 20
119.5729399996039
 30
0.0
 11
48.966872676157656
 21
119.5729399996039
 31
0.0
  0
LINE
  5
59E
  8
3
 10
49.886872676157658
 20
146.5729399996039
 30
0.0
 11
49.886872676157658
 21
119.5729399996039
 31
0.0
  0
LINE
  5
59F
  8
3
 10
48.966872676157656
 20
118.5729399996039
 30
0.0
 11
49.886872676157658
 21
119.5729399996039
 31
0.0
  0
CIRCLE
  5
5A0
  8
3
 10
53.966872676157656
 20
56.35191763332692
 30
0.0
 40
4.9999999999999991
  0
LINE
  5
5A1
  8
2
 10
48.966872676157656
 20
108.572939999604
 30
0.0
 11
58.966872676157656
 21
108.572939999604
 31
0.0
  0
LINE
  5
5A7
  8
2
 10
58.046872676157662
 20
99.384939999603986
 30
0.0
 11
58.966872676157656
 21
98.572939999603975
 31
0.0
  0
LINE
  5
5A8
  8
2
 10
48.966872676157656
 20
98.572939999603975
 30
0.0
 11
49.886872676157658
 21
99.384939999603986
 31
0.0
  0
CIRCLE
  5
5AB
  8
3
 10
53.966872676157656
 20
188.79396236588099
 30
0.0
 40
4.1879999999999979
  0
LINE
  5
5AC
  8
1
 10
26.966872676157671
 20
188.79396236588099
 30
0.0
 11
80.966872676157678
 21
188.79396236588099
 31
0.0
  0
LINE
  5
5AD
  8
1
 10
53.966872676157656
 20
215.79396236588099
 30
0.0
 11
53.966872676157656
 21
161.79396236588099
 31
0.0
  0
CIRCLE
  5
5AE
  8
0
 10
53.966872676157656
 20
188.79396236588099
 30
0.0
 40
25.0
  0
CIRCLE
  5
5AF
  8
0
 10
53.966872676157656
 20
188.79396236588099
 30
0.0
 40
4.9999999999999991
  0
TEXT
  5
70E
  8
0
 62
     3
 10
0.0
 20
0.0
 30
0.0
 40
10.0
  1
VD2-5020M10
  7
STANDARD1
  0
ENDSEC
  0
EOF
