  0
SECTION
  2
HEADER
  9
$ACADVER
  1
AC1009
  9
$INSBASE
 10
0.0
 20
0.0
 30
0.0
  9
$EXTMIN
 10
0.0
 20
-2.960436562073669
 30
0.0
  9
$EXTMAX
 10
107.93997271487039
 20
224.0
 30
0.0
  9
$LIMMIN
 10
0.0
 20
0.0
  9
$LIMMAX
 10
750.0
 20
540.0
  9
$ORTHOMODE
 70
     1
  9
$REGENMODE
 70
     1
  9
$FILLMODE
 70
     1
  9
$QTEXTMODE
 70
     0
  9
$MIRRTEXT
 70
     0
  9
$DRAGMODE
 70
     2
  9
$LTSCALE
 40
5.0
  9
$OSMODE
 70
    37
  9
$ATTMODE
 70
     1
  9
$TEXTSIZE
 40
0.2
  9
$TRACEWID
 40
0.05
  9
$TEXTSTYLE
  7
STANDARD
  9
$CLAYER
  8
0
  9
$CELTYPE
  6
BYLAYER
  9
$CECOLOR
 62
   256
  9
$DIMSCALE
 40
1.0
  9
$DIMASZ
 40
3.0
  9
$DIMEXO
 40
1.0
  9
$DIMDLI
 40
0.38
  9
$DIMRND
 40
0.0
  9
$DIMDLE
 40
0.0
  9
$DIMEXE
 40
1.0
  9
$DIMTP
 40
0.0
  9
$DIMTM
 40
0.0
  9
$DIMTXT
 40
3.0
  9
$DIMCEN
 40
0.0
  9
$DIMTSZ
 40
0.0
  9
$DIMTOL
 70
     0
  9
$DIMLIM
 70
     0
  9
$DIMTIH
 70
     0
  9
$DIMTOH
 70
     0
  9
$DIMSE1
 70
     0
  9
$DIMSE2
 70
     0
  9
$DIMTAD
 70
     1
  9
$DIMZIN
 70
     8
  9
$DIMBLK
  1

  9
$DIMASO
 70
     0
  9
$DIMSHO
 70
     0
  9
$DIMPOST
  1

  9
$DIMAPOST
  1

  9
$DIMALT
 70
     0
  9
$DIMALTD
 70
     2
  9
$DIMALTF
 40
25.399999999999999
  9
$DIMLFAC
 40
1.0
  9
$DIMTOFL
 70
     0
  9
$DIMTVP
 40
1.6000000000000001
  9
$DIMTIX
 70
     0
  9
$DIMSOXD
 70
     0
  9
$DIMSAH
 70
     0
  9
$DIMBLK1
  1

  9
$DIMBLK2
  1

  9
$DIMSTYLE
  2
STANDARD
  9
$DIMCLRD
 70
     0
  9
$DIMCLRE
 70
     0
  9
$DIMCLRT
 70
     0
  9
$DIMTFAC
 40
1.0
  9
$DIMGAP
 40
1.0
  9
$LUNITS
 70
     2
  9
$LUPREC
 70
     1
  9
$SKETCHINC
 40
0.1
  9
$FILLETRAD
 40
0.0
  9
$AUNITS
 70
     0
  9
$AUPREC
 70
     1
  9
$MENU
  1
E:\r13\win\SUPPORT\ACAD
  9
$ELEVATION
 40
0.0
  9
$PELEVATION
 40
0.0
  9
$THICKNESS
 40
0.0
  9
$LIMCHECK
 70
     0
  9
$BLIPMODE
 70
     0
  9
$CHAMFERA
 40
0.0
  9
$CHAMFERB
 40
0.0
  9
$SKPOLY
 70
     0
  9
$TDCREATE
 40
2449840.6227546302
  9
$TDUPDATE
 40
2458232.6389982058
  9
$TDINDWG
 40
1.0820963773000001
  9
$TDUSRTIMER
 40
1.0820963773000001
  9
$USRTIMER
 70
     1
  9
$ANGBASE
 50
0.0
  9
$ANGDIR
 70
     0
  9
$PDMODE
 70
     0
  9
$PDSIZE
 40
0.0
  9
$PLINEWID
 40
0.0
  9
$COORDS
 70
     1
  9
$SPLFRAME
 70
     0
  9
$SPLINETYPE
 70
     6
  9
$SPLINESEGS
 70
     8
  9
$ATTDIA
 70
     0
  9
$ATTREQ
 70
     1
  9
$HANDLING
 70
     1
  9
$HANDSEED
  5
96E4
  9
$SURFTAB1
 70
     6
  9
$SURFTAB2
 70
     6
  9
$SURFTYPE
 70
     6
  9
$SURFU
 70
     6
  9
$SURFV
 70
     6
  9
$UCSNAME
  2

  9
$UCSORG
 10
0.0
 20
0.0
 30
0.0
  9
$UCSXDIR
 10
1.0
 20
0.0
 30
0.0
  9
$UCSYDIR
 10
0.0
 20
1.0
 30
0.0
  9
$PUCSNAME
  2

  9
$PUCSORG
 10
0.0
 20
0.0
 30
0.0
  9
$PUCSXDIR
 10
1.0
 20
0.0
 30
0.0
  9
$PUCSYDIR
 10
0.0
 20
1.0
 30
0.0
  9
$USERI1
 70
     0
  9
$USERI2
 70
     1
  9
$USERI3
 70
     0
  9
$USERI4
 70
     0
  9
$USERI5
 70
     0
  9
$USERR1
 40
0.0
  9
$USERR2
 40
0.0
  9
$USERR3
 40
0.0
  9
$USERR4
 40
0.0
  9
$USERR5
 40
0.0
  9
$WORLDVIEW
 70
     1
  9
$SHADEDGE
 70
     3
  9
$SHADEDIF
 70
    70
  9
$TILEMODE
 70
     1
  9
$MAXACTVP
 70
    16
  9
$PLIMCHECK
 70
     0
  9
$PEXTMIN
 10
1.0000000000000000E+020
 20
1.0000000000000000E+020
 30
1.0000000000000000E+020
  9
$PEXTMAX
 10
-1.0000000000000000E+020
 20
-1.0000000000000000E+020
 30
-1.0000000000000000E+020
  9
$PLIMMIN
 10
0.0
 20
0.0
  9
$PLIMMAX
 10
12.0
 20
9.0
  9
$UNITMODE
 70
     0
  9
$VISRETAIN
 70
     0
  9
$PLINEGEN
 70
     0
  9
$PSLTSCALE
 70
     0
  0
ENDSEC
  0
SECTION
  2
TABLES
  0
TABLE
  2
VPORT
 70
     1
  0
VPORT
  2
*ACTIVE
 70
     0
 10
0.0
 20
0.0
 11
1.0
 21
1.0
 12
227.02991452991449
 22
125.0
 13
0.0
 23
0.0
 14
20.0
 24
20.0
 15
20.0
 25
20.0
 16
0.0
 26
0.0
 36
1.0
 17
0.0
 27
0.0
 37
0.0
 40
250.0
 41
1.816239316239316
 42
50.0
 43
0.0
 44
0.0
 50
0.0
 51
0.0
 71
     0
 72
   100
 73
     1
 74
     0
 75
     0
 76
     0
 77
     0
 78
     2
  0
ENDTAB
  0
TABLE
  2
LTYPE
 70
     5
  0
LTYPE
  2
CONTINUOUS
 70
     0
  3
Solid Line
 72
    65
 73
     0
 40
0.0
  0
LTYPE
  2
CENTER
 70
     0
  3
____ _ ____ _ ____ _ ____ _ ____ _ ____ _ ____
 72
    65
 73
     4
 40
2.0
 49
1.25
 49
-0.25
 49
0.25
 49
-0.25
  0
LTYPE
  2
HIDDEN
 70
     0
  3
_ _ _ _ _ _ _ _ _ _ _ _ _ _ _ _ _ _ _ _ _ _ _
 72
    65
 73
     2
 40
0.375
 49
0.25
 49
-0.125
  0
LTYPE
  2
PHANTOM2
 70
     0
  3
___ _ _ ___ _ _ ___ _ _ ___ _ _
 72
    65
 73
     6
 40
1.25
 49
0.625
 49
-0.125
 49
0.125
 49
-0.125
 49
0.125
 49
-0.125
  0
LTYPE
  2
PHANTOM
 70
     0
  3
_____ _ _ _____ _ _ _____ _ _ _____ _ _ ____
 72
    65
 73
     6
 40
2.5
 49
1.25
 49
-0.25
 49
0.25
 49
-0.25
 49
0.25
 49
-0.25
  0
ENDTAB
  0
TABLE
  2
LAYER
 70
     6
  0
LAYER
  2
0
 70
     0
 62
     7
  6
CONTINUOUS
  0
LAYER
  2
1
 70
     0
 62
     1
  6
CENTER
  0
LAYER
  2
2
 70
     0
 62
     2
  6
HIDDEN
  0
LAYER
  2
5
 70
     0
 62
     3
  6
PHANTOM
  0
LAYER
  2
DEFPOINTS
 70
     0
 62
     7
  6
CONTINUOUS
  0
LAYER
  2
3
 70
     0
 62
     3
  6
CONTINUOUS
  0
ENDTAB
  0
TABLE
  2
STYLE
 70
     2
  0
STYLE
  2
STANDARD
 70
     0
 40
0.0
 41
1.0
 50
0.0
 71
     0
 42
0.2
  3
TXT
  4
BIGFONT
  0
STYLE
  2
STANDARD1
 70
     0
 40
0.0
 41
1.0
 50
0.0
 71
     0
 42
3.0
  3
txt
  4

  0
ENDTAB
  0
TABLE
  2
VIEW
 70
     1
  0
VIEW
  2
ALL
 70
     0
 40
540.0
 10
441.98319299999991
 20
270.0
 41
0.0
 11
0.0
 21
0.0
 31
1.0
 12
0.0
 22
0.0
 32
0.0
 42
0.0
 43
0.0
 44
0.0
 50
0.0
 71
     0
  0
ENDTAB
  0
TABLE
  2
UCS
 70
     0
  0
ENDTAB
  0
TABLE
  2
APPID
 70
    10
  0
APPID
  2
ACAD
 70
     0
  0
APPID
  2
ACAD_NAV_VCDISPLAY
 70
     0
  0
APPID
  2
ACAD_EXEMPT_FROM_CAD_STANDARDS
 70
     0
  0
APPID
  2
ACAD_DSTYLE_DIMJAG
 70
     0
  0
APPID
  2
ACAD_DSTYLE_DIMTALN
 70
     0
  0
APPID
  2
ACAD_MLEADERVER
 70
     0
  0
APPID
  2
DBPROPERTIES
 70
     0
  0
APPID
  2
ACAD_DSTYLE_DIMRADIAL_EXTENSION
 70
     0
  0
APPID
  2
ACAD_PSEXT
 70
     0
  0
APPID
  2
ACADANNOTATIVE
 70
     0
  0
ENDTAB
  0
TABLE
  2
DIMSTYLE
 70
     1
  0
DIMSTYLE
  2
STANDARD
 70
     0
  3

  4

  5

  6

  7

 40
1.0
 41
0.18
 42
0.0625
 43
0.38
 44
0.18
 45
0.0
 46
0.0
 47
0.0
 48
0.0
140
0.18
141
0.09
142
0.0
143
25.399999999999999
144
1.0
145
0.0
146
1.0
147
0.09
 71
     0
 72
     0
 73
     1
 74
     1
 75
     0
 76
     0
 77
     0
 78
     0
170
     0
171
     2
172
     0
173
     0
174
     0
175
     0
176
     0
177
     0
178
     0
  0
ENDTAB
  0
ENDSEC
  0
SECTION
  2
BLOCKS
  0
BLOCK
  8
0
  2
$MODEL_SPACE
 70
     0
 10
0.0
 20
0.0
 30
0.0
  3
$MODEL_SPACE
  1

  0
ENDBLK
  5
11D
  8
0
  0
BLOCK
 67
     1
  8
0
  2
$PAPER_SPACE
 70
     0
 10
0.0
 20
0.0
 30
0.0
  3
$PAPER_SPACE
  1

  0
ENDBLK
  5
11B
 67
     1
  8
0
  0
ENDSEC
  0
SECTION
  2
ENTITIES
  0
TEXT
  5
8469
  8
0
 62
     3
 10
0.0
 20
0.0
 30
0.0
 40
10.0
  1
VDC2-402048M8
  7
STANDARD1
  0
ARC
  5
8BD6
  8
0
 10
81.0
 20
114.0
 30
0.0
 40
21.000000000000028
 50
121.5881355052006
 51
238.4118644947994
  0
ARC
  5
8BD7
  8
0
 10
19.000000000000028
 20
114.0
 30
0.0
 40
21.000000000000039
 50
301.58813550520063
 51
58.411864494799381
  0
LINE
  5
8BD8
  8
0
 10
70.0
 20
90.0
 30
0.0
 11
70.0
 21
96.111456180001724
 31
0.0
  0
LINE
  5
8BD9
  8
0
 10
30.000000000000028
 20
96.111456180001724
 30
0.0
 11
30.000000000000028
 21
90.0
 31
0.0
  0
LINE
  5
8BDA
  8
0
 10
70.0
 20
131.88854381999829
 30
0.0
 11
70.0
 21
138.0
 31
0.0
  0
LINE
  5
8BDB
  8
0
 10
30.000000000000028
 20
138.0
 30
0.0
 11
30.000000000000028
 21
131.88854381999829
 31
0.0
  0
LINE
  5
8BDC
  8
0
 10
54.000000000000028
 20
138.0
 30
0.0
 11
54.000000000000028
 21
160.233
 31
0.0
  0
LINE
  5
8BDD
  8
0
 10
46.0
 20
160.233
 30
0.0
 11
46.0
 21
138.0
 31
0.0
  0
LINE
  5
8BDE
  8
0
 10
54.0
 20
160.233
 30
0.0
 11
53.233000000000033
 21
161.0
 31
0.0
  0
LINE
  5
8BDF
  8
0
 10
46.766999999999989
 20
161.0
 30
0.0
 11
46.000000000000028
 21
160.233
 31
0.0
  0
LINE
  5
8BE0
  8
0
 10
70.0
 20
131.88854381999829
 30
0.0
 11
30.000000000000028
 21
131.88854381999829
 31
0.0
  0
LINE
  5
8BE1
  8
0
 10
70.0
 20
96.111456180001724
 30
0.0
 11
30.000000000000028
 21
96.111456180001724
 31
0.0
  0
LINE
  5
8BE2
  8
0
 10
70.0
 20
90.0
 30
0.0
 11
30.000000000000028
 21
90.0
 31
0.0
  0
LINE
  5
8BE3
  8
0
 10
70.0
 20
138.0
 30
0.0
 11
30.000000000000028
 21
138.0
 31
0.0
  0
LINE
  5
8BE4
  8
0
 10
54.000000000000028
 20
160.233
 30
0.0
 11
46.0
 21
160.233
 31
0.0
  0
LINE
  5
8BE5
  8
0
 10
53.233000000000033
 20
161.0
 30
0.0
 11
46.766999999999989
 21
161.0
 31
0.0
  0
LINE
  5
8BE8
  8
2
 10
53.323500000000017
 20
90.676500000000033
 30
0.0
 11
46.676499999999997
 21
90.676500000000033
 31
0.0
  0
LINE
  5
8BE9
  8
2
 10
54.0
 20
98.0
 30
0.0
 11
46.0
 21
98.0
 31
0.0
  0
LINE
  5
8BF2
  8
2
 10
54.000000000000028
 20
90.0
 30
0.0
 11
53.323500000000017
 21
90.676500000000033
 31
0.0
  0
LINE
  5
8BF3
  8
2
 10
46.676499999999997
 20
90.676500000000033
 30
0.0
 11
46.0
 21
90.0
 31
0.0
  0
LINE
  5
8BF4
  8
2
 10
53.323500000000017
 20
90.676500000000033
 30
0.0
 11
53.323500000000017
 21
98.0
 31
0.0
  0
LINE
  5
8BF5
  8
2
 10
46.676499999999997
 20
98.0
 30
0.0
 11
46.676499999999997
 21
90.676500000000033
 31
0.0
  0
CIRCLE
  5
8BF6
  8
3
 10
50.0
 20
201.0
 30
0.0
 40
3.3235000000000241
  0
CIRCLE
  5
8BF7
  8
0
 10
50.0
 20
201.0
 30
0.0
 40
4.0
  0
CIRCLE
  5
8BF9
  8
0
 10
50.0
 20
201.0
 30
0.0
 40
20.000000000000028
  0
CIRCLE
  5
8BFE
  8
0
 10
50.0
 20
50.0
 30
0.0
 40
20.0
  0
CIRCLE
  5
8C01
  8
3
 10
50.0
 20
50.0
 30
0.0
 40
4.0
  0
CIRCLE
  5
8C02
  8
0
 10
50.0
 20
50.0
 30
0.0
 40
3.3235000000000019
  0
LINE
  5
8C6D
  8
2
 10
54.0
 20
98.0
 30
0.0
 11
54.0
 21
90.0
 31
0.0
  0
LINE
  5
8C6E
  8
2
 10
46.0
 20
98.0
 30
0.0
 11
46.0
 21
90.0
 31
0.0
  0
LINE
  5
8C70
  8
3
 10
46.676499999999997
 20
139.5
 30
0.0
 11
46.676499999999997
 21
160.90950000000001
 31
0.0
  0
LINE
  5
8C71
  8
3
 10
53.323500000000017
 20
139.5
 30
0.0
 11
53.323500000000017
 21
160.90950000000001
 31
0.0
  0
LINE
  5
8C72
  8
3
 10
53.323500000000109
 20
139.5
 30
0.0
 11
54.000000000000028
 21
138.3282676286799
 31
0.0
  0
LINE
  5
8C73
  8
3
 10
46.676499999999827
 20
139.5
 30
0.0
 11
46.000000000000028
 21
138.3282676286799
 31
0.0
  0
LINE
  5
8C74
  8
0
 10
46.000000000000028
 20
139.50000000000011
 30
0.0
 11
54.000000000000028
 21
139.5
 31
0.0
  0
LINE
  5
8C75
  8
1
 10
50.000000000000028
 20
224.0
 30
0.0
 11
50.000000000000028
 21
178.0
 31
0.0
  0
LINE
  5
8C76
  8
1
 10
73.000000000000028
 20
201.0
 30
0.0
 11
26.999999999999972
 21
201.0
 31
0.0
  0
LINE
  5
8C77
  8
1
 10
73.0
 20
50.0
 30
0.0
 11
27.0
 21
50.0
 31
0.0
  0
LINE
  5
8CD5
  8
1
 10
50.000000000000028
 20
164.0
 30
0.0
 11
50.000000000000028
 21
87.0
 31
0.0
  0
LINE
  5
8CD6
  8
1
 10
50.000000000000028
 20
73.0
 30
0.0
 11
50.000000000000028
 21
27.0
 31
0.0
  0
ENDSEC
  0
EOF
