  0
SECTION
  2
HEADER
  9
$ACADVER
  1
AC1009
  9
$INSBASE
 10
0.0
 20
0.0
 30
0.0
  9
$EXTMIN
 10
0.0
 20
-1.4802182810368341
 30
0.0
  9
$EXTMAX
 10
87.599999990999933
 20
78.100000001000041
 30
0.0
  9
$LIMMIN
 10
0.0
 20
0.0
  9
$LIMMAX
 10
375.0
 20
270.0
  9
$ORTHOMODE
 70
     1
  9
$REGENMODE
 70
     1
  9
$FILLMODE
 70
     1
  9
$QTEXTMODE
 70
     0
  9
$MIRRTEXT
 70
     0
  9
$DRAGMODE
 70
     2
  9
$LTSCALE
 40
5.0
  9
$OSMODE
 70
    37
  9
$ATTMODE
 70
     1
  9
$TEXTSIZE
 40
4.000000000000048
  9
$TRACEWID
 40
0.05
  9
$TEXTSTYLE
  7
STANDARD
  9
$CLAYER
  8
0
  9
$CELTYPE
  6
BYLAYER
  9
$CECOLOR
 62
   256
  9
$DIMSCALE
 40
0.5
  9
$DIMASZ
 40
3.0
  9
$DIMEXO
 40
2.0
  9
$DIMDLI
 40
0.38
  9
$DIMRND
 40
0.0
  9
$DIMDLE
 40
0.0
  9
$DIMEXE
 40
2.0
  9
$DIMTP
 40
0.0
  9
$DIMTM
 40
0.0
  9
$DIMTXT
 40
3.2000000000000002
  9
$DIMCEN
 40
0.0
  9
$DIMTSZ
 40
0.0
  9
$DIMTOL
 70
     0
  9
$DIMLIM
 70
     0
  9
$DIMTIH
 70
     0
  9
$DIMTOH
 70
     0
  9
$DIMSE1
 70
     0
  9
$DIMSE2
 70
     0
  9
$DIMTAD
 70
     1
  9
$DIMZIN
 70
     0
  9
$DIMBLK
  1

  9
$DIMASO
 70
     0
  9
$DIMSHO
 70
     0
  9
$DIMPOST
  1

  9
$DIMAPOST
  1

  9
$DIMALT
 70
     0
  9
$DIMALTD
 70
     2
  9
$DIMALTF
 40
25.399999999999999
  9
$DIMLFAC
 40
1.0
  9
$DIMTOFL
 70
     0
  9
$DIMTVP
 40
1.6000000000000001
  9
$DIMTIX
 70
     1
  9
$DIMSOXD
 70
     0
  9
$DIMSAH
 70
     0
  9
$DIMBLK1
  1

  9
$DIMBLK2
  1

  9
$DIMSTYLE
  2
STANDARD
  9
$DIMCLRD
 70
     4
  9
$DIMCLRE
 70
     4
  9
$DIMCLRT
 70
     4
  9
$DIMTFAC
 40
1.0
  9
$DIMGAP
 40
0.09
  9
$LUNITS
 70
     2
  9
$LUPREC
 70
     1
  9
$SKETCHINC
 40
0.1
  9
$FILLETRAD
 40
0.0
  9
$AUNITS
 70
     0
  9
$AUPREC
 70
     0
  9
$MENU
  1
E:\r13\win\SUPPORT\ACAD
  9
$ELEVATION
 40
0.0
  9
$PELEVATION
 40
0.0
  9
$THICKNESS
 40
0.0
  9
$LIMCHECK
 70
     0
  9
$BLIPMODE
 70
     0
  9
$CHAMFERA
 40
1.1999999999999991
  9
$CHAMFERB
 40
1.1999999999999991
  9
$SKPOLY
 70
     0
  9
$TDCREATE
 40
2449983.5574884261
  9
$TDUPDATE
 40
2457968.425617917
  9
$TDINDWG
 40
0.0332597454
  9
$TDUSRTIMER
 40
0.0332597454
  9
$USRTIMER
 70
     1
  9
$ANGBASE
 50
0.0
  9
$ANGDIR
 70
     0
  9
$PDMODE
 70
     0
  9
$PDSIZE
 40
0.0
  9
$PLINEWID
 40
0.0
  9
$COORDS
 70
     1
  9
$SPLFRAME
 70
     0
  9
$SPLINETYPE
 70
     6
  9
$SPLINESEGS
 70
     8
  9
$ATTDIA
 70
     0
  9
$ATTREQ
 70
     1
  9
$HANDLING
 70
     1
  9
$HANDSEED
  5
F2F
  9
$SURFTAB1
 70
     6
  9
$SURFTAB2
 70
     6
  9
$SURFTYPE
 70
     6
  9
$SURFU
 70
     6
  9
$SURFV
 70
     6
  9
$UCSNAME
  2

  9
$UCSORG
 10
0.0
 20
0.0
 30
0.0
  9
$UCSXDIR
 10
1.0
 20
0.0
 30
0.0
  9
$UCSYDIR
 10
0.0
 20
1.0
 30
0.0
  9
$PUCSNAME
  2

  9
$PUCSORG
 10
0.0
 20
0.0
 30
0.0
  9
$PUCSXDIR
 10
1.0
 20
0.0
 30
0.0
  9
$PUCSYDIR
 10
0.0
 20
1.0
 30
0.0
  9
$USERI1
 70
     0
  9
$USERI2
 70
     1
  9
$USERI3
 70
     0
  9
$USERI4
 70
     0
  9
$USERI5
 70
     0
  9
$USERR1
 40
0.0
  9
$USERR2
 40
0.0
  9
$USERR3
 40
0.0
  9
$USERR4
 40
0.0
  9
$USERR5
 40
0.0
  9
$WORLDVIEW
 70
     1
  9
$SHADEDGE
 70
     3
  9
$SHADEDIF
 70
    70
  9
$TILEMODE
 70
     1
  9
$MAXACTVP
 70
    16
  9
$PLIMCHECK
 70
     0
  9
$PEXTMIN
 10
1.0000000000000000E+020
 20
1.0000000000000000E+020
 30
1.0000000000000000E+020
  9
$PEXTMAX
 10
-1.0000000000000000E+020
 20
-1.0000000000000000E+020
 30
-1.0000000000000000E+020
  9
$PLIMMIN
 10
0.0
 20
0.0
  9
$PLIMMAX
 10
12.0
 20
9.0
  9
$UNITMODE
 70
     0
  9
$VISRETAIN
 70
     0
  9
$PLINEGEN
 70
     0
  9
$PSLTSCALE
 70
     0
  0
ENDSEC
  0
SECTION
  2
TABLES
  0
TABLE
  2
VPORT
 70
     1
  0
VPORT
  2
*ACTIVE
 70
     0
 10
0.0
 20
0.0
 11
1.0
 21
1.0
 12
90.811965811965806
 22
50.0
 13
0.0
 23
0.0
 14
5.0
 24
5.0
 15
5.0
 25
5.0
 16
0.0
 26
0.0
 36
1.0
 17
0.0
 27
0.0
 37
0.0
 40
100.0
 41
1.816239316239316
 42
50.0
 43
0.0
 44
0.0
 50
0.0
 51
0.0
 71
     0
 72
   500
 73
     1
 74
     0
 75
     0
 76
     0
 77
     0
 78
     2
  0
ENDTAB
  0
TABLE
  2
LTYPE
 70
     3
  0
LTYPE
  2
CONTINUOUS
 70
     0
  3
Solid Line
 72
    65
 73
     0
 40
0.0
  0
LTYPE
  2
CENTER
 70
     0
  3
____ _ ____ _ ____ _ ____ _ ____ _ ____ _ ____
 72
    65
 73
     4
 40
2.0
 49
1.25
 49
-0.25
 49
0.25
 49
-0.25
  0
LTYPE
  2
PHANTOM2
 70
     0
  3
___ _ _ ___ _ _ ___ _ _ ___ _ _
 72
    65
 73
     6
 40
1.25
 49
0.625
 49
-0.125
 49
0.125
 49
-0.125
 49
0.125
 49
-0.125
  0
ENDTAB
  0
TABLE
  2
LAYER
 70
     2
  0
LAYER
  2
0
 70
     0
 62
     7
  6
CONTINUOUS
  0
LAYER
  2
1
 70
     0
 62
     1
  6
CENTER
  0
ENDTAB
  0
TABLE
  2
STYLE
 70
     2
  0
STYLE
  2
STANDARD
 70
     0
 40
0.0
 41
1.0
 50
0.0
 71
     0
 42
4.000000000000048
  3
SIMPLEX
  4
BIGFONT
  0
STYLE
  2
STANDARD1
 70
     0
 40
0.0
 41
1.0
 50
0.0
 71
     0
 42
3.0
  3
txt
  4

  0
ENDTAB
  0
TABLE
  2
VIEW
 70
     1
  0
VIEW
  2
ALL
 70
     0
 40
270.0
 10
220.78595317725751
 20
135.0
 41
441.57190635451502
 11
0.0
 21
0.0
 31
1.0
 12
0.0
 22
0.0
 32
0.0
 42
50.0
 43
0.0
 44
0.0
 50
0.0
 71
     0
  0
ENDTAB
  0
TABLE
  2
UCS
 70
     0
  0
ENDTAB
  0
TABLE
  2
APPID
 70
     4
  0
APPID
  2
ACAD
 70
     0
  0
APPID
  2
ACAD_MLEADERVER
 70
     0
  0
APPID
  2
ACAD_NAV_VCDISPLAY
 70
     0
  0
APPID
  2
ACAD_EXEMPT_FROM_CAD_STANDARDS
 70
     0
  0
ENDTAB
  0
TABLE
  2
DIMSTYLE
 70
     1
  0
DIMSTYLE
  2
STANDARD
 70
     0
  3

  4

  5

  6

  7

 40
1.0
 41
0.18
 42
0.0625
 43
0.38
 44
0.18
 45
0.0
 46
0.0
 47
0.0
 48
0.0
140
0.18
141
0.09
142
0.0
143
25.399999999999999
144
1.0
145
0.0
146
1.0
147
0.09
 71
     0
 72
     0
 73
     1
 74
     1
 75
     0
 76
     0
 77
     0
 78
     0
170
     0
171
     2
172
     0
173
     0
174
     0
175
     0
176
     0
177
     0
178
     0
  0
ENDTAB
  0
ENDSEC
  0
SECTION
  2
BLOCKS
  0
BLOCK
  8
0
  2
$MODEL_SPACE
 70
     0
 10
0.0
 20
0.0
 30
0.0
  3
$MODEL_SPACE
  1

  0
ENDBLK
  5
34A
  8
0
  0
BLOCK
 67
     1
  8
0
  2
$PAPER_SPACE
 70
     0
 10
0.0
 20
0.0
 30
0.0
  3
$PAPER_SPACE
  1

  0
ENDBLK
  5
348
 67
     1
  8
0
  0
ENDSEC
  0
SECTION
  2
ENTITIES
  0
TEXT
  5
3F7
  8
0
 62
     3
 10
0.0
 20
0.0
 30
0.0
 40
5.0
  1
WCCL8
  7
STANDARD1
  0
LINE
  5
BC4
  8
0
 10
80.599999990999976
 20
42.500000010000072
 30
0.0
 11
84.599999990999976
 21
42.500000010000072
 31
0.0
  0
LINE
  5
BC5
  8
0
 10
80.599999990999976
 20
44.500000010000058
 30
0.0
 11
80.599999990999976
 21
42.500000010000072
 31
0.0
  0
LINE
  5
BC9
  8
0
 10
64.599999990999976
 20
44.500000010000058
 30
0.0
 11
64.599999990999976
 21
42.500000010000072
 31
0.0
  0
LINE
  5
BCA
  8
0
 10
64.599999990999976
 20
42.500000010000072
 30
0.0
 11
60.599999990999969
 21
42.500000010000072
 31
0.0
  0
LINE
  5
BCC
  8
0
 10
60.599999990999969
 20
44.500000010000058
 30
0.0
 11
84.599999990999976
 21
44.500000010000058
 31
0.0
  0
LINE
  5
BD0
  8
0
 10
60.599999990999969
 20
44.500000010000058
 30
0.0
 11
60.599999990999969
 21
41.000000010000072
 31
0.0
  0
LINE
  5
BD2
  8
0
 10
70.599999990999976
 20
36.875587024800083
 30
0.0
 11
74.599999990999976
 21
36.875587024800083
 31
0.0
  0
LINE
  5
BD3
  8
0
 10
74.599999990999976
 20
36.513454981645047
 30
0.0
 11
70.599999990999976
 21
36.513454981645047
 31
0.0
  0
LINE
  5
BDC
  8
0
 10
70.599999990999976
 20
38.214213577000059
 30
0.0
 11
74.599999990999976
 21
38.214213577000059
 31
0.0
  0
LINE
  5
BDF
  8
0
 10
74.599999990999976
 20
34.598064204790703
 30
0.0
 11
70.599999990999976
 21
34.598064204790703
 31
0.0
  0
LINE
  5
BE3
  8
0
 10
74.999999990999953
 20
38.500000010000072
 30
0.0
 11
76.599999990999976
 21
38.500000010000072
 31
0.0
  0
LINE
  5
BE5
  8
0
 10
74.999999990999953
 20
41.000000010000072
 30
0.0
 11
74.599999990999976
 21
41.000000010000072
 31
0.0
  0
LINE
  5
BE6
  8
0
 10
70.599999990999976
 20
41.000000010000072
 30
0.0
 11
70.19999999099997
 21
41.000000010000072
 31
0.0
  0
LINE
  5
BE8
  8
0
 10
68.599999990999976
 20
38.500000010000072
 30
0.0
 11
70.19999999099997
 21
38.500000010000072
 31
0.0
  0
LINE
  5
BEA
  8
0
 10
60.599999990999969
 20
41.000000010000072
 30
0.0
 11
68.599999990999976
 21
41.000000010000072
 31
0.0
  0
LINE
  5
BEC
  8
0
 10
76.599999990999976
 20
41.000000010000072
 30
0.0
 11
84.599999990999976
 21
41.000000010000072
 31
0.0
  0
LINE
  5
BF0
  8
0
 10
84.599999990999976
 20
41.000000010000072
 30
0.0
 11
84.599999991000004
 21
44.500000010000058
 31
0.0
  0
LINE
  5
BF5
  8
0
 10
70.599999990999976
 20
41.000000010000072
 30
0.0
 11
70.599999990999976
 21
30.000000000000082
 31
0.0
  0
LINE
  5
BF6
  8
0
 10
74.599999990999976
 20
30.000000000000082
 30
0.0
 11
74.599999990999976
 21
41.000000010000072
 31
0.0
  0
ARC
  5
BF7
  8
0
 10
77.60000001909998
 20
38.214213584000071
 30
0.0
 40
1.0000000281000041
 50
180.0000004010719
 51
224.99999971435099
  0
LINE
  5
BF8
  8
0
 10
76.892893214521564
 20
37.507106786472256
 30
0.0
 11
77.524412976199955
 21
36.875587024800083
 31
0.0
  0
ARC
  5
BF9
  8
0
 10
77.312280923899976
 20
36.66345498210007
 30
0.0
 40
0.3000000185884622
 50
330.00000194707297
 51
44.99999870354857
  0
LINE
  5
BFA
  8
0
 10
77.572088566213125
 20
36.513454981645047
 30
0.0
 11
76.684551032098796
 21
34.976194871903267
 31
0.0
  0
ARC
  5
BFB
  8
0
 10
77.550576483699956
 20
34.476194849100061
 30
0.0
 40
1.0000000528120989
 50
150.0000002383629
 51
172.99999966229259
  0
LINE
  5
BFC
  8
0
 10
76.558030280365472
 20
34.598064204790703
 30
0.0
 11
76.101279870438361
 21
30.878130655425942
 31
0.0
  0
ARC
  5
BFD
  8
0
 10
75.108733724099977
 20
30.99999999420006
 30
0.0
 40
0.9999999941999817
 50
269.99999991109843
 51
353.0000002263331
  0
LINE
  5
BFE
  8
0
 10
74.599999990999976
 20
31.000000000000071
 30
0.0
 11
74.999999990999953
 21
31.000000000000071
 31
0.0
  0
LINE
  5
BFF
  8
0
 10
74.999999990999981
 20
41.000000010000072
 30
0.0
 11
74.999999990999953
 21
31.000000000000071
 31
0.0
  0
LINE
  5
C00
  8
0
 10
76.599999990999976
 20
38.214213577000059
 30
0.0
 11
76.599999990999976
 21
41.000000010000072
 31
0.0
  0
LINE
  5
C01
  8
0
 10
75.108733722548351
 20
30.000000000000082
 30
0.0
 11
70.091266257900003
 21
29.99999999999994
 31
0.0
  0
ARC
  5
C02
  8
0
 10
70.091266257899974
 20
30.99999999420006
 30
0.0
 40
0.9999999941999817
 50
186.99999977366849
 51
270.0
  0
LINE
  5
C03
  8
0
 10
68.641969701634466
 20
34.598064204790703
 30
0.0
 11
69.09872011156159
 21
30.878130655425942
 31
0.0
  0
ARC
  5
C04
  8
0
 10
67.649423498299996
 20
34.476194849100061
 30
0.0
 40
1.0000000528120989
 50
7.0000003377074096
 51
29.999999761637131
  0
LINE
  5
C05
  8
0
 10
67.627911415786826
 20
36.513454981645047
 30
0.0
 11
68.515448949901156
 21
34.976194871903267
 31
0.0
  0
ARC
  5
C06
  8
0
 10
67.887719058099975
 20
36.66345498210007
 30
0.0
 40
0.3000000185884823
 50
135.00000129645599
 51
209.99999805292819
  0
LINE
  5
C07
  8
0
 10
67.675587005799954
 20
36.875587024800083
 30
0.0
 11
68.307106767478373
 21
37.507106786472256
 31
0.0
  0
ARC
  5
C08
  8
0
 10
67.599999962899972
 20
38.214213584000071
 30
0.0
 40
1.0000000281000041
 50
315.00000028565131
 51
359.99999959892972
  0
LINE
  5
C09
  8
0
 10
68.599999990999976
 20
41.000000010000072
 30
0.0
 11
68.599999990999976
 21
38.214213577000059
 31
0.0
  0
LINE
  5
C0A
  8
0
 10
70.19999999099997
 20
31.000000000000071
 30
0.0
 11
70.199999990999999
 21
41.000000010000072
 31
0.0
  0
LINE
  5
C0B
  8
0
 10
70.19999999099997
 20
31.000000000000071
 30
0.0
 11
70.599999990999976
 21
31.000000000000071
 31
0.0
  0
LINE
  5
C0D
  8
0
 10
64.599999990999947
 20
75.100000001000041
 30
0.0
 11
60.599999990999947
 21
75.100000001000041
 31
0.0
  0
LINE
  5
C0E
  8
0
 10
60.599999990999947
 20
64.500000010000036
 30
0.0
 11
64.599999990999947
 21
64.500000010000036
 31
0.0
  0
LINE
  5
C0F
  8
0
 10
84.599999990999947
 20
75.100000001000041
 30
0.0
 11
80.599999990999947
 21
75.100000001000041
 31
0.0
  0
LINE
  5
C10
  8
0
 10
80.599999990999947
 20
64.500000010000036
 30
0.0
 11
84.599999990999947
 21
64.500000010000036
 31
0.0
  0
LINE
  5
C11
  8
0
 10
67.587719039499945
 20
71.800000005500067
 30
0.0
 11
67.587719039499945
 21
67.800000005500024
 31
0.0
  0
LINE
  5
C12
  8
0
 10
74.599999990999947
 20
74.81228095700007
 30
0.0
 11
70.599999990999947
 21
74.81228095700007
 31
0.0
  0
LINE
  5
C13
  8
0
 10
70.599999990999947
 20
64.787719054000064
 30
0.0
 11
74.599999990999947
 21
64.787719054000064
 31
0.0
  0
LINE
  5
C14
  8
0
 10
77.61228094249995
 20
67.800000005500024
 30
0.0
 11
77.61228094249995
 21
71.800000005500067
 31
0.0
  0
LINE
  5
C1A
  8
0
 10
84.599999990999947
 20
73.800000005500038
 30
0.0
 11
60.599999990999919
 21
73.800000005500038
 31
0.0
  0
LINE
  5
C1B
  8
0
 10
84.599999990999947
 20
72.200000005500044
 30
0.0
 11
84.599999990999947
 21
75.100000001000041
 31
0.0
  0
LINE
  5
C1C
  8
0
 10
76.599999990999933
 20
72.200000005500044
 30
0.0
 11
84.599999990999947
 21
72.200000005500044
 31
0.0
  0
LINE
  5
C1D
  8
0
 10
76.599999990999933
 20
67.400000005500061
 30
0.0
 11
76.599999990999933
 21
72.200000005500044
 31
0.0
  0
LINE
  5
C1E
  8
0
 10
84.599999990999947
 20
67.400000005500061
 30
0.0
 11
76.599999990999933
 21
67.400000005500061
 31
0.0
  0
LINE
  5
C1F
  8
0
 10
84.599999990999947
 20
67.400000005500061
 30
0.0
 11
84.599999990999947
 21
64.500000010000065
 31
0.0
  0
LINE
  5
C22
  8
0
 10
60.599999990999947
 20
65.800000005500067
 30
0.0
 11
84.599999990999976
 21
65.800000005500067
 31
0.0
  0
LINE
  5
C23
  8
0
 10
60.599999990999947
 20
67.400000005500061
 30
0.0
 11
60.599999990999947
 21
64.500000010000065
 31
0.0
  0
LINE
  5
C24
  8
0
 10
68.599999990999933
 20
67.400000005500061
 30
0.0
 11
60.599999990999947
 21
67.400000005500061
 31
0.0
  0
LINE
  5
C25
  8
0
 10
68.599999990999933
 20
72.200000005500044
 30
0.0
 11
68.599999990999933
 21
67.400000005500061
 31
0.0
  0
LINE
  5
C26
  8
0
 10
60.599999990999947
 20
72.200000005500044
 30
0.0
 11
68.599999990999933
 21
72.200000005500044
 31
0.0
  0
LINE
  5
C27
  8
0
 10
70.199999990999942
 20
67.400000005500061
 30
0.0
 11
70.199999990999942
 21
72.200000005500044
 31
0.0
  0
LINE
  5
C28
  8
0
 10
74.999999990999925
 20
67.400000005500061
 30
0.0
 11
70.199999990999942
 21
67.400000005500061
 31
0.0
  0
LINE
  5
C29
  8
0
 10
74.999999990999925
 20
72.200000005500044
 30
0.0
 11
74.999999990999925
 21
67.400000005500061
 31
0.0
  0
LINE
  5
C2A
  8
0
 10
70.199999990999942
 20
72.200000005500044
 30
0.0
 11
74.999999990999925
 21
72.200000005500044
 31
0.0
  0
LINE
  5
C2B
  8
0
 10
60.599999990999947
 20
72.200000005500044
 30
0.0
 11
60.599999990999947
 21
75.100000001000041
 31
0.0
  0
LINE
  5
C2C
  8
0
 10
64.599999990999947
 20
64.500000010000036
 30
0.0
 11
64.599999990999947
 21
65.800000005500067
 31
0.0
  0
LINE
  5
C33
  8
0
 10
80.599999990999947
 20
65.800000005500067
 30
0.0
 11
80.599999990999947
 21
64.500000010000036
 31
0.0
  0
LINE
  5
C35
  8
0
 10
64.599999990999947
 20
73.800000005500038
 30
0.0
 11
64.599999990999947
 21
75.100000001000041
 31
0.0
  0
LINE
  5
C3A
  8
0
 10
80.599999990999947
 20
73.800000005500038
 30
0.0
 11
80.599999990999947
 21
75.100000001000041
 31
0.0
  0
LINE
  5
C44
  8
0
 10
74.599999990999947
 20
65.800000005500067
 30
0.0
 11
74.599999990999947
 21
64.787719054000064
 31
0.0
  0
LINE
  5
C45
  8
0
 10
70.599999990999947
 20
65.800000005500067
 30
0.0
 11
70.599999990999947
 21
64.787719054000064
 31
0.0
  0
LINE
  5
C55
  8
0
 10
67.587719039499945
 20
67.800000005500024
 30
0.0
 11
68.599999990999933
 21
67.800000005500024
 31
0.0
  0
LINE
  5
C56
  8
0
 10
68.599999990999933
 20
71.800000005500067
 30
0.0
 11
67.587719039499945
 21
71.800000005500067
 31
0.0
  0
LINE
  5
C57
  8
0
 10
74.599999990999947
 20
73.800000005500038
 30
0.0
 11
74.599999990999947
 21
74.81228095700007
 31
0.0
  0
LINE
  5
C58
  8
0
 10
70.599999990999947
 20
74.81228095700007
 30
0.0
 11
70.599999990999947
 21
73.800000005500038
 31
0.0
  0
LINE
  5
C5B
  8
0
 10
76.599999990999933
 20
67.800000005500024
 30
0.0
 11
77.61228094249995
 21
67.800000005500024
 31
0.0
  0
LINE
  5
C5C
  8
0
 10
77.61228094249995
 20
71.800000005500067
 30
0.0
 11
76.599999990999933
 21
71.800000005500067
 31
0.0
  0
LINE
  5
C5D
  8
0
 10
74.599999990999947
 20
67.800000005500024
 30
0.0
 11
74.999999990999925
 21
67.800000005500024
 31
0.0
  0
LINE
  5
C5E
  8
0
 10
74.599999990999947
 20
67.400000005500061
 30
0.0
 11
74.599999990999947
 21
67.800000005500024
 31
0.0
  0
LINE
  5
C5F
  8
0
 10
74.599999990999947
 20
71.800000005500067
 30
0.0
 11
74.999999990999925
 21
71.800000005500067
 31
0.0
  0
LINE
  5
C60
  8
0
 10
70.599999990999947
 20
67.800000005500024
 30
0.0
 11
70.599999990999947
 21
67.400000005500061
 31
0.0
  0
LINE
  5
C61
  8
0
 10
74.599999990999947
 20
71.800000005500067
 30
0.0
 11
74.599999990999947
 21
72.200000005500044
 31
0.0
  0
LINE
  5
C62
  8
0
 10
70.199999990999942
 20
67.800000005500024
 30
0.0
 11
70.599999990999947
 21
67.800000005500024
 31
0.0
  0
LINE
  5
C63
  8
0
 10
70.599999990999947
 20
72.200000005500044
 30
0.0
 11
70.599999990999947
 21
71.800000005500067
 31
0.0
  0
LINE
  5
C64
  8
0
 10
70.599999990999947
 20
71.800000005500067
 30
0.0
 11
70.199999990999942
 21
71.800000005500067
 31
0.0
  0
ARC
  5
C65
  8
0
 10
30.300000000699981
 20
42.80000001070006
 30
0.0
 40
0.3000000006999954
 50
140.78546083659259
 51
270.0
  0
LINE
  5
C66
  8
0
 10
30.067564775452919
 20
42.989667789942381
 30
0.0
 11
31.299999995499981
 21
44.500000010000058
 31
0.0
  0
LINE
  5
C6A
  8
0
 10
30.300000000699981
 20
42.500000010000072
 30
0.0
 11
31.299999995499981
 21
42.500000010000072
 31
0.0
  0
LINE
  5
C6D
  8
0
 10
31.299999995500031
 20
44.500000010000122
 30
0.0
 11
39.299999995500002
 21
44.500000010000058
 31
0.0
  0
LINE
  5
C6E
  8
0
 10
39.299999995500002
 20
44.500000010000058
 30
0.0
 11
40.532435215547018
 21
42.989667789942381
 31
0.0
  0
ARC
  5
C6F
  8
0
 10
40.299999990299959
 20
42.80000001070006
 30
0.0
 40
0.3000000006999954
 50
270.00000049656472
 51
39.214539163407409
  0
LINE
  5
C70
  8
0
 10
40.299999992899977
 20
42.500000010000072
 30
0.0
 11
39.299999995500002
 21
42.500000010000072
 31
0.0
  0
LINE
  5
C73
  8
0
 10
33.299999995499967
 20
36.875587024800083
 30
0.0
 11
37.299999995500002
 21
36.875587024800083
 31
0.0
  0
LINE
  5
C74
  8
0
 10
37.299999995500002
 20
36.513454981645047
 30
0.0
 11
33.299999995499967
 21
36.513454981645047
 31
0.0
  0
LINE
  5
C7D
  8
0
 10
37.299999995500002
 20
38.214213577000059
 30
0.0
 11
33.299999995499967
 21
38.214213577000059
 31
0.0
  0
LINE
  5
C80
  8
0
 10
37.299999995500002
 20
34.598064204790703
 30
0.0
 11
33.299999995499967
 21
34.598064204790703
 31
0.0
  0
LINE
  5
C83
  8
0
 10
39.299999995499967
 20
41.000000010000072
 30
0.0
 11
37.299999995500002
 21
41.000000010000072
 31
0.0
  0
LINE
  5
C84
  8
0
 10
33.299999995499967
 20
41.000000010000072
 30
0.0
 11
31.299999995499981
 21
41.000000010000072
 31
0.0
  0
LINE
  5
C85
  8
0
 10
33.299999995499967
 20
29.99999999999995
 30
0.0
 11
33.299999995499967
 21
41.000000010000072
 31
0.0
  0
LINE
  5
C86
  8
0
 10
37.299999995500002
 20
41.000000010000072
 30
0.0
 11
37.299999995500002
 21
30.000000000000071
 31
0.0
  0
LINE
  5
C89
  8
0
 10
37.699999995499979
 20
38.500000010000072
 30
0.0
 11
39.299999995500002
 21
38.500000010000072
 31
0.0
  0
LINE
  5
C8C
  8
0
 10
32.899999995499968
 20
38.500000010000072
 30
0.0
 11
31.299999995499981
 21
38.500000010000072
 31
0.0
  0
ARC
  5
C94
  8
0
 10
40.300000023599971
 20
38.214213584000071
 30
0.0
 40
1.0000000281000041
 50
180.0000004010719
 51
224.99999971435099
  0
LINE
  5
C95
  8
0
 10
39.592893219021562
 20
37.507106786472256
 30
0.0
 11
40.224412980699981
 21
36.875587024800083
 31
0.0
  0
ARC
  5
C96
  8
0
 10
40.012280928399967
 20
36.66345498210007
 30
0.0
 40
0.3000000185884823
 50
330.00000194707297
 51
44.999998703543959
  0
LINE
  5
C97
  8
0
 10
40.272088570713123
 20
36.513454981645047
 30
0.0
 11
39.384551036598801
 21
34.976194871903267
 31
0.0
  0
ARC
  5
C98
  8
0
 10
40.250576488199947
 20
34.476194849100061
 30
0.0
 40
1.000000052812086
 50
150.00000023836259
 51
172.99999966229259
  0
LINE
  5
C99
  8
0
 10
39.25803028486547
 20
34.598064204790703
 30
0.0
 11
38.801279874938359
 21
30.878130655425942
 31
0.0
  0
ARC
  5
C9A
  8
0
 10
37.808733728599982
 20
30.99999999420006
 30
0.0
 40
0.9999999941999817
 50
269.99999991110002
 51
353.0000002263331
  0
LINE
  5
C9B
  8
0
 10
37.699999995499979
 20
31.000000000000071
 30
0.0
 11
37.699999995500008
 21
44.500000010000058
 31
0.0
  0
LINE
  5
C9C
  8
0
 10
37.299999995500002
 20
31.000000000000071
 30
0.0
 11
37.699999995499979
 21
31.000000000000071
 31
0.0
  0
LINE
  5
C9D
  8
0
 10
37.808733727048377
 20
30.000000000000082
 30
0.0
 11
32.791266262400001
 21
29.99999999999994
 31
0.0
  0
LINE
  5
C9E
  8
0
 10
39.299999995499967
 20
42.500000010000072
 30
0.0
 11
39.299999995500002
 21
38.214213577000059
 31
0.0
  0
LINE
  5
C9F
  8
0
 10
31.341969706134481
 20
34.598064204790703
 30
0.0
 11
31.79872011606162
 21
30.878130655425942
 31
0.0
  0
ARC
  5
CA0
  8
0
 10
30.349423502800018
 20
34.476194849100061
 30
0.0
 40
1.000000052812086
 50
7.0000003377074096
 51
29.999999761637412
  0
LINE
  5
CA1
  8
0
 10
30.327911420286849
 20
36.513454981645047
 30
0.0
 11
31.21544895440115
 21
34.976194871903267
 31
0.0
  0
ARC
  5
CA2
  8
0
 10
30.587719062600002
 20
36.66345498210007
 30
0.0
 40
0.3000000185884823
 50
135.00000129645599
 51
209.99999805292819
  0
LINE
  5
CA3
  8
0
 10
30.37558701029997
 20
36.875587024800083
 30
0.0
 11
31.007106771978378
 21
37.507106786472256
 31
0.0
  0
ARC
  5
CA4
  8
0
 10
30.29999996739997
 20
38.214213584000071
 30
0.0
 40
1.0000000281000041
 50
315.00000028565131
 51
359.99999959892972
  0
ARC
  5
CA5
  8
0
 10
32.791266262399972
 20
30.99999999420006
 30
0.0
 40
0.9999999941999817
 50
186.99999977366849
 51
270.0
  0
LINE
  5
CA6
  8
0
 10
32.899999995499968
 20
44.500000010000122
 30
0.0
 11
32.899999995499968
 21
31.000000000000071
 31
0.0
  0
LINE
  5
CA7
  8
0
 10
32.899999995499968
 20
31.000000000000071
 30
0.0
 11
33.299999995499967
 21
31.000000000000071
 31
0.0
  0
LINE
  5
CA9
  8
0
 10
31.299999995499981
 20
38.214213577000059
 30
0.0
 11
31.299999995499981
 21
42.500000010000058
 31
0.0
  0
LINE
  5
E8A
  8
1
 10
72.599999990224148
 20
78.100000001000041
 30
0.0
 11
72.599999990224148
 21
61.500000010000029
 31
0.0
  0
LINE
  5
E8B
  8
1
 10
35.299999994724203
 20
26.99999999999903
 30
0.0
 11
35.299999994724203
 21
47.500000010000058
 31
0.0
  0
LINE
  5
E8C
  8
1
 10
57.599999990999947
 20
69.800000005500067
 30
0.0
 11
87.599999990999933
 21
69.800000005500067
 31
0.0
  0
LINE
  5
E9B
  8
1
 10
72.599999990224177
 20
47.500000010000058
 30
0.0
 11
72.599999990224177
 21
27.000000000000011
 31
0.0
  0
ENDSEC
  0
EOF
