  0
SECTION
  2
HEADER
  9
$ACADVER
  1
AC1009
  9
$INSBASE
 10
0.0
 20
0.0
 30
0.0
  9
$EXTMIN
 10
0.0
 20
-1.4802182810368341
 30
0.0
  9
$EXTMAX
 10
103.49999999000001
 20
83.296774620500003
 30
0.0
  9
$LIMMIN
 10
0.0
 20
0.0
  9
$LIMMAX
 10
375.0
 20
270.0
  9
$ORTHOMODE
 70
     1
  9
$REGENMODE
 70
     1
  9
$FILLMODE
 70
     1
  9
$QTEXTMODE
 70
     0
  9
$MIRRTEXT
 70
     0
  9
$DRAGMODE
 70
     2
  9
$LTSCALE
 40
5.0
  9
$OSMODE
 70
    37
  9
$ATTMODE
 70
     1
  9
$TEXTSIZE
 40
4.000000000000048
  9
$TRACEWID
 40
0.05
  9
$TEXTSTYLE
  7
STANDARD
  9
$CLAYER
  8
0
  9
$CELTYPE
  6
BYLAYER
  9
$CECOLOR
 62
   256
  9
$DIMSCALE
 40
0.5
  9
$DIMASZ
 40
3.0
  9
$DIMEXO
 40
2.0
  9
$DIMDLI
 40
0.38
  9
$DIMRND
 40
0.0
  9
$DIMDLE
 40
0.0
  9
$DIMEXE
 40
2.0
  9
$DIMTP
 40
0.0
  9
$DIMTM
 40
0.0
  9
$DIMTXT
 40
3.2000000000000002
  9
$DIMCEN
 40
0.0
  9
$DIMTSZ
 40
0.0
  9
$DIMTOL
 70
     0
  9
$DIMLIM
 70
     0
  9
$DIMTIH
 70
     0
  9
$DIMTOH
 70
     0
  9
$DIMSE1
 70
     0
  9
$DIMSE2
 70
     0
  9
$DIMTAD
 70
     1
  9
$DIMZIN
 70
     0
  9
$DIMBLK
  1

  9
$DIMASO
 70
     0
  9
$DIMSHO
 70
     0
  9
$DIMPOST
  1

  9
$DIMAPOST
  1

  9
$DIMALT
 70
     0
  9
$DIMALTD
 70
     2
  9
$DIMALTF
 40
25.399999999999999
  9
$DIMLFAC
 40
1.0
  9
$DIMTOFL
 70
     0
  9
$DIMTVP
 40
1.6000000000000001
  9
$DIMTIX
 70
     1
  9
$DIMSOXD
 70
     0
  9
$DIMSAH
 70
     0
  9
$DIMBLK1
  1

  9
$DIMBLK2
  1

  9
$DIMSTYLE
  2
STANDARD
  9
$DIMCLRD
 70
     4
  9
$DIMCLRE
 70
     4
  9
$DIMCLRT
 70
     4
  9
$DIMTFAC
 40
1.0
  9
$DIMGAP
 40
0.09
  9
$LUNITS
 70
     2
  9
$LUPREC
 70
     1
  9
$SKETCHINC
 40
0.1
  9
$FILLETRAD
 40
0.0
  9
$AUNITS
 70
     0
  9
$AUPREC
 70
     0
  9
$MENU
  1
E:\r13\win\SUPPORT\ACAD
  9
$ELEVATION
 40
0.0
  9
$PELEVATION
 40
0.0
  9
$THICKNESS
 40
0.0
  9
$LIMCHECK
 70
     0
  9
$BLIPMODE
 70
     0
  9
$CHAMFERA
 40
1.1999999999999991
  9
$CHAMFERB
 40
1.1999999999999991
  9
$SKPOLY
 70
     0
  9
$TDCREATE
 40
2449983.5574884261
  9
$TDUPDATE
 40
2457968.4256357639
  9
$TDINDWG
 40
0.0084297917
  9
$TDUSRTIMER
 40
0.0084297917
  9
$USRTIMER
 70
     1
  9
$ANGBASE
 50
0.0
  9
$ANGDIR
 70
     0
  9
$PDMODE
 70
     0
  9
$PDSIZE
 40
0.0
  9
$PLINEWID
 40
0.0
  9
$COORDS
 70
     1
  9
$SPLFRAME
 70
     0
  9
$SPLINETYPE
 70
     6
  9
$SPLINESEGS
 70
     8
  9
$ATTDIA
 70
     0
  9
$ATTREQ
 70
     1
  9
$HANDLING
 70
     1
  9
$HANDSEED
  5
A19
  9
$SURFTAB1
 70
     6
  9
$SURFTAB2
 70
     6
  9
$SURFTYPE
 70
     6
  9
$SURFU
 70
     6
  9
$SURFV
 70
     6
  9
$UCSNAME
  2

  9
$UCSORG
 10
0.0
 20
0.0
 30
0.0
  9
$UCSXDIR
 10
1.0
 20
0.0
 30
0.0
  9
$UCSYDIR
 10
0.0
 20
1.0
 30
0.0
  9
$PUCSNAME
  2

  9
$PUCSORG
 10
0.0
 20
0.0
 30
0.0
  9
$PUCSXDIR
 10
1.0
 20
0.0
 30
0.0
  9
$PUCSYDIR
 10
0.0
 20
1.0
 30
0.0
  9
$USERI1
 70
     0
  9
$USERI2
 70
     1
  9
$USERI3
 70
     0
  9
$USERI4
 70
     0
  9
$USERI5
 70
     0
  9
$USERR1
 40
0.0
  9
$USERR2
 40
0.0
  9
$USERR3
 40
0.0
  9
$USERR4
 40
0.0
  9
$USERR5
 40
0.0
  9
$WORLDVIEW
 70
     1
  9
$SHADEDGE
 70
     3
  9
$SHADEDIF
 70
    70
  9
$TILEMODE
 70
     1
  9
$MAXACTVP
 70
    16
  9
$PLIMCHECK
 70
     0
  9
$PEXTMIN
 10
1.0000000000000000E+020
 20
1.0000000000000000E+020
 30
1.0000000000000000E+020
  9
$PEXTMAX
 10
-1.0000000000000000E+020
 20
-1.0000000000000000E+020
 30
-1.0000000000000000E+020
  9
$PLIMMIN
 10
0.0
 20
0.0
  9
$PLIMMAX
 10
12.0
 20
9.0
  9
$UNITMODE
 70
     0
  9
$VISRETAIN
 70
     0
  9
$PLINEGEN
 70
     0
  9
$PSLTSCALE
 70
     0
  0
ENDSEC
  0
SECTION
  2
TABLES
  0
TABLE
  2
VPORT
 70
     1
  0
VPORT
  2
*ACTIVE
 70
     0
 10
0.0
 20
0.0
 11
1.0
 21
1.0
 12
181.62393162393161
 22
100.0
 13
0.0
 23
0.0
 14
5.0
 24
5.0
 15
5.0
 25
5.0
 16
0.0
 26
0.0
 36
1.0
 17
0.0
 27
0.0
 37
0.0
 40
200.0
 41
1.816239316239316
 42
50.0
 43
0.0
 44
0.0
 50
0.0
 51
0.0
 71
     0
 72
   500
 73
     1
 74
     0
 75
     0
 76
     0
 77
     0
 78
     2
  0
ENDTAB
  0
TABLE
  2
LTYPE
 70
     3
  0
LTYPE
  2
CONTINUOUS
 70
     0
  3
Solid Line
 72
    65
 73
     0
 40
0.0
  0
LTYPE
  2
CENTER
 70
     0
  3
____ _ ____ _ ____ _ ____ _ ____ _ ____ _ ____
 72
    65
 73
     4
 40
2.0
 49
1.25
 49
-0.25
 49
0.25
 49
-0.25
  0
LTYPE
  2
PHANTOM2
 70
     0
  3
___ _ _ ___ _ _ ___ _ _ ___ _ _
 72
    65
 73
     6
 40
1.25
 49
0.625
 49
-0.125
 49
0.125
 49
-0.125
 49
0.125
 49
-0.125
  0
ENDTAB
  0
TABLE
  2
LAYER
 70
     2
  0
LAYER
  2
0
 70
     0
 62
     7
  6
CONTINUOUS
  0
LAYER
  2
1
 70
     0
 62
     1
  6
CENTER
  0
ENDTAB
  0
TABLE
  2
STYLE
 70
     2
  0
STYLE
  2
STANDARD
 70
     0
 40
0.0
 41
1.0
 50
0.0
 71
     0
 42
4.000000000000048
  3
SIMPLEX
  4
BIGFONT
  0
STYLE
  2
STANDARD1
 70
     0
 40
0.0
 41
1.0
 50
0.0
 71
     0
 42
3.0
  3
txt
  4

  0
ENDTAB
  0
TABLE
  2
VIEW
 70
     1
  0
VIEW
  2
ALL
 70
     0
 40
270.0
 10
220.78595317725751
 20
135.0
 41
441.57190635451502
 11
0.0
 21
0.0
 31
1.0
 12
0.0
 22
0.0
 32
0.0
 42
50.0
 43
0.0
 44
0.0
 50
0.0
 71
     0
  0
ENDTAB
  0
TABLE
  2
UCS
 70
     0
  0
ENDTAB
  0
TABLE
  2
APPID
 70
     4
  0
APPID
  2
ACAD
 70
     0
  0
APPID
  2
ACAD_MLEADERVER
 70
     0
  0
APPID
  2
ACAD_NAV_VCDISPLAY
 70
     0
  0
APPID
  2
ACAD_EXEMPT_FROM_CAD_STANDARDS
 70
     0
  0
ENDTAB
  0
TABLE
  2
DIMSTYLE
 70
     1
  0
DIMSTYLE
  2
STANDARD
 70
     0
  3

  4

  5

  6

  7

 40
1.0
 41
0.18
 42
0.0625
 43
0.38
 44
0.18
 45
0.0
 46
0.0
 47
0.0
 48
0.0
140
0.18
141
0.09
142
0.0
143
25.399999999999999
144
1.0
145
0.0
146
1.0
147
0.09
 71
     0
 72
     0
 73
     1
 74
     1
 75
     0
 76
     0
 77
     0
 78
     0
170
     0
171
     2
172
     0
173
     0
174
     0
175
     0
176
     0
177
     0
178
     0
  0
ENDTAB
  0
ENDSEC
  0
SECTION
  2
BLOCKS
  0
BLOCK
  8
0
  2
$MODEL_SPACE
 70
     0
 10
0.0
 20
0.0
 30
0.0
  3
$MODEL_SPACE
  1

  0
ENDBLK
  5
34A
  8
0
  0
BLOCK
 67
     1
  8
0
  2
$PAPER_SPACE
 70
     0
 10
0.0
 20
0.0
 30
0.0
  3
$PAPER_SPACE
  1

  0
ENDBLK
  5
348
 67
     1
  8
0
  0
ENDSEC
  0
SECTION
  2
ENTITIES
  0
TEXT
  5
3F7
  8
0
 62
     3
 10
0.0
 20
0.0
 30
0.0
 40
5.0
  1
WCK40
  7
STANDARD1
  0
LINE
  5
912
  8
0
 10
56.499999989999992
 20
31.946774620500008
 30
0.0
 11
53.377645703515157
 21
31.110142311450971
 31
0.0
  0
LINE
  5
913
  8
0
 10
56.499999989999992
 20
31.946774620500008
 30
0.0
 11
56.499999989999992
 21
32.896774613050013
 31
0.0
  0
ARC
  5
914
  8
0
 10
56.800000004899971
 20
32.896774605600001
 30
0.0
 40
0.3000000148999931
 50
90.000001420198572
 51
179.9999985771552
  0
LINE
  5
915
  8
0
 10
56.799999997463829
 20
33.196774620500008
 30
0.0
 11
56.999999988999939
 21
33.196774620500008
 31
0.0
  0
ARC
  5
916
  8
0
 10
56.999999987999949
 20
32.696774618500001
 30
0.0
 40
0.5000000020000144
 50
0.0000001160502472
 51
89.99999988540965
  0
LINE
  5
917
  8
0
 10
57.499999989999992
 20
32.696774619512723
 30
0.0
 11
57.499999989999992
 21
31.93782217195
 31
0.0
  0
ARC
  5
918
  8
0
 10
56.499999979699957
 20
31.937822173400011
 30
0.0
 40
1.0000000103095421
 50
285.00000034525448
 51
359.99999991692169
  0
LINE
  5
919
  8
0
 10
53.258819046599122
 20
30.034074172268252
 30
0.0
 11
56.758819033291267
 21
30.97189633871227
 31
0.0
  0
ARC
  5
91A
  8
0
 10
53.000000005099928
 20
31.000000015099999
 30
0.0
 40
1.000000015099985
 50
180.0000004196003
 51
284.99999955526363
  0
LINE
  5
91B
  8
0
 10
51.999999989999992
 20
35.696774623049997
 30
0.0
 11
51.999999989999992
 21
31.00000000777661
 31
0.0
  0
ARC
  5
91C
  8
0
 10
51.699999975099963
 20
35.696774615600013
 30
0.0
 40
0.3000000149000074
 50
0.0000014228448001
 51
89.999998579798145
  0
LINE
  5
91D
  8
0
 10
39.990991874099961
 20
35.996774630499999
 30
0.0
 11
51.699999982536099
 21
35.996774630499999
 31
0.0
  0
ARC
  5
91E
  8
0
 10
39.990991868199963
 20
35.696774646400002
 30
0.0
 40
0.2999999841233565
 50
89.999998873181895
 51
176.56018876586899
  0
ARC
  5
91F
  8
0
 10
35.000000001599972
 20
35.996774626399997
 30
0.0
 40
4.6999999959233758
 50
270.0
 51
356.5601873642417
  0
LINE
  5
920
  8
0
 10
30.30000000744997
 20
31.296774630500011
 30
0.0
 11
35.000000001599972
 21
31.296774630500011
 31
0.0
  0
ARC
  5
921
  8
0
 10
30.300000014899979
 20
31.5967746454
 30
0.0
 40
0.3000000149000003
 50
180.00000142020019
 51
269.99999857715682
  0
LINE
  5
922
  8
0
 10
30.0
 20
34.072510565400002
 30
0.0
 11
30.0
 21
31.596774637963851
 31
0.0
  0
ARC
  5
923
  8
0
 10
30.29999995539993
 20
34.072510570300011
 30
0.0
 40
0.2999999553999971
 50
134.99999764844961
 51
180.00000093583259
  0
LINE
  5
924
  8
0
 10
30.087867961296869
 20
34.284642581815888
 30
0.0
 11
30.48786797226046
 21
34.684642592739507
 31
0.0
  0
ARC
  5
925
  8
0
 10
30.700000005199971
 20
34.472510564300002
 30
0.0
 40
0.2999999948148457
 50
359.99999963320028
 51
135.0000006077122
  0
LINE
  5
926
  8
0
 10
31.0
 20
32.596774637950013
 30
0.0
 11
31.0
 21
34.472510562379441
 31
0.0
  0
ARC
  5
927
  8
0
 10
31.300000014899979
 20
32.596774645400011
 30
0.0
 40
0.3000000149000003
 50
180.0000014228456
 51
269.9999985798014
  0
LINE
  5
928
  8
0
 10
34.999999999949978
 20
32.296774630500011
 30
0.0
 11
31.30000000746384
 21
32.296774630500011
 31
0.0
  0
ARC
  5
929
  8
0
 10
34.999999999899963
 20
35.996774628099999
 30
0.0
 40
3.6999999975999951
 50
270.00000000077512
 51
354.93790698283431
  0
ARC
  5
92A
  8
0
 10
38.386738833199963
 20
35.6967746224
 30
0.0
 40
0.3000000081145475
 50
354.93790765451831
 51
89.999999354448974
  0
LINE
  5
92B
  8
0
 10
33.300000007449967
 20
35.996774630499999
 30
0.0
 11
38.386738836580093
 21
35.996774630499999
 31
0.0
  0
ARC
  5
92C
  8
0
 10
33.300000014899979
 20
35.696774615600013
 30
0.0
 40
0.3000000149000003
 50
90.000001422843155
 51
179.99999857979981
  0
LINE
  5
92D
  8
0
 10
33.0
 20
35.696774623036163
 30
0.0
 11
33.0
 21
35.021038698599988
 31
0.0
  0
ARC
  5
92E
  8
0
 10
32.700000005199968
 20
35.021038696700003
 30
0.0
 40
0.2999999948296824
 50
224.9999993895012
 51
0.0000003628735038
  0
LINE
  5
92F
  8
0
 10
32.487867972239663
 20
34.80890666826032
 30
0.0
 11
32.087867961290499
 21
35.208906679190513
 31
0.0
  0
ARC
  5
930
  8
0
 10
32.299999955399933
 20
35.421038690700001
 30
0.0
 40
0.2999999553999971
 50
179.99999906864889
 51
225.00000234982781
  0
LINE
  5
931
  8
0
 10
32.0
 20
36.996774623050023
 30
0.0
 11
32.0
 21
35.421038695576541
 31
0.0
  0
ARC
  5
932
  8
0
 10
32.300000014899979
 20
36.996774615600003
 30
0.0
 40
0.3000000149000003
 50
90.000002377775743
 51
179.9999985771536
  0
LINE
  5
933
  8
0
 10
32.300000002449963
 20
37.29677462050001
 30
0.0
 11
51.999999987949991
 21
37.29677462050001
 31
0.0
  0
ARC
  5
934
  8
0
 10
51.99999998589999
 20
36.2967746164
 30
0.0
 40
1.0000000041000019
 50
0.000000116049433
 51
89.999999882543591
  0
LINE
  5
935
  8
0
 10
52.999999989999992
 20
31.399920061750009
 30
0.0
 11
52.999999989999992
 21
36.296774618425459
 31
0.0
  0
ARC
  5
936
  8
0
 10
53.29999999279994
 20
31.399920063000032
 30
0.0
 40
0.3000000028088017
 50
180.00000023873471
 51
284.9999992995547
  0
LINE
  5
937
  8
0
 10
32.0
 20
83.296774620500003
 30
0.0
 11
32.0
 21
67.296774620500003
 31
0.0
  0
LINE
  5
938
  8
0
 10
52.999999989999992
 20
67.296774620500003
 30
0.0
 11
52.999999989999992
 21
83.296774620500003
 31
0.0
  0
LINE
  5
939
  8
0
 10
31.0
 20
83.296774620500003
 30
0.0
 11
31.0
 21
67.296774620500003
 31
0.0
  0
LINE
  5
93A
  8
0
 10
30.0
 20
67.296774620500003
 30
0.0
 11
30.0
 21
83.296774620500003
 31
0.0
  0
LINE
  5
93B
  8
0
 10
57.499999989999992
 20
83.296774620500003
 30
0.0
 11
57.499999989999992
 21
67.296774620500003
 31
0.0
  0
LINE
  5
93C
  8
0
 10
30.0
 20
67.296774620500003
 30
0.0
 11
57.499999989999992
 21
67.296774620500003
 31
0.0
  0
LINE
  5
93D
  8
0
 10
57.499999989999992
 20
83.296774620500003
 30
0.0
 11
30.0
 21
83.296774620500003
 31
0.0
  0
LINE
  5
93E
  8
0
 10
56.499999989999992
 20
67.296774620500003
 30
0.0
 11
56.499999989999992
 21
83.296774620500003
 31
0.0
  0
LINE
  5
93F
  8
0
 10
87.499999989999992
 20
30.0
 30
0.0
 11
103.49999999000001
 21
30.0
 31
0.0
  0
LINE
  5
940
  8
0
 10
87.499999989999992
 20
33.196774620500008
 30
0.0
 11
103.49999999000001
 21
33.196774620500008
 31
0.0
  0
LINE
  5
941
  8
0
 10
87.499999989999992
 20
37.29677462050001
 30
0.0
 11
103.49999999000001
 21
37.29677462050001
 31
0.0
  0
LINE
  5
942
  8
0
 10
87.499999989999992
 20
37.29677462050001
 30
0.0
 11
87.499999989999992
 21
30.0
 31
0.0
  0
LINE
  5
943
  8
0
 10
103.49999999000001
 20
30.0
 30
0.0
 11
103.49999999000001
 21
37.29677462050001
 31
0.0
  0
LINE
  5
944
  8
1
 10
59.499999989999992
 20
75.296774620500003
 30
0.0
 11
28.0
 21
75.296774620500003
 31
0.0
  0
LINE
  5
945
  8
1
 10
95.499999990000049
 20
39.296774620500003
 30
0.0
 11
95.499999990000049
 21
28.0
 31
0.0
  0
ENDSEC
  0
EOF
