  0
SECTION
  2
HEADER
  9
$ACADVER
  1
AC1009
  9
$INSBASE
 10
0.0
 20
0.0
 30
0.0
  9
$EXTMIN
 10
0.0
 20
-1.4802182810368341
 30
0.0
  9
$EXTMAX
 10
288.18452103865991
 20
214.15714718759551
 30
0.0
  9
$LIMMIN
 10
0.0
 20
0.0
  9
$LIMMAX
 10
385.0
 20
270.0
  9
$ORTHOMODE
 70
     1
  9
$REGENMODE
 70
     1
  9
$FILLMODE
 70
     1
  9
$QTEXTMODE
 70
     0
  9
$MIRRTEXT
 70
     0
  9
$DRAGMODE
 70
     2
  9
$LTSCALE
 40
10.0
  9
$OSMODE
 70
    55
  9
$ATTMODE
 70
     1
  9
$TEXTSIZE
 40
4.000000000000048
  9
$TRACEWID
 40
0.05
  9
$TEXTSTYLE
  7
STANDARD
  9
$CLAYER
  8
0
  9
$CELTYPE
  6
BYLAYER
  9
$CECOLOR
 62
   256
  9
$DIMSCALE
 40
1.0
  9
$DIMASZ
 40
3.0
  9
$DIMEXO
 40
2.0
  9
$DIMDLI
 40
0.38
  9
$DIMRND
 40
0.0
  9
$DIMDLE
 40
0.0
  9
$DIMEXE
 40
2.0
  9
$DIMTP
 40
0.0
  9
$DIMTM
 40
0.0
  9
$DIMTXT
 40
3.0
  9
$DIMCEN
 40
0.0
  9
$DIMTSZ
 40
0.0
  9
$DIMTOL
 70
     0
  9
$DIMLIM
 70
     0
  9
$DIMTIH
 70
     0
  9
$DIMTOH
 70
     0
  9
$DIMSE1
 70
     0
  9
$DIMSE2
 70
     0
  9
$DIMTAD
 70
     1
  9
$DIMZIN
 70
     0
  9
$DIMBLK
  1

  9
$DIMASO
 70
     1
  9
$DIMSHO
 70
     0
  9
$DIMPOST
  1

  9
$DIMAPOST
  1

  9
$DIMALT
 70
     0
  9
$DIMALTD
 70
     2
  9
$DIMALTF
 40
25.399999999999999
  9
$DIMLFAC
 40
1.0
  9
$DIMTOFL
 70
     1
  9
$DIMTVP
 40
1.6000000000000001
  9
$DIMTIX
 70
     1
  9
$DIMSOXD
 70
     0
  9
$DIMSAH
 70
     0
  9
$DIMBLK1
  1

  9
$DIMBLK2
  1

  9
$DIMSTYLE
  2
STANDARD
  9
$DIMCLRD
 70
     0
  9
$DIMCLRE
 70
     0
  9
$DIMCLRT
 70
     0
  9
$DIMTFAC
 40
1.0
  9
$DIMGAP
 40
1.0
  9
$LUNITS
 70
     2
  9
$LUPREC
 70
     4
  9
$SKETCHINC
 40
0.1
  9
$FILLETRAD
 40
0.0
  9
$AUNITS
 70
     0
  9
$AUPREC
 70
     4
  9
$MENU
  1
E:\r13\win\SUPPORT\ACAD
  9
$ELEVATION
 40
0.0
  9
$PELEVATION
 40
0.0
  9
$THICKNESS
 40
0.0
  9
$LIMCHECK
 70
     0
  9
$BLIPMODE
 70
     0
  9
$CHAMFERA
 40
0.0
  9
$CHAMFERB
 40
0.0
  9
$SKPOLY
 70
     0
  9
$TDCREATE
 40
2450280.598206134
  9
$TDUPDATE
 40
2456598.3911120021
  9
$TDINDWG
 40
0.031258287
  9
$TDUSRTIMER
 40
0.031258287
  9
$USRTIMER
 70
     1
  9
$ANGBASE
 50
0.0
  9
$ANGDIR
 70
     0
  9
$PDMODE
 70
     0
  9
$PDSIZE
 40
0.0
  9
$PLINEWID
 40
0.0
  9
$COORDS
 70
     1
  9
$SPLFRAME
 70
     0
  9
$SPLINETYPE
 70
     6
  9
$SPLINESEGS
 70
     8
  9
$ATTDIA
 70
     0
  9
$ATTREQ
 70
     1
  9
$HANDLING
 70
     1
  9
$HANDSEED
  5
528
  9
$SURFTAB1
 70
     6
  9
$SURFTAB2
 70
     6
  9
$SURFTYPE
 70
     6
  9
$SURFU
 70
     6
  9
$SURFV
 70
     6
  9
$UCSNAME
  2

  9
$UCSORG
 10
0.0
 20
0.0
 30
0.0
  9
$UCSXDIR
 10
1.0
 20
0.0
 30
0.0
  9
$UCSYDIR
 10
0.0
 20
1.0
 30
0.0
  9
$PUCSNAME
  2

  9
$PUCSORG
 10
0.0
 20
0.0
 30
0.0
  9
$PUCSXDIR
 10
1.0
 20
0.0
 30
0.0
  9
$PUCSYDIR
 10
0.0
 20
1.0
 30
0.0
  9
$USERI1
 70
     3
  9
$USERI2
 70
     1
  9
$USERI3
 70
     1
  9
$USERI4
 70
     0
  9
$USERI5
 70
     0
  9
$USERR1
 40
1.0
  9
$USERR2
 40
3.0
  9
$USERR3
 40
3.0
  9
$USERR4
 40
3.0
  9
$USERR5
 40
10.0
  9
$WORLDVIEW
 70
     1
  9
$SHADEDGE
 70
     3
  9
$SHADEDIF
 70
    70
  9
$TILEMODE
 70
     1
  9
$MAXACTVP
 70
    16
  9
$PLIMCHECK
 70
     0
  9
$PEXTMIN
 10
1.0000000000000000E+020
 20
1.0000000000000000E+020
 30
1.0000000000000000E+020
  9
$PEXTMAX
 10
-1.0000000000000000E+020
 20
-1.0000000000000000E+020
 30
-1.0000000000000000E+020
  9
$PLIMMIN
 10
0.0
 20
0.0
  9
$PLIMMAX
 10
12.0
 20
9.0
  9
$UNITMODE
 70
     0
  9
$VISRETAIN
 70
     0
  9
$PLINEGEN
 70
     0
  9
$PSLTSCALE
 70
     0
  0
ENDSEC
  0
SECTION
  2
TABLES
  0
TABLE
  2
VPORT
 70
     1
  0
VPORT
  2
*ACTIVE
 70
     0
 10
0.0
 20
0.0
 11
1.0
 21
1.0
 12
192.49412581440311
 22
197.44726035192559
 13
0.0
 23
0.0
 14
5.0
 24
5.0
 15
10.0
 25
10.0
 16
0.0
 26
0.0
 36
1.0
 17
0.0
 27
0.0
 37
0.0
 40
401.38042228973131
 41
1.7807262569832401
 42
50.0
 43
0.0
 44
0.0
 50
0.0
 51
0.0
 71
     0
 72
   500
 73
     1
 74
     0
 75
     0
 76
     0
 77
     0
 78
     2
  0
ENDTAB
  0
TABLE
  2
LTYPE
 70
     3
  0
LTYPE
  2
CONTINUOUS
 70
     0
  3
Solid Line
 72
    65
 73
     0
 40
0.0
  0
LTYPE
  2
CENTER
 70
     0
  3
____ _ ____ _ ____ _ ____ _ ____ _ ____ _ ____
 72
    65
 73
     4
 40
2.0
 49
1.25
 49
-0.25
 49
0.25
 49
-0.25
  0
LTYPE
  2
PHANTOM2
 70
     0
  3
___ _ _ ___ _ _ ___ _ _ ___ _ _
 72
    65
 73
     6
 40
1.25
 49
0.625
 49
-0.125
 49
0.125
 49
-0.125
 49
0.125
 49
-0.125
  0
ENDTAB
  0
TABLE
  2
LAYER
 70
     2
  0
LAYER
  2
0
 70
     0
 62
     7
  6
CONTINUOUS
  0
LAYER
  2
1
 70
     0
 62
     1
  6
CENTER
  0
ENDTAB
  0
TABLE
  2
STYLE
 70
     2
  0
STYLE
  2
STANDARD
 70
     0
 40
0.0
 41
1.0
 50
0.0
 71
     0
 42
4.000000000000048
  3
SIMPLEX
  4
BIGFONT
  0
STYLE
  2
STANDARD1
 70
     0
 40
0.0
 41
1.0
 50
0.0
 71
     0
 42
3.0
  3
txt
  4

  0
ENDTAB
  0
TABLE
  2
VIEW
 70
     0
  0
ENDTAB
  0
TABLE
  2
UCS
 70
     0
  0
ENDTAB
  0
TABLE
  2
APPID
 70
     3
  0
APPID
  2
ACAD
 70
     0
  0
APPID
  2
ACAD_MLEADERVER
 70
     0
  0
APPID
  2
ACAD_NAV_VCDISPLAY
 70
     0
  0
ENDTAB
  0
TABLE
  2
DIMSTYLE
 70
     1
  0
DIMSTYLE
  2
STANDARD
 70
     0
  3

  4

  5

  6

  7

 40
1.0
 41
0.18
 42
0.0625
 43
0.38
 44
0.18
 45
0.0
 46
0.0
 47
0.0
 48
0.0
140
0.18
141
0.09
142
0.0
143
25.399999999999999
144
1.0
145
0.0
146
1.0
147
0.09
 71
     0
 72
     0
 73
     1
 74
     1
 75
     0
 76
     0
 77
     0
 78
     0
170
     0
171
     2
172
     0
173
     0
174
     0
175
     0
176
     0
177
     0
178
     0
  0
ENDTAB
  0
ENDSEC
  0
SECTION
  2
BLOCKS
  0
BLOCK
  8
0
  2
$MODEL_SPACE
 70
     0
 10
0.0
 20
0.0
 30
0.0
  3
$MODEL_SPACE
  1

  0
ENDBLK
  5
3B8
  8
0
  0
BLOCK
 67
     1
  8
0
  2
$PAPER_SPACE
 70
     0
 10
0.0
 20
0.0
 30
0.0
  3
$PAPER_SPACE
  1

  0
ENDBLK
  5
3B6
 67
     1
  8
0
  0
BLOCK
  8
0
  2
STDGX5
 70
     0
 10
0.0
 20
0.0
 30
0.0
  3
STDGX5
  1

  0
ENDBLK
  5
339
  8
0
  0
ENDSEC
  0
SECTION
  2
ENTITIES
  0
LINE
  5
1BE
  8
1
 10
154.4789070517883
 20
150.61196048166599
 30
0.0
 11
211.4789070517883
 21
150.61196048166599
 31
0.0
  0
LINE
  5
1BF
  8
0
 10
206.47890705178719
 20
154.01196048167179
 30
0.0
 11
206.47890705178719
 21
151.21196048164251
 31
0.0
  0
LINE
  5
1C0
  8
0
 10
206.47890705178719
 20
150.01196048169001
 30
0.0
 11
206.47890705178719
 21
147.2119604816458
 31
0.0
  0
LINE
  5
1C1
  8
0
 10
206.47890705178719
 20
146.01196048169331
 30
0.0
 11
206.47890705178719
 21
141.61196048166599
 31
0.0
  0
ARC
  5
1C2
  8
0
 10
206.47890705178111
 20
150.61196048166619
 30
0.0
 40
0.5999999999997954
 50
89.999999999424574
 51
270.00000000057543
  0
ARC
  5
1C3
  8
0
 10
206.47890705178099
 20
146.61196048166951
 30
0.0
 40
0.5999999999997954
 50
89.999999999424574
 51
270.00000000057543
  0
ARC
  5
1C4
  8
0
 10
206.4789070517871
 20
154.61196048166619
 30
0.0
 40
0.5999999999997954
 50
89.999999999424574
 51
270.00000000057543
  0
ARC
  5
1C5
  8
0
 10
205.97890705178719
 20
159.6119604816659
 30
0.0
 40
0.5
 50
359.99999999999977
 51
89.999999999999574
  0
ARC
  5
1C6
  8
0
 10
205.97890705178719
 20
141.61196048166599
 30
0.0
 40
0.5
 50
270.00000000000028
 51
359.99999999999977
  0
LINE
  5
1C7
  8
0
 10
195.47890705178759
 20
144.11196048166599
 30
0.0
 11
201.47890705178759
 21
140.11196048166971
 31
0.0
  0
LINE
  5
1C8
  8
0
 10
195.47890705178759
 20
157.11196048166599
 30
0.0
 11
201.47890705178759
 21
161.11196048165871
 31
0.0
  0
LINE
  5
1C9
  8
0
 10
188.97890705178759
 20
157.11196048166599
 30
0.0
 11
188.9789070517875
 21
144.1119604816659
 31
0.0
  0
LINE
  5
1CA
  8
0
 10
188.4789070517875
 20
156.6119604816661
 30
0.0
 11
188.97890705178759
 21
157.11196048166599
 31
0.0
  0
LINE
  5
1CB
  8
0
 10
188.4789070517875
 20
144.6119604816659
 30
0.0
 11
188.97890705178759
 21
144.1119604816659
 31
0.0
  0
LINE
  5
1CC
  8
0
 10
205.97890705178719
 20
141.11196048166599
 30
0.0
 11
202.4789070517877
 21
141.11196048166599
 31
0.0
  0
ARC
  5
1CD
  8
0
 10
201.47890705178759
 20
141.1119604816661
 30
0.0
 40
1.0
 50
270.00000000000091
 51
0.0
  0
ARC
  5
1CE
  8
0
 10
201.47890705178759
 20
160.1119604816659
 30
0.0
 40
1.0
 50
0.0
 51
89.999999999999076
  0
LINE
  5
1CF
  8
0
 10
202.4789070517877
 20
160.11196048166599
 30
0.0
 11
202.4789070517877
 21
141.11196048166599
 31
0.0
  0
LINE
  5
1D0
  8
0
 10
201.47890705178759
 20
161.1119604816659
 30
0.0
 11
201.47890705178759
 21
140.1119604816661
 31
0.0
  0
LINE
  5
1D1
  8
0
 10
195.47890705178759
 20
157.11196048166599
 30
0.0
 11
195.47890705178759
 21
144.11196048166599
 31
0.0
  0
LINE
  5
1D2
  8
0
 10
205.97890705178719
 20
160.1119604816659
 30
0.0
 11
202.4789070517877
 21
160.11196048166599
 31
0.0
  0
LINE
  5
1D3
  8
0
 10
206.47890705178719
 20
159.6119604816659
 30
0.0
 11
206.47890705178719
 21
155.21196048166061
 31
0.0
  0
LINE
  5
1D4
  8
0
 10
188.47890705178759
 20
156.6119604816661
 30
0.0
 11
188.47890705178759
 21
144.6119604816659
 31
0.0
  0
LINE
  5
1D5
  8
0
 10
195.47890705178759
 20
144.11196048166599
 30
0.0
 11
188.97890705178759
 21
144.1119604816659
 31
0.0
  0
LINE
  5
1D6
  8
0
 10
164.47890705178759
 20
148.11196048166599
 30
0.0
 11
160.7789070517876
 21
148.11196048166599
 31
0.0
  0
LINE
  5
1D7
  8
0
 10
164.47890705178759
 20
153.11196048166599
 30
0.0
 11
160.7789070517876
 21
153.11196048166599
 31
0.0
  0
LINE
  5
1D8
  8
0
 10
195.47890705178759
 20
157.11196048166599
 30
0.0
 11
188.97890705178759
 21
157.11196048166599
 31
0.0
  0
CIRCLE
  5
1EF
  8
0
 10
272.68452103865911
 20
150.61196048166599
 30
0.0
 40
10.50000000000078
  0
LINE
  5
1F0
  8
1
 10
272.68452103865911
 20
135.11196048166519
 30
0.0
 11
272.68452103865911
 21
166.11196048166681
 31
0.0
  0
LINE
  5
1F1
  8
1
 10
288.18452103865991
 20
150.61196048166599
 30
0.0
 11
257.18452103865832
 21
150.61196048166599
 31
0.0
  0
CIRCLE
  5
1F2
  8
0
 10
272.68452103865911
 20
150.61196048166599
 30
0.0
 40
9.4999999999999147
  0
LINE
  5
1F3
  8
0
 10
264.37248157773303
 20
155.21196048166669
 30
0.0
 11
280.99656049958543
 21
155.21196048166669
 31
0.0
  0
LINE
  5
1F4
  8
0
 10
263.81378262520087
 20
154.01196048166571
 30
0.0
 11
281.55525945211718
 21
154.01196048166571
 31
0.0
  0
LINE
  5
1F5
  8
0
 10
263.20348733974248
 20
151.21196048166971
 30
0.0
 11
282.16555473757569
 21
151.21196048166971
 31
0.0
  0
LINE
  5
1F6
  8
0
 10
263.20348733974191
 20
150.01196048166571
 30
0.0
 11
282.16555473757592
 21
150.01196048166571
 31
0.0
  0
LINE
  5
1F7
  8
0
 10
263.8137826252007
 20
147.21196048166689
 30
0.0
 11
281.55525945211741
 21
147.21196048166689
 31
0.0
  0
LINE
  5
1F8
  8
0
 10
264.37248157773121
 20
146.01196048166901
 30
0.0
 11
280.99656049958708
 21
146.01196048166901
 31
0.0
  0
LINE
  5
215
  8
0
 10
160.7789070517876
 20
153.1119604816661
 30
0.0
 11
160.7789070517876
 21
148.11196048166599
 31
0.0
  0
LINE
  5
216
  8
0
 10
160.7789070517876
 20
148.11196048166599
 30
0.0
 11
159.89078451949419
 21
148.624718264759
 31
0.0
  0
LINE
  5
217
  8
0
 10
160.7789070517876
 20
153.11196048166599
 30
0.0
 11
159.89078451949419
 21
152.59920269857301
 31
0.0
  0
ARC
  5
218
  8
0
 10
164.47890705178759
 20
150.61196048166599
 30
0.0
 40
5.0
 50
156.58123504463009
 51
203.4187649553696
  0
LINE
  5
219
  8
0
 10
159.89078451949371
 20
148.62471826475931
 30
0.0
 11
159.89078451949419
 21
152.59920269857301
 31
0.0
  0
CIRCLE
  5
227
  8
0
 10
101.2183311933746
 20
150.61196048166599
 30
0.0
 40
10.50000000000078
  0
LINE
  5
228
  8
1
 10
116.71833119337541
 20
150.61196048166599
 30
0.0
 11
85.718331193373871
 21
150.61196048166599
 31
0.0
  0
LINE
  5
229
  8
1
 10
101.2183311933746
 20
166.11196048166681
 30
0.0
 11
101.2183311933746
 21
135.11196048166519
 31
0.0
  0
CIRCLE
  5
22A
  8
0
 10
101.2183311933746
 20
150.61196048166599
 30
0.0
 40
6.500000000000056
  0
CIRCLE
  5
22B
  8
0
 10
101.2183311933746
 20
150.61196048166599
 30
0.0
 40
2.5
  0
CIRCLE
  5
22C
  8
0
 10
101.2183311933746
 20
150.61196048166599
 30
0.0
 40
1.9872422169070201
  0
LINE
  5
22D
  8
0
 10
165.47890705178759
 20
156.61196048166599
 30
0.0
 11
187.47890705178759
 21
156.61196048166599
 31
0.0
  0
LINE
  5
22E
  8
0
 10
165.47890705178759
 20
144.61196048166599
 30
0.0
 11
187.47890705178759
 21
144.61196048166599
 31
0.0
  0
LINE
  5
22F
  8
0
 10
164.47890705178759
 20
155.61196048166599
 30
0.0
 11
164.47890705178759
 21
145.61196048166599
 31
0.0
  0
LINE
  5
230
  8
0
 10
165.47890705178759
 20
156.61196048166599
 30
0.0
 11
164.47890705178759
 21
155.61196048166599
 31
0.0
  0
LINE
  5
231
  8
0
 10
164.47890705178759
 20
145.61196048166599
 30
0.0
 11
165.47890705178759
 21
144.61196048166599
 31
0.0
  0
LINE
  5
232
  8
0
 10
187.47890705178759
 20
144.61196048166599
 30
0.0
 11
188.47890705178759
 21
145.61196048166599
 31
0.0
  0
LINE
  5
233
  8
0
 10
187.4789070517875
 20
156.61196048166599
 30
0.0
 11
188.4789070517875
 21
155.61196048166599
 31
0.0
  0
LINE
  5
234
  8
0
 10
187.47890705178759
 20
144.61196048166599
 30
0.0
 11
187.47890705178759
 21
148.86196048166599
 31
0.0
  0
LINE
  5
235
  8
0
 10
165.47890705178759
 20
156.6119604816661
 30
0.0
 11
165.47890705178759
 21
144.61196048166599
 31
0.0
  0
CIRCLE
  5
23E
  8
0
 10
101.2183311933746
 20
150.61196048166599
 30
0.0
 40
6.0
  0
LINE
  5
23F
  8
0
 10
182.97890705178759
 20
152.36196048166599
 30
0.0
 11
182.97890705178759
 21
148.86196048166599
 31
0.0
  0
LINE
  5
240
  8
0
 10
182.97890705178759
 20
152.36196048166599
 30
0.0
 11
188.47890705178759
 21
152.36196048166599
 31
0.0
  0
LINE
  5
241
  8
0
 10
182.97890705178759
 20
148.86196048166599
 30
0.0
 11
188.47890705178759
 21
148.86196048166599
 31
0.0
  0
LINE
  5
242
  8
0
 10
187.47890705178759
 20
152.36196048166599
 30
0.0
 11
187.47890705178759
 21
156.61196048166599
 31
0.0
  0
LINE
  5
243
  8
0
 10
195.47890705178759
 20
104.06677377573639
 30
0.0
 11
188.97890705178759
 21
104.06677377573639
 31
0.0
  0
LINE
  5
244
  8
0
 10
195.47890705178759
 20
91.066773775736408
 30
0.0
 11
188.97890705178759
 21
91.066773775736351
 31
0.0
  0
LINE
  5
245
  8
1
 10
154.4789070517883
 20
97.566773775736408
 30
0.0
 11
211.4789070517883
 21
97.566773775736394
 31
0.0
  0
LINE
  5
246
  8
0
 10
164.47890705178759
 20
95.066773775736408
 30
0.0
 11
160.7789070517876
 21
95.066773775736408
 31
0.0
  0
LINE
  5
247
  8
0
 10
164.47890705178759
 20
100.06677377573639
 30
0.0
 11
160.7789070517876
 21
100.06677377573639
 31
0.0
  0
LINE
  5
248
  8
0
 10
159.89078451949371
 20
95.579531558829686
 30
0.0
 11
159.89078451949419
 21
99.554015992643428
 31
0.0
  0
ARC
  5
249
  8
0
 10
164.47890705178759
 20
97.566773775736408
 30
0.0
 40
5.0
 50
156.58123504463009
 51
203.4187649553696
  0
LINE
  5
24A
  8
0
 10
160.7789070517876
 20
100.06677377573639
 30
0.0
 11
160.7789070517876
 21
95.066773775736408
 31
0.0
  0
LINE
  5
24B
  8
0
 10
160.7789070517876
 20
95.066773775736408
 30
0.0
 11
159.89078451949419
 21
95.579531558829416
 31
0.0
  0
LINE
  5
24C
  8
0
 10
160.7789070517876
 20
100.06677377573639
 30
0.0
 11
159.89078451949419
 21
99.554015992643457
 31
0.0
  0
LINE
  5
24E
  8
0
 10
187.4789070517875
 20
103.56677377573639
 30
0.0
 11
188.4789070517875
 21
102.56677377573639
 31
0.0
  0
LINE
  5
24F
  8
0
 10
188.47890705178759
 20
103.56677377573649
 30
0.0
 11
188.47890705178759
 21
91.566773775736337
 31
0.0
  0
LINE
  5
250
  8
0
 10
188.97890705178759
 20
104.06677377573639
 30
0.0
 11
188.9789070517875
 21
91.066773775736351
 31
0.0
  0
LINE
  5
251
  8
0
 10
165.47890705178759
 20
103.56677377573639
 30
0.0
 11
165.47890705178759
 21
91.566773775736465
 31
0.0
  0
LINE
  5
252
  8
0
 10
165.47890705178759
 20
103.56677377573639
 30
0.0
 11
164.47890705178759
 21
102.56677377573639
 31
0.0
  0
LINE
  5
253
  8
0
 10
165.47890705178759
 20
91.566773775736465
 30
0.0
 11
187.47890705178759
 21
91.566773775736408
 31
0.0
  0
LINE
  5
254
  8
0
 10
164.47890705178759
 20
92.566773775736465
 30
0.0
 11
165.47890705178759
 21
91.566773775736465
 31
0.0
  0
LINE
  5
255
  8
0
 10
164.47890705178759
 20
102.56677377573639
 30
0.0
 11
164.47890705178759
 21
92.566773775736465
 31
0.0
  0
LINE
  5
256
  8
0
 10
187.47890705178759
 20
91.566773775736408
 30
0.0
 11
187.47890705178759
 21
103.56677377573639
 31
0.0
  0
LINE
  5
257
  8
0
 10
187.47890705178759
 20
91.566773775736408
 30
0.0
 11
188.47890705178759
 21
92.566773775736408
 31
0.0
  0
LINE
  5
258
  8
0
 10
188.4789070517875
 20
91.566773775736337
 30
0.0
 11
188.97890705178759
 21
91.066773775736351
 31
0.0
  0
LINE
  5
25C
  8
0
 10
165.47890705178759
 20
103.56677377573639
 30
0.0
 11
187.47890705178759
 21
103.56677377573639
 31
0.0
  0
LINE
  5
25D
  8
0
 10
188.4789070517875
 20
103.56677377573639
 30
0.0
 11
188.97890705178759
 21
104.06677377573639
 31
0.0
  0
LINE
  5
25E
  8
0
 10
195.47890705178759
 20
104.06677377573639
 30
0.0
 11
195.47890705178759
 21
91.066773775736408
 31
0.0
  0
LINE
  5
25F
  8
0
 10
206.47890705178719
 20
106.56677377573629
 30
0.0
 11
206.47890705178719
 21
102.166773775731
 31
0.0
  0
LINE
  5
260
  8
0
 10
201.47890705178759
 20
108.06677377573629
 30
0.0
 11
201.47890705178759
 21
87.066773775736536
 31
0.0
  0
LINE
  5
261
  8
0
 10
202.4789070517877
 20
107.06677377573639
 30
0.0
 11
202.4789070517877
 21
88.066773775736394
 31
0.0
  0
LINE
  5
262
  8
0
 10
205.97890705178719
 20
88.066773775736465
 30
0.0
 11
202.4789070517877
 21
88.066773775736394
 31
0.0
  0
LINE
  5
263
  8
0
 10
195.47890705178759
 20
91.066773775736408
 30
0.0
 11
201.47890705178759
 21
87.066773775740145
 31
0.0
  0
ARC
  5
264
  8
0
 10
201.47890705178759
 20
88.066773775736522
 30
0.0
 40
1.0
 50
270.00000000000091
 51
0.0
  0
LINE
  5
265
  8
0
 10
206.47890705178719
 20
92.966773775763727
 30
0.0
 11
206.47890705178719
 21
88.566773775736465
 31
0.0
  0
ARC
  5
266
  8
0
 10
205.97890705178719
 20
88.566773775736465
 30
0.0
 40
0.5
 50
270.00000000000028
 51
359.99999999999977
  0
ARC
  5
267
  8
0
 10
206.47890705178111
 20
97.566773775736635
 30
0.0
 40
0.5999999999997954
 50
89.999999999424574
 51
270.00000000057543
  0
ARC
  5
268
  8
0
 10
206.47890705178099
 20
93.566773775739918
 30
0.0
 40
0.5999999999997954
 50
89.999999999424574
 51
270.00000000057543
  0
LINE
  5
269
  8
0
 10
206.47890705178719
 20
96.966773775760444
 30
0.0
 11
206.47890705178719
 21
94.166773775716194
 31
0.0
  0
ARC
  5
26A
  8
0
 10
206.4789070517871
 20
101.56677377573661
 30
0.0
 40
0.5999999999997954
 50
89.999999999424574
 51
270.00000000057543
  0
LINE
  5
26B
  8
0
 10
206.47890705178719
 20
100.9667737757422
 30
0.0
 11
206.47890705178719
 21
98.166773775712898
 31
0.0
  0
LINE
  5
26C
  8
0
 10
205.97890705178719
 20
107.06677377573629
 30
0.0
 11
202.4789070517877
 21
107.06677377573639
 31
0.0
  0
LINE
  5
26D
  8
0
 10
195.47890705178759
 20
104.06677377573639
 30
0.0
 11
201.47890705178759
 21
108.0667737757291
 31
0.0
  0
ARC
  5
26E
  8
0
 10
201.47890705178759
 20
107.06677377573629
 30
0.0
 40
1.0
 50
0.0
 51
89.999999999999076
  0
ARC
  5
26F
  8
0
 10
205.97890705178719
 20
106.56677377573629
 30
0.0
 40
0.5
 50
359.99999999999977
 51
89.999999999999574
  0
LINE
  5
270
  8
1
 10
154.4789070517883
 20
203.6571471875956
 30
0.0
 11
211.4789070517883
 21
203.6571471875956
 31
0.0
  0
LINE
  5
271
  8
0
 10
195.47890705178759
 20
210.1571471875956
 30
0.0
 11
188.97890705178759
 21
210.15714718759571
 31
0.0
  0
LINE
  5
272
  8
0
 10
195.47890705178759
 20
197.1571471875956
 30
0.0
 11
188.97890705178759
 21
197.1571471875956
 31
0.0
  0
LINE
  5
273
  8
0
 10
187.47890705178759
 20
209.6571471875956
 30
0.0
 11
187.47890705178759
 21
197.6571471875956
 31
0.0
  0
LINE
  5
274
  8
0
 10
164.47890705178759
 20
198.6571471875956
 30
0.0
 11
164.47890705178759
 21
208.6571471875956
 31
0.0
  0
LINE
  5
275
  8
0
 10
165.47890705178759
 20
197.65714718759551
 30
0.0
 11
165.47890705178759
 21
209.6571471875956
 31
0.0
  0
LINE
  5
276
  8
0
 10
188.97890705178759
 20
197.1571471875956
 30
0.0
 11
188.9789070517875
 21
210.15714718759571
 31
0.0
  0
LINE
  5
277
  8
0
 10
188.47890705178759
 20
197.65714718759551
 30
0.0
 11
188.47890705178759
 21
209.65714718759571
 31
0.0
  0
LINE
  5
278
  8
0
 10
165.47890705178759
 20
209.6571471875956
 30
0.0
 11
187.47890705178759
 21
209.6571471875956
 31
0.0
  0
LINE
  5
279
  8
0
 10
164.47890705178759
 20
208.6571471875956
 30
0.0
 11
165.47890705178759
 21
209.6571471875956
 31
0.0
  0
LINE
  5
27A
  8
0
 10
188.4789070517875
 20
209.65714718759571
 30
0.0
 11
188.97890705178759
 21
210.15714718759571
 31
0.0
  0
LINE
  5
27B
  8
0
 10
187.47890705178759
 20
209.6571471875956
 30
0.0
 11
188.47890705178759
 21
208.6571471875956
 31
0.0
  0
LINE
  5
27C
  8
0
 10
164.47890705178759
 20
201.1571471875956
 30
0.0
 11
160.7789070517876
 21
201.1571471875956
 31
0.0
  0
LINE
  5
27D
  8
0
 10
164.47890705178759
 20
206.1571471875956
 30
0.0
 11
160.7789070517876
 21
206.1571471875956
 31
0.0
  0
LINE
  5
27E
  8
0
 10
160.7789070517876
 20
201.1571471875956
 30
0.0
 11
160.7789070517876
 21
206.1571471875956
 31
0.0
  0
ARC
  5
27F
  8
0
 10
164.47890705178759
 20
203.6571471875956
 30
0.0
 40
5.0
 50
156.58123504463109
 51
203.41876495536911
  0
LINE
  5
280
  8
0
 10
159.89078451949371
 20
205.64438940450239
 30
0.0
 11
159.89078451949419
 21
201.66990497068861
 31
0.0
  0
LINE
  5
281
  8
0
 10
160.7789070517876
 20
206.1571471875956
 30
0.0
 11
159.89078451949419
 21
205.64438940450259
 31
0.0
  0
LINE
  5
282
  8
0
 10
160.7789070517876
 20
201.1571471875956
 30
0.0
 11
159.89078451949419
 21
201.66990497068861
 31
0.0
  0
LINE
  5
283
  8
0
 10
165.47890705178759
 20
197.6571471875956
 30
0.0
 11
187.47890705178759
 21
197.6571471875956
 31
0.0
  0
LINE
  5
284
  8
0
 10
165.47890705178759
 20
197.6571471875956
 30
0.0
 11
164.47890705178759
 21
198.6571471875956
 31
0.0
  0
LINE
  5
285
  8
0
 10
187.4789070517875
 20
197.6571471875956
 30
0.0
 11
188.4789070517875
 21
198.6571471875956
 31
0.0
  0
LINE
  5
286
  8
0
 10
188.4789070517875
 20
197.65714718759551
 30
0.0
 11
188.97890705178759
 21
197.1571471875956
 31
0.0
  0
LINE
  5
287
  8
0
 10
206.47890705178719
 20
208.25714718756831
 30
0.0
 11
206.47890705178719
 21
212.6571471875956
 31
0.0
  0
LINE
  5
288
  8
0
 10
202.4789070517877
 20
194.15714718759551
 30
0.0
 11
202.4789070517877
 21
213.1571471875956
 31
0.0
  0
LINE
  5
289
  8
0
 10
201.47890705178759
 20
193.15714718759571
 30
0.0
 11
201.47890705178759
 21
214.15714718759551
 31
0.0
  0
LINE
  5
28A
  8
0
 10
195.47890705178759
 20
197.1571471875956
 30
0.0
 11
195.47890705178759
 21
210.1571471875956
 31
0.0
  0
LINE
  5
28B
  8
0
 10
205.97890705178719
 20
213.1571471875956
 30
0.0
 11
202.4789070517877
 21
213.1571471875956
 31
0.0
  0
LINE
  5
28C
  8
0
 10
195.47890705178759
 20
210.1571471875956
 30
0.0
 11
201.47890705178759
 21
214.1571471875919
 31
0.0
  0
ARC
  5
28D
  8
0
 10
201.47890705178759
 20
213.15714718759551
 30
0.0
 40
1.0
 50
0.0
 51
89.999999999999091
  0
ARC
  5
28E
  8
0
 10
205.97890705178719
 20
212.6571471875956
 30
0.0
 40
0.5
 50
0.0000000000002036
 51
89.999999999999645
  0
LINE
  5
28F
  8
0
 10
205.97890705178719
 20
194.15714718759571
 30
0.0
 11
202.4789070517877
 21
194.15714718759551
 31
0.0
  0
LINE
  5
290
  8
0
 10
195.47890705178759
 20
197.1571471875956
 30
0.0
 11
201.47890705178759
 21
193.1571471876029
 31
0.0
  0
ARC
  5
291
  8
0
 10
201.47890705178759
 20
194.15714718759571
 30
0.0
 40
1.0
 50
270.00000000000091
 51
0.0
  0
LINE
  5
292
  8
0
 10
206.47890705178719
 20
194.65714718759571
 30
0.0
 11
206.47890705178719
 21
199.057147187601
 31
0.0
  0
ARC
  5
293
  8
0
 10
206.47890705178111
 20
203.6571471875954
 30
0.0
 40
0.5999999999997954
 50
89.999999999424602
 51
270.00000000057543
  0
LINE
  5
294
  8
0
 10
206.47890705178719
 20
204.2571471875716
 30
0.0
 11
206.47890705178719
 21
207.05714718761581
 31
0.0
  0
ARC
  5
295
  8
0
 10
206.47890705178099
 20
207.6571471875921
 30
0.0
 40
0.5999999999997954
 50
89.999999999424602
 51
270.00000000057543
  0
LINE
  5
296
  8
0
 10
206.47890705178719
 20
200.25714718758979
 30
0.0
 11
206.47890705178719
 21
203.05714718761919
 31
0.0
  0
ARC
  5
297
  8
0
 10
206.4789070517871
 20
199.6571471875954
 30
0.0
 40
0.5999999999997954
 50
89.999999999424602
 51
270.00000000057543
  0
ARC
  5
298
  8
0
 10
205.97890705178719
 20
194.65714718759571
 30
0.0
 40
0.5
 50
270.0000000000004
 51
0.0000000000002036
  0
INSERT
  5
363
  8
0
  2
STDGX5
 10
0.0
 20
0.0
 30
0.0
 41
0.25
 42
0.25
 43
0.25
  0
INSERT
  5
364
  8
0
  2
STDGX5
 10
0.0
 20
0.0
 30
0.0
 41
0.25
 42
0.25
 43
0.25
  0
INSERT
  5
365
  8
0
  2
STDGX5
 10
68.75
 20
0.0
 30
0.0
 41
0.25
 42
0.25
 43
0.25
  0
INSERT
  5
366
  8
0
  2
STDGX5
 10
68.75
 20
0.0
 30
0.0
 41
0.25
 42
0.25
 43
0.25
  0
INSERT
  5
367
  8
0
  2
STDGX5
 10
0.0
 20
0.0
 30
0.0
 41
0.5
 42
0.5
 43
0.5
  0
INSERT
  5
368
  8
0
  2
STDGX5
 10
0.0
 20
0.0
 30
0.0
 41
0.5
 42
0.5
 43
0.5
  0
INSERT
  5
369
  8
0
  2
STDGX5
 10
137.5
 20
0.0
 30
0.0
 41
0.5
 42
0.5
 43
0.5
  0
INSERT
  5
36A
  8
0
  2
STDGX5
 10
137.5
 20
0.0
 30
0.0
 41
0.5
 42
0.5
 43
0.5
  0
INSERT
  5
36C
  8
0
  2
STDGX5
 10
-35.0
 20
-100.0
 30
0.0
 41
0.3333333333333333
 42
0.3333333333333333
 43
0.3333333333333333
  0
INSERT
  5
36D
  8
0
  2
STDGX5
 10
-35.0
 20
-100.0
 30
0.0
 41
0.3333333333333333
 42
0.3333333333333333
 43
0.3333333333333333
  0
INSERT
  5
36E
  8
0
  2
STDGX5
 10
56.666666666666643
 20
-100.0
 30
0.0
 41
0.3333333333333333
 42
0.3333333333333333
 43
0.3333333333333333
  0
INSERT
  5
36F
  8
0
  2
STDGX5
 10
56.666666666666643
 20
-100.0
 30
0.0
 41
0.3333333333333333
 42
0.3333333333333333
 43
0.3333333333333333
  0
INSERT
  5
371
  8
0
  2
STDGX5
 10
-35.0
 20
-100.0
 30
0.0
 41
0.3333333333333333
 42
0.3333333333333333
 43
0.3333333333333333
  0
INSERT
  5
372
  8
0
  2
STDGX5
 10
-35.0
 20
-100.0
 30
0.0
 41
0.3333333333333333
 42
0.3333333333333333
 43
0.3333333333333333
  0
INSERT
  5
373
  8
0
  2
STDGX5
 10
56.666666666666657
 20
-100.0
 30
0.0
 41
0.3333333333333333
 42
0.3333333333333333
 43
0.3333333333333333
  0
INSERT
  5
374
  8
0
  2
STDGX5
 10
56.666666666666657
 20
-100.0
 30
0.0
 41
0.3333333333333333
 42
0.3333333333333333
 43
0.3333333333333333
  0
INSERT
  5
375
  8
0
  2
STDGX5
 10
0.0
 20
0.0
 30
0.0
  0
INSERT
  5
376
  8
0
  2
STDGX5
 10
0.0
 20
0.0
 30
0.0
  0
INSERT
  5
377
  8
0
  2
STDGX5
 10
275.0
 20
0.0
 30
0.0
  0
INSERT
  5
378
  8
0
  2
STDGX5
 10
275.0
 20
0.0
 30
0.0
  0
TEXT
  5
498
  8
0
 62
     3
 10
0.0
 20
0.0
 30
0.0
 40
5.0
  1
WDX10L-SUS
  7
STANDARD1
  0
ENDSEC
  0
EOF
