  0
SECTION
  2
HEADER
  9
$ACADVER
  1
AC1009
  9
$INSBASE
 10
0.0
 20
0.0
 30
0.0
  9
$EXTMIN
 10
0.0
 20
-1.4802182810368341
 30
0.0
  9
$EXTMAX
 10
299.07992129857712
 20
219.01762530432899
 30
0.0
  9
$LIMMIN
 10
0.0
 20
0.0
  9
$LIMMAX
 10
385.0
 20
270.0
  9
$ORTHOMODE
 70
     1
  9
$REGENMODE
 70
     1
  9
$FILLMODE
 70
     1
  9
$QTEXTMODE
 70
     0
  9
$MIRRTEXT
 70
     0
  9
$DRAGMODE
 70
     2
  9
$LTSCALE
 40
10.0
  9
$OSMODE
 70
    55
  9
$ATTMODE
 70
     1
  9
$TEXTSIZE
 40
4.000000000000048
  9
$TRACEWID
 40
0.05
  9
$TEXTSTYLE
  7
STANDARD
  9
$CLAYER
  8
0
  9
$CELTYPE
  6
BYLAYER
  9
$CECOLOR
 62
   256
  9
$DIMSCALE
 40
1.0
  9
$DIMASZ
 40
3.0
  9
$DIMEXO
 40
2.0
  9
$DIMDLI
 40
0.38
  9
$DIMRND
 40
0.0
  9
$DIMDLE
 40
0.0
  9
$DIMEXE
 40
2.0
  9
$DIMTP
 40
0.0
  9
$DIMTM
 40
0.0
  9
$DIMTXT
 40
3.0
  9
$DIMCEN
 40
0.0
  9
$DIMTSZ
 40
0.0
  9
$DIMTOL
 70
     0
  9
$DIMLIM
 70
     0
  9
$DIMTIH
 70
     0
  9
$DIMTOH
 70
     0
  9
$DIMSE1
 70
     0
  9
$DIMSE2
 70
     0
  9
$DIMTAD
 70
     1
  9
$DIMZIN
 70
     0
  9
$DIMBLK
  1

  9
$DIMASO
 70
     1
  9
$DIMSHO
 70
     0
  9
$DIMPOST
  1

  9
$DIMAPOST
  1

  9
$DIMALT
 70
     0
  9
$DIMALTD
 70
     2
  9
$DIMALTF
 40
25.399999999999999
  9
$DIMLFAC
 40
1.0
  9
$DIMTOFL
 70
     1
  9
$DIMTVP
 40
1.6000000000000001
  9
$DIMTIX
 70
     1
  9
$DIMSOXD
 70
     0
  9
$DIMSAH
 70
     0
  9
$DIMBLK1
  1

  9
$DIMBLK2
  1

  9
$DIMSTYLE
  2
STANDARD
  9
$DIMCLRD
 70
     0
  9
$DIMCLRE
 70
     0
  9
$DIMCLRT
 70
     0
  9
$DIMTFAC
 40
1.0
  9
$DIMGAP
 40
1.0
  9
$LUNITS
 70
     2
  9
$LUPREC
 70
     4
  9
$SKETCHINC
 40
0.1
  9
$FILLETRAD
 40
0.0
  9
$AUNITS
 70
     0
  9
$AUPREC
 70
     4
  9
$MENU
  1
E:\r13\win\SUPPORT\ACAD
  9
$ELEVATION
 40
0.0
  9
$PELEVATION
 40
0.0
  9
$THICKNESS
 40
0.0
  9
$LIMCHECK
 70
     0
  9
$BLIPMODE
 70
     0
  9
$CHAMFERA
 40
0.0
  9
$CHAMFERB
 40
0.0
  9
$SKPOLY
 70
     0
  9
$TDCREATE
 40
2450280.598206134
  9
$TDUPDATE
 40
2456598.391366343
  9
$TDINDWG
 40
0.0310861574
  9
$TDUSRTIMER
 40
0.0310861574
  9
$USRTIMER
 70
     1
  9
$ANGBASE
 50
0.0
  9
$ANGDIR
 70
     0
  9
$PDMODE
 70
     0
  9
$PDSIZE
 40
0.0
  9
$PLINEWID
 40
0.0
  9
$COORDS
 70
     1
  9
$SPLFRAME
 70
     0
  9
$SPLINETYPE
 70
     6
  9
$SPLINESEGS
 70
     8
  9
$ATTDIA
 70
     0
  9
$ATTREQ
 70
     1
  9
$HANDLING
 70
     1
  9
$HANDSEED
  5
9AE
  9
$SURFTAB1
 70
     6
  9
$SURFTAB2
 70
     6
  9
$SURFTYPE
 70
     6
  9
$SURFU
 70
     6
  9
$SURFV
 70
     6
  9
$UCSNAME
  2

  9
$UCSORG
 10
0.0
 20
0.0
 30
0.0
  9
$UCSXDIR
 10
1.0
 20
0.0
 30
0.0
  9
$UCSYDIR
 10
0.0
 20
1.0
 30
0.0
  9
$PUCSNAME
  2

  9
$PUCSORG
 10
0.0
 20
0.0
 30
0.0
  9
$PUCSXDIR
 10
1.0
 20
0.0
 30
0.0
  9
$PUCSYDIR
 10
0.0
 20
1.0
 30
0.0
  9
$USERI1
 70
     3
  9
$USERI2
 70
     1
  9
$USERI3
 70
     1
  9
$USERI4
 70
     0
  9
$USERI5
 70
     0
  9
$USERR1
 40
1.0
  9
$USERR2
 40
3.0
  9
$USERR3
 40
3.0
  9
$USERR4
 40
3.0
  9
$USERR5
 40
10.0
  9
$WORLDVIEW
 70
     1
  9
$SHADEDGE
 70
     3
  9
$SHADEDIF
 70
    70
  9
$TILEMODE
 70
     1
  9
$MAXACTVP
 70
    16
  9
$PLIMCHECK
 70
     0
  9
$PEXTMIN
 10
1.0000000000000000E+020
 20
1.0000000000000000E+020
 30
1.0000000000000000E+020
  9
$PEXTMAX
 10
-1.0000000000000000E+020
 20
-1.0000000000000000E+020
 30
-1.0000000000000000E+020
  9
$PLIMMIN
 10
0.0
 20
0.0
  9
$PLIMMAX
 10
12.0
 20
9.0
  9
$UNITMODE
 70
     0
  9
$VISRETAIN
 70
     0
  9
$PLINEGEN
 70
     0
  9
$PSLTSCALE
 70
     0
  0
ENDSEC
  0
SECTION
  2
TABLES
  0
TABLE
  2
VPORT
 70
     1
  0
VPORT
  2
*ACTIVE
 70
     0
 10
0.0
 20
0.0
 11
1.0
 21
1.0
 12
192.49412581440311
 22
197.44726035192559
 13
0.0
 23
0.0
 14
5.0
 24
5.0
 15
10.0
 25
10.0
 16
0.0
 26
0.0
 36
1.0
 17
0.0
 27
0.0
 37
0.0
 40
401.38042228973131
 41
1.7807262569832401
 42
50.0
 43
0.0
 44
0.0
 50
0.0
 51
0.0
 71
     0
 72
   500
 73
     1
 74
     0
 75
     0
 76
     0
 77
     0
 78
     2
  0
ENDTAB
  0
TABLE
  2
LTYPE
 70
     3
  0
LTYPE
  2
CONTINUOUS
 70
     0
  3
Solid Line
 72
    65
 73
     0
 40
0.0
  0
LTYPE
  2
CENTER
 70
     0
  3
____ _ ____ _ ____ _ ____ _ ____ _ ____ _ ____
 72
    65
 73
     4
 40
2.0
 49
1.25
 49
-0.25
 49
0.25
 49
-0.25
  0
LTYPE
  2
PHANTOM2
 70
     0
  3
___ _ _ ___ _ _ ___ _ _ ___ _ _
 72
    65
 73
     6
 40
1.25
 49
0.625
 49
-0.125
 49
0.125
 49
-0.125
 49
0.125
 49
-0.125
  0
ENDTAB
  0
TABLE
  2
LAYER
 70
     2
  0
LAYER
  2
0
 70
     0
 62
     7
  6
CONTINUOUS
  0
LAYER
  2
1
 70
     0
 62
     1
  6
CENTER
  0
ENDTAB
  0
TABLE
  2
STYLE
 70
     2
  0
STYLE
  2
STANDARD
 70
     0
 40
0.0
 41
1.0
 50
0.0
 71
     0
 42
4.000000000000048
  3
SIMPLEX
  4
BIGFONT
  0
STYLE
  2
STANDARD1
 70
     0
 40
0.0
 41
1.0
 50
0.0
 71
     0
 42
3.0
  3
txt
  4

  0
ENDTAB
  0
TABLE
  2
VIEW
 70
     0
  0
ENDTAB
  0
TABLE
  2
UCS
 70
     0
  0
ENDTAB
  0
TABLE
  2
APPID
 70
     3
  0
APPID
  2
ACAD
 70
     0
  0
APPID
  2
ACAD_MLEADERVER
 70
     0
  0
APPID
  2
ACAD_NAV_VCDISPLAY
 70
     0
  0
ENDTAB
  0
TABLE
  2
DIMSTYLE
 70
     1
  0
DIMSTYLE
  2
STANDARD
 70
     0
  3

  4

  5

  6

  7

 40
1.0
 41
0.18
 42
0.0625
 43
0.38
 44
0.18
 45
0.0
 46
0.0
 47
0.0
 48
0.0
140
0.18
141
0.09
142
0.0
143
25.399999999999999
144
1.0
145
0.0
146
1.0
147
0.09
 71
     0
 72
     0
 73
     1
 74
     1
 75
     0
 76
     0
 77
     0
 78
     0
170
     0
171
     2
172
     0
173
     0
174
     0
175
     0
176
     0
177
     0
178
     0
  0
ENDTAB
  0
ENDSEC
  0
SECTION
  2
BLOCKS
  0
BLOCK
  8
0
  2
$MODEL_SPACE
 70
     0
 10
0.0
 20
0.0
 30
0.0
  3
$MODEL_SPACE
  1

  0
ENDBLK
  5
83E
  8
0
  0
BLOCK
 67
     1
  8
0
  2
$PAPER_SPACE
 70
     0
 10
0.0
 20
0.0
 30
0.0
  3
$PAPER_SPACE
  1

  0
ENDBLK
  5
83C
 67
     1
  8
0
  0
BLOCK
  8
0
  2
STDGX5
 70
     0
 10
0.0
 20
0.0
 30
0.0
  3
STDGX5
  1

  0
ENDBLK
  5
176
  8
0
  0
ENDSEC
  0
SECTION
  2
ENTITIES
  0
INSERT
  5
1A0
  8
0
  2
STDGX5
 10
0.0
 20
0.0
 30
0.0
 41
0.25
 42
0.25
 43
0.25
  0
INSERT
  5
1A1
  8
0
  2
STDGX5
 10
0.0
 20
0.0
 30
0.0
 41
0.25
 42
0.25
 43
0.25
  0
INSERT
  5
1A2
  8
0
  2
STDGX5
 10
68.75
 20
0.0
 30
0.0
 41
0.25
 42
0.25
 43
0.25
  0
INSERT
  5
1A3
  8
0
  2
STDGX5
 10
68.75
 20
0.0
 30
0.0
 41
0.25
 42
0.25
 43
0.25
  0
INSERT
  5
1A4
  8
0
  2
STDGX5
 10
0.0
 20
0.0
 30
0.0
 41
0.5
 42
0.5
 43
0.5
  0
INSERT
  5
1A5
  8
0
  2
STDGX5
 10
0.0
 20
0.0
 30
0.0
 41
0.5
 42
0.5
 43
0.5
  0
INSERT
  5
1A6
  8
0
  2
STDGX5
 10
137.5
 20
0.0
 30
0.0
 41
0.5
 42
0.5
 43
0.5
  0
INSERT
  5
1A7
  8
0
  2
STDGX5
 10
137.5
 20
0.0
 30
0.0
 41
0.5
 42
0.5
 43
0.5
  0
INSERT
  5
1A9
  8
0
  2
STDGX5
 10
-35.0
 20
-100.0
 30
0.0
 41
0.3333333333333333
 42
0.3333333333333333
 43
0.3333333333333333
  0
INSERT
  5
1AA
  8
0
  2
STDGX5
 10
-35.0
 20
-100.0
 30
0.0
 41
0.3333333333333333
 42
0.3333333333333333
 43
0.3333333333333333
  0
INSERT
  5
1AB
  8
0
  2
STDGX5
 10
56.666666666666643
 20
-100.0
 30
0.0
 41
0.3333333333333333
 42
0.3333333333333333
 43
0.3333333333333333
  0
INSERT
  5
1AC
  8
0
  2
STDGX5
 10
56.666666666666643
 20
-100.0
 30
0.0
 41
0.3333333333333333
 42
0.3333333333333333
 43
0.3333333333333333
  0
INSERT
  5
1AE
  8
0
  2
STDGX5
 10
-35.0
 20
-100.0
 30
0.0
 41
0.3333333333333333
 42
0.3333333333333333
 43
0.3333333333333333
  0
INSERT
  5
1AF
  8
0
  2
STDGX5
 10
-35.0
 20
-100.0
 30
0.0
 41
0.3333333333333333
 42
0.3333333333333333
 43
0.3333333333333333
  0
INSERT
  5
1B0
  8
0
  2
STDGX5
 10
56.666666666666657
 20
-100.0
 30
0.0
 41
0.3333333333333333
 42
0.3333333333333333
 43
0.3333333333333333
  0
INSERT
  5
1B1
  8
0
  2
STDGX5
 10
56.666666666666657
 20
-100.0
 30
0.0
 41
0.3333333333333333
 42
0.3333333333333333
 43
0.3333333333333333
  0
INSERT
  5
1B2
  8
0
  2
STDGX5
 10
0.0
 20
0.0
 30
0.0
  0
INSERT
  5
1B3
  8
0
  2
STDGX5
 10
0.0
 20
0.0
 30
0.0
  0
INSERT
  5
1B4
  8
0
  2
STDGX5
 10
275.0
 20
0.0
 30
0.0
  0
INSERT
  5
1B5
  8
0
  2
STDGX5
 10
275.0
 20
0.0
 30
0.0
  0
INSERT
  5
3D9
  8
0
  2
STDGX5
 10
0.0
 20
0.0
 30
0.0
 41
0.25
 42
0.25
 43
0.25
  0
INSERT
  5
3DA
  8
0
  2
STDGX5
 10
0.0
 20
0.0
 30
0.0
 41
0.25
 42
0.25
 43
0.25
  0
INSERT
  5
3DB
  8
0
  2
STDGX5
 10
68.75
 20
0.0
 30
0.0
 41
0.25
 42
0.25
 43
0.25
  0
INSERT
  5
3DC
  8
0
  2
STDGX5
 10
68.75
 20
0.0
 30
0.0
 41
0.25
 42
0.25
 43
0.25
  0
INSERT
  5
3DD
  8
0
  2
STDGX5
 10
0.0
 20
0.0
 30
0.0
 41
0.5
 42
0.5
 43
0.5
  0
INSERT
  5
3DE
  8
0
  2
STDGX5
 10
0.0
 20
0.0
 30
0.0
 41
0.5
 42
0.5
 43
0.5
  0
INSERT
  5
3DF
  8
0
  2
STDGX5
 10
137.5
 20
0.0
 30
0.0
 41
0.5
 42
0.5
 43
0.5
  0
INSERT
  5
3E0
  8
0
  2
STDGX5
 10
137.5
 20
0.0
 30
0.0
 41
0.5
 42
0.5
 43
0.5
  0
INSERT
  5
3E2
  8
0
  2
STDGX5
 10
-35.0
 20
-100.0
 30
0.0
 41
0.3333333333333333
 42
0.3333333333333333
 43
0.3333333333333333
  0
INSERT
  5
3E3
  8
0
  2
STDGX5
 10
-35.0
 20
-100.0
 30
0.0
 41
0.3333333333333333
 42
0.3333333333333333
 43
0.3333333333333333
  0
INSERT
  5
3E4
  8
0
  2
STDGX5
 10
56.666666666666643
 20
-100.0
 30
0.0
 41
0.3333333333333333
 42
0.3333333333333333
 43
0.3333333333333333
  0
INSERT
  5
3E5
  8
0
  2
STDGX5
 10
56.666666666666643
 20
-100.0
 30
0.0
 41
0.3333333333333333
 42
0.3333333333333333
 43
0.3333333333333333
  0
INSERT
  5
3E7
  8
0
  2
STDGX5
 10
-35.0
 20
-100.0
 30
0.0
 41
0.3333333333333333
 42
0.3333333333333333
 43
0.3333333333333333
  0
INSERT
  5
3E8
  8
0
  2
STDGX5
 10
-35.0
 20
-100.0
 30
0.0
 41
0.3333333333333333
 42
0.3333333333333333
 43
0.3333333333333333
  0
INSERT
  5
3E9
  8
0
  2
STDGX5
 10
56.666666666666657
 20
-100.0
 30
0.0
 41
0.3333333333333333
 42
0.3333333333333333
 43
0.3333333333333333
  0
INSERT
  5
3EA
  8
0
  2
STDGX5
 10
56.666666666666657
 20
-100.0
 30
0.0
 41
0.3333333333333333
 42
0.3333333333333333
 43
0.3333333333333333
  0
INSERT
  5
3EB
  8
0
  2
STDGX5
 10
0.0
 20
0.0
 30
0.0
  0
INSERT
  5
3EC
  8
0
  2
STDGX5
 10
0.0
 20
0.0
 30
0.0
  0
INSERT
  5
3ED
  8
0
  2
STDGX5
 10
275.0
 20
0.0
 30
0.0
  0
INSERT
  5
3EE
  8
0
  2
STDGX5
 10
275.0
 20
0.0
 30
0.0
  0
INSERT
  5
5E8
  8
0
  2
STDGX5
 10
0.0
 20
0.0
 30
0.0
 41
0.25
 42
0.25
 43
0.25
  0
INSERT
  5
5E9
  8
0
  2
STDGX5
 10
0.0
 20
0.0
 30
0.0
 41
0.25
 42
0.25
 43
0.25
  0
INSERT
  5
5EA
  8
0
  2
STDGX5
 10
68.75
 20
0.0
 30
0.0
 41
0.25
 42
0.25
 43
0.25
  0
INSERT
  5
5EB
  8
0
  2
STDGX5
 10
68.75
 20
0.0
 30
0.0
 41
0.25
 42
0.25
 43
0.25
  0
INSERT
  5
5EC
  8
0
  2
STDGX5
 10
0.0
 20
0.0
 30
0.0
 41
0.5
 42
0.5
 43
0.5
  0
INSERT
  5
5ED
  8
0
  2
STDGX5
 10
0.0
 20
0.0
 30
0.0
 41
0.5
 42
0.5
 43
0.5
  0
INSERT
  5
5EE
  8
0
  2
STDGX5
 10
137.5
 20
0.0
 30
0.0
 41
0.5
 42
0.5
 43
0.5
  0
INSERT
  5
5EF
  8
0
  2
STDGX5
 10
137.5
 20
0.0
 30
0.0
 41
0.5
 42
0.5
 43
0.5
  0
INSERT
  5
5F1
  8
0
  2
STDGX5
 10
-35.0
 20
-100.0
 30
0.0
 41
0.3333333333333333
 42
0.3333333333333333
 43
0.3333333333333333
  0
INSERT
  5
5F2
  8
0
  2
STDGX5
 10
-35.0
 20
-100.0
 30
0.0
 41
0.3333333333333333
 42
0.3333333333333333
 43
0.3333333333333333
  0
INSERT
  5
5F3
  8
0
  2
STDGX5
 10
56.666666666666643
 20
-100.0
 30
0.0
 41
0.3333333333333333
 42
0.3333333333333333
 43
0.3333333333333333
  0
INSERT
  5
5F4
  8
0
  2
STDGX5
 10
56.666666666666643
 20
-100.0
 30
0.0
 41
0.3333333333333333
 42
0.3333333333333333
 43
0.3333333333333333
  0
INSERT
  5
5F6
  8
0
  2
STDGX5
 10
-35.0
 20
-100.0
 30
0.0
 41
0.3333333333333333
 42
0.3333333333333333
 43
0.3333333333333333
  0
INSERT
  5
5F7
  8
0
  2
STDGX5
 10
-35.0
 20
-100.0
 30
0.0
 41
0.3333333333333333
 42
0.3333333333333333
 43
0.3333333333333333
  0
INSERT
  5
5F8
  8
0
  2
STDGX5
 10
56.666666666666657
 20
-100.0
 30
0.0
 41
0.3333333333333333
 42
0.3333333333333333
 43
0.3333333333333333
  0
INSERT
  5
5F9
  8
0
  2
STDGX5
 10
56.666666666666657
 20
-100.0
 30
0.0
 41
0.3333333333333333
 42
0.3333333333333333
 43
0.3333333333333333
  0
INSERT
  5
5FA
  8
0
  2
STDGX5
 10
0.0
 20
0.0
 30
0.0
  0
INSERT
  5
5FB
  8
0
  2
STDGX5
 10
0.0
 20
0.0
 30
0.0
  0
INSERT
  5
5FC
  8
0
  2
STDGX5
 10
275.0
 20
0.0
 30
0.0
  0
INSERT
  5
5FD
  8
0
  2
STDGX5
 10
275.0
 20
0.0
 30
0.0
  0
LINE
  5
712
  8
0
 10
145.84763298093711
 20
142.17569884549309
 30
0.0
 11
151.54763298081201
 21
142.17569884549309
 31
0.0
  0
LINE
  5
713
  8
0
 10
145.84763298093711
 20
134.1756988454932
 30
0.0
 11
151.54763298081201
 21
134.1756988454932
 31
0.0
  0
LINE
  5
714
  8
0
 10
187.5476329808121
 20
146.67569884549309
 30
0.0
 11
187.5476329808121
 21
129.6756988454932
 31
0.0
  0
LINE
  5
715
  8
0
 10
151.54763298081201
 20
146.1756988454932
 30
0.0
 11
151.54763298081201
 21
130.1756988454932
 31
0.0
  0
LINE
  5
716
  8
0
 10
188.5476329808121
 20
128.67569884549329
 30
0.0
 11
199.5476329808121
 21
128.67569884549329
 31
0.0
  0
LINE
  5
717
  8
0
 10
188.5476329808121
 20
147.6756988454932
 30
0.0
 11
199.54763298081181
 21
147.6756988454932
 31
0.0
  0
LINE
  5
718
  8
1
 10
222.5476329808121
 20
138.1756988454932
 30
0.0
 11
138.5476329808121
 21
138.1756988454932
 31
0.0
  0
LINE
  5
719
  8
0
 10
217.5476329808121
 20
123.6756988454932
 30
0.0
 11
217.5476329808121
 21
132.1756988454932
 31
0.0
  0
LINE
  5
71A
  8
0
 10
211.54763298081201
 20
122.6756988454932
 30
0.0
 11
211.5476329808121
 21
153.6756988454932
 31
0.0
  0
LINE
  5
71B
  8
0
 10
216.5476329808121
 20
122.6756988454932
 30
0.0
 11
211.54763298081201
 21
122.6756988454932
 31
0.0
  0
LINE
  5
71C
  8
0
 10
216.5476329808121
 20
153.67569884549329
 30
0.0
 11
211.5476329808121
 21
153.67569884549329
 31
0.0
  0
LINE
  5
71D
  8
0
 10
209.54763298081181
 20
121.6756988454932
 30
0.0
 11
209.5476329808121
 21
154.6756988454932
 31
0.0
  0
LINE
  5
71E
  8
0
 10
199.54763298081181
 20
147.6756988454932
 30
0.0
 11
199.5476329808121
 21
128.67569884549329
 31
0.0
  0
LINE
  5
71F
  8
0
 10
188.5476329808121
 20
147.6756988454932
 30
0.0
 11
188.5476329808121
 21
128.6756988454932
 31
0.0
  0
LINE
  5
720
  8
0
 10
199.54763298081181
 20
147.6756988454932
 30
0.0
 11
209.5476329808121
 21
154.6756988454932
 31
0.0
  0
LINE
  5
721
  8
0
 10
199.5476329808121
 20
128.67569884549329
 30
0.0
 11
209.54763298081181
 21
121.6756988454904
 31
0.0
  0
LINE
  5
722
  8
0
 10
188.5476329808121
 20
128.6756988454932
 30
0.0
 11
187.5476329808121
 21
129.67569884549329
 31
0.0
  0
LINE
  5
723
  8
0
 10
188.5476329808121
 20
147.6756988454932
 30
0.0
 11
187.5476329808121
 21
146.67569884549309
 31
0.0
  0
ARC
  5
724
  8
0
 10
216.5476329808121
 20
152.6756988454932
 30
0.0
 40
1.0
 50
0.0
 51
89.999999999999986
  0
ARC
  5
725
  8
0
 10
216.5476329808121
 20
123.6756988454932
 30
0.0
 40
1.0
 50
270.0
 51
0.0
  0
ARC
  5
726
  8
0
 10
209.54763298081181
 20
124.17569884548629
 30
0.0
 40
2.4999999999958362
 50
270.0
 51
323.13010235428231
  0
ARC
  5
727
  8
0
 10
209.5476329808119
 20
152.17569884550019
 30
0.0
 40
2.4999999999958362
 50
36.86989764571765
 51
89.999999999999986
  0
ARC
  5
728
  8
0
 10
217.5476329808146
 20
138.17569884549141
 30
0.0
 40
1.000000000001833
 50
90.000000000149811
 51
269.99999999985351
  0
ARC
  5
729
  8
0
 10
217.5476329808146
 20
133.17569884549141
 30
0.0
 40
1.000000000001833
 50
90.000000000149811
 51
269.99999999985351
  0
ARC
  5
72A
  8
0
 10
217.5476329808119
 20
143.17569884549141
 30
0.0
 40
1.000000000001833
 50
90.000000000149811
 51
269.99999999985351
  0
LINE
  5
72B
  8
0
 10
217.5476329808119
 20
139.1756988454932
 30
0.0
 11
217.5476329808121
 21
142.17569884549329
 31
0.0
  0
LINE
  5
72C
  8
0
 10
217.5476329808121
 20
134.17569884549329
 30
0.0
 11
217.5476329808121
 21
137.17569884549329
 31
0.0
  0
LINE
  5
72D
  8
0
 10
217.5476329808121
 20
144.17569884549329
 30
0.0
 11
217.5476329808121
 21
152.6756988454932
 31
0.0
  0
CIRCLE
  5
72E
  8
0
 10
277.57992129857382
 20
138.1756988454932
 30
0.0
 40
16.5000000000033
  0
LINE
  5
72F
  8
1
 10
299.07992129857712
 20
138.1756988454932
 30
0.0
 11
256.07992129857053
 21
138.1756988454932
 31
0.0
  0
LINE
  5
730
  8
1
 10
277.57992129857382
 20
159.6756988454965
 30
0.0
 11
277.57992129857382
 21
116.6756988454899
 31
0.0
  0
CIRCLE
  5
731
  8
0
 10
277.57992129857382
 20
138.1756988454932
 30
0.0
 40
15.500000000000041
  0
LINE
  5
732
  8
0
 10
263.28831537061808
 20
144.17569884549499
 30
0.0
 11
291.87152722652951
 21
144.17569884549499
 31
0.0
  0
LINE
  5
733
  8
0
 10
262.6049421666994
 20
142.17569884548411
 30
0.0
 11
292.55490043044807
 21
142.17569884548411
 31
0.0
  0
LINE
  5
734
  8
0
 10
262.11221300031582
 20
139.17569884549229
 30
0.0
 11
293.04762959683183
 21
139.17569884549229
 31
0.0
  0
LINE
  5
735
  8
0
 10
262.11221300031588
 20
137.1756988454905
 30
0.0
 11
293.04762959683148
 21
137.1756988454905
 31
0.0
  0
LINE
  5
736
  8
0
 10
262.60494216670162
 20
134.17569884549411
 30
0.0
 11
292.55490043044603
 21
134.17569884549411
 31
0.0
  0
LINE
  5
737
  8
0
 10
263.2883153706191
 20
132.1756988454886
 30
0.0
 11
291.8715272265282
 21
132.1756988454886
 31
0.0
  0
LINE
  5
738
  8
0
 10
145.84763298093711
 20
134.1756988454932
 30
0.0
 11
145.84763298093711
 21
142.17569884549309
 31
0.0
  0
LINE
  5
739
  8
0
 10
145.84763298093711
 20
134.1756988454932
 30
0.0
 11
144.13627957537611
 21
135.16374919487239
 31
0.0
  0
LINE
  5
73A
  8
0
 10
145.84763298093711
 20
142.17569884549329
 30
0.0
 11
144.1362795753756
 21
141.18764849611381
 31
0.0
  0
ARC
  5
73B
  8
0
 10
151.5476329809371
 20
138.1756988454932
 30
0.0
 40
8.0
 50
157.88333686751579
 51
202.11666313248551
  0
LINE
  5
73C
  8
0
 10
144.13627957537591
 20
135.16374919487259
 30
0.0
 11
144.1362795753756
 21
141.18764849611381
 31
0.0
  0
CIRCLE
  5
73D
  8
0
 10
78.522246736348222
 20
138.1756988454932
 30
0.0
 40
16.5000000000033
  0
LINE
  5
73E
  8
1
 10
100.02224673635151
 20
138.1756988454932
 30
0.0
 11
57.022246736344933
 21
138.1756988454932
 31
0.0
  0
LINE
  5
73F
  8
1
 10
78.522246736348222
 20
159.6756988454965
 30
0.0
 11
78.522246736348222
 21
116.6756988454899
 31
0.0
  0
CIRCLE
  5
740
  8
0
 10
78.522246736348222
 20
138.1756988454932
 30
0.0
 40
9.4999999999999432
  0
CIRCLE
  5
741
  8
0
 10
78.522246736348222
 20
138.1756988454932
 30
0.0
 40
4.0
  0
CIRCLE
  5
742
  8
0
 10
78.522246736348222
 20
138.1756988454932
 30
0.0
 40
3.0119496506205361
  0
LINE
  5
743
  8
0
 10
186.5476329808121
 20
147.1756988454932
 30
0.0
 11
152.54763298081201
 21
147.1756988454932
 31
0.0
  0
LINE
  5
744
  8
0
 10
186.5476329808121
 20
129.1756988454932
 30
0.0
 11
152.54763298081201
 21
129.1756988454932
 31
0.0
  0
LINE
  5
745
  8
0
 10
151.54763298081201
 20
146.1756988454932
 30
0.0
 11
152.54763298081201
 21
147.1756988454932
 31
0.0
  0
LINE
  5
746
  8
0
 10
151.54763298081201
 20
130.1756988454932
 30
0.0
 11
152.54763298081201
 21
129.1756988454932
 31
0.0
  0
LINE
  5
747
  8
0
 10
186.5476329808121
 20
129.1756988454932
 30
0.0
 11
187.5476329808121
 21
130.1756988454932
 31
0.0
  0
LINE
  5
748
  8
0
 10
187.5476329808121
 20
146.1756988454932
 30
0.0
 11
186.5476329808121
 21
147.1756988454932
 31
0.0
  0
LINE
  5
749
  8
0
 10
186.5476329808121
 20
129.1756988454932
 30
0.0
 11
186.5476329808121
 21
147.1756988454932
 31
0.0
  0
LINE
  5
74A
  8
0
 10
152.54763298081201
 20
147.1756988454932
 30
0.0
 11
152.54763298081201
 21
129.1756988454932
 31
0.0
  0
CIRCLE
  5
74B
  8
0
 10
78.522246736348222
 20
138.1756988454932
 30
0.0
 40
9.0
  0
POLYLINE
  5
74C
  8
0
 66
     1
 10
0.0
 20
0.0
 30
0.0
  0
VERTEX
  5
74D
  8
0
 10
216.54763298080999
 20
187.85020391315859
 30
0.0
  0
VERTEX
  5
74E
  8
0
 10
216.55978419366329
 20
187.90763874321291
 30
0.0
 42
-0.0828195135496943
  0
VERTEX
  5
74F
  8
0
 10
216.60040127655151
 20
187.96933122846889
 30
0.0
 42
-0.0688916096220044
  0
VERTEX
  5
750
  8
0
 10
216.68964768733869
 20
188.04235035506821
 30
0.0
 42
-0.0472034588583283
  0
VERTEX
  5
751
  8
0
 10
216.84052619962409
 20
188.11594557567071
 30
0.0
 42
-0.0256377372343481
 70
     2
 50
20.596996513433549
  0
VERTEX
  5
752
  8
0
 10
216.98965870407039
 20
188.16342448165611
 30
0.0
 42
-0.0262811245498611
  0
VERTEX
  5
753
  8
0
 10
217.13916173155479
 20
188.19441675984899
 30
0.0
 42
-0.0186627656480339
  0
VERTEX
  5
754
  8
0
 10
217.34625957906351
 20
188.2182410670238
 30
0.0
 42
-0.0193059514063199
  0
VERTEX
  5
755
  8
0
 10
217.5476329808121
 20
188.22601937637069
 30
0.0
 42
-0.0193059514063117
  0
SEQEND
  5
756
  8
0
  0
POLYLINE
  5
757
  8
0
 66
     1
 10
0.0
 20
0.0
 30
0.0
  0
VERTEX
  5
758
  8
0
 10
217.4288314084682
 20
187.5448787220048
 30
0.0
 42
-0.0064440724626187
  0
VERTEX
  5
759
  8
0
 10
217.34743304448801
 20
187.5489902304146
 30
0.0
 42
-0.015035182983264
  0
VERTEX
  5
75A
  8
0
 10
217.13733183441869
 20
187.56867605791331
 30
0.0
 42
-0.0222666284275067
  0
VERTEX
  5
75B
  8
0
 10
216.9902641574387
 20
187.59362127089381
 30
0.0
 42
-0.0214612884009766
  0
VERTEX
  5
75C
  8
0
 10
216.84052619962409
 20
187.63272774909839
 30
0.0
 42
-0.0425649651517735
 70
     2
 50
162.90431459647439
  0
VERTEX
  5
75D
  8
0
 10
216.6786467894018
 20
187.6980337808379
 30
0.0
 42
-0.0723438580695034
  0
VERTEX
  5
75E
  8
0
 10
216.5943541379155
 20
187.75732082675299
 30
0.0
  0
VERTEX
  5
75F
  8
0
 10
216.5581209092021
 20
187.80601408497219
 30
0.0
  0
VERTEX
  5
760
  8
0
 10
216.54763298080999
 20
187.85020391315859
 30
0.0
  0
SEQEND
  5
761
  8
0
  0
POLYLINE
  5
762
  8
0
 66
     1
 10
0.0
 20
0.0
 30
0.0
  0
VERTEX
  5
763
  8
0
 10
217.4288314084682
 20
217.49037188664761
 30
0.0
 42
0.0064440724626187
  0
VERTEX
  5
764
  8
0
 10
217.34743304448801
 20
217.48626037823769
 30
0.0
 42
0.015035182983264
  0
VERTEX
  5
765
  8
0
 10
217.13733183441869
 20
217.4665745507391
 30
0.0
 42
0.0222666284275067
  0
VERTEX
  5
766
  8
0
 10
216.9902641574387
 20
217.4416293377586
 30
0.0
 42
0.0214612884009766
  0
VERTEX
  5
767
  8
0
 10
216.84052619962409
 20
217.4025228595539
 30
0.0
 42
0.0425649651517735
 70
     2
 50
197.09568540352561
  0
VERTEX
  5
768
  8
0
 10
216.6786467894018
 20
217.33721682781439
 30
0.0
 42
0.0723438580695034
 50
197.09568540352561
  0
VERTEX
  5
769
  8
0
 10
216.5943541379155
 20
217.27792978189939
 30
0.0
 50
197.09568540352561
  0
VERTEX
  5
76A
  8
0
 10
216.5581209092021
 20
217.2292365236801
 30
0.0
 50
197.09568540352561
  0
VERTEX
  5
76B
  8
0
 10
216.54763298080999
 20
217.1850466954937
 30
0.0
  0
SEQEND
  5
76C
  8
0
  0
POLYLINE
  5
76D
  8
0
 66
     1
 10
0.0
 20
0.0
 30
0.0
  0
VERTEX
  5
76E
  8
0
 10
216.54763298080999
 20
217.1850466954937
 30
0.0
  0
VERTEX
  5
76F
  8
0
 10
216.55978419366329
 20
217.12761186543941
 30
0.0
 42
0.0828195135496943
  0
VERTEX
  5
770
  8
0
 10
216.60040127655151
 20
217.0659193801834
 30
0.0
 42
0.0688916096220044
  0
VERTEX
  5
771
  8
0
 10
216.68964768733869
 20
216.99290025358411
 30
0.0
 42
0.0472034588583283
  0
VERTEX
  5
772
  8
0
 10
216.84052619962409
 20
216.9193050329817
 30
0.0
 42
0.0256377372343481
 70
     2
 50
339.40300348656638
  0
VERTEX
  5
773
  8
0
 10
216.98965870407039
 20
216.87182612699621
 30
0.0
 42
0.0262811245498611
 50
339.40300348656638
  0
VERTEX
  5
774
  8
0
 10
217.13916173155479
 20
216.8408338488033
 30
0.0
 42
0.0186627656480339
 50
339.40300348656638
  0
VERTEX
  5
775
  8
0
 10
217.34625957906351
 20
216.81700954162849
 30
0.0
 42
0.0193059514063199
 50
339.40300348656638
  0
VERTEX
  5
776
  8
0
 10
217.5476329808121
 20
216.8092312322816
 30
0.0
 42
0.0193059514063117
  0
SEQEND
  5
777
  8
0
  0
LINE
  5
778
  8
0
 10
145.84763298093711
 20
206.51762530432609
 30
0.0
 11
151.5476329808121
 21
206.51762530432609
 31
0.0
  0
LINE
  5
779
  8
0
 10
145.84763298093711
 20
198.51762530432609
 30
0.0
 11
151.5476329808121
 21
198.51762530432609
 31
0.0
  0
LINE
  5
77A
  8
0
 10
188.5476329808121
 20
193.0176253043262
 30
0.0
 11
199.5476329808121
 21
193.0176253043262
 31
0.0
  0
LINE
  5
77B
  8
0
 10
188.5476329808121
 20
212.01762530432609
 30
0.0
 11
199.54763298081181
 21
212.01762530432609
 31
0.0
  0
LINE
  5
77C
  8
1
 10
222.5476329808121
 20
202.51762530432609
 30
0.0
 11
138.5476329808121
 21
202.5176253043262
 31
0.0
  0
LINE
  5
77D
  8
0
 10
211.54763298081201
 20
187.01762530432609
 30
0.0
 11
211.5476329808121
 21
218.0176253043262
 31
0.0
  0
LINE
  5
77E
  8
0
 10
216.5476329808121
 20
187.0176253043262
 30
0.0
 11
211.54763298081201
 21
187.0176253043262
 31
0.0
  0
LINE
  5
77F
  8
0
 10
216.5476329808121
 20
218.0176253043262
 30
0.0
 11
211.5476329808121
 21
218.0176253043262
 31
0.0
  0
LINE
  5
780
  8
0
 10
209.54763298081181
 20
186.01762530432609
 30
0.0
 11
209.5476329808121
 21
219.0176253043262
 31
0.0
  0
LINE
  5
781
  8
0
 10
199.54763298081181
 20
212.01762530432609
 30
0.0
 11
199.5476329808121
 21
193.0176253043262
 31
0.0
  0
LINE
  5
782
  8
0
 10
188.5476329808121
 20
212.0176253043262
 30
0.0
 11
188.5476329808121
 21
193.0176253043262
 31
0.0
  0
LINE
  5
783
  8
0
 10
199.54763298081181
 20
212.01762530432609
 30
0.0
 11
209.5476329808121
 21
219.0176253043262
 31
0.0
  0
LINE
  5
784
  8
0
 10
199.5476329808121
 20
193.0176253043262
 30
0.0
 11
209.54763298081181
 21
186.01762530432339
 31
0.0
  0
LINE
  5
785
  8
0
 10
188.5476329808121
 20
193.0176253043262
 30
0.0
 11
187.5476329808121
 21
194.0176253043262
 31
0.0
  0
LINE
  5
786
  8
0
 10
188.5476329808121
 20
212.0176253043262
 30
0.0
 11
187.5476329808121
 21
211.01762530432609
 31
0.0
  0
ARC
  5
787
  8
0
 10
216.5476329808121
 20
217.0176253043262
 30
0.0
 40
1.0
 50
28.212731349286091
 51
89.999999999999986
  0
ARC
  5
788
  8
0
 10
216.5476329808121
 20
188.0176253043262
 30
0.0
 40
1.0
 50
270.0
 51
331.78726865070882
  0
ARC
  5
789
  8
0
 10
209.54763298081181
 20
188.5176253043193
 30
0.0
 40
2.4999999999958362
 50
270.0
 51
323.13010235428231
  0
ARC
  5
78A
  8
0
 10
209.5476329808119
 20
216.51762530433311
 30
0.0
 40
2.4999999999958362
 50
36.86989764571765
 51
89.999999999999986
  0
LINE
  5
78B
  8
0
 10
217.5476329808121
 20
188.22601937636841
 30
0.0
 11
217.5476329808121
 21
216.80923123228251
 31
0.0
  0
LINE
  5
78C
  8
0
 10
145.84763298093711
 20
198.51762530432609
 30
0.0
 11
145.84763298093711
 21
206.51762530432609
 31
0.0
  0
LINE
  5
78D
  8
0
 10
145.84763298093711
 20
198.51762530432609
 30
0.0
 11
144.13627957537611
 21
199.50567565370531
 31
0.0
  0
LINE
  5
78E
  8
0
 10
145.84763298093711
 20
206.5176253043262
 30
0.0
 11
144.1362795753756
 21
205.5295749549467
 31
0.0
  0
ARC
  5
78F
  8
0
 10
151.5476329809371
 20
202.5176253043262
 30
0.0
 40
8.0
 50
157.88333686751579
 51
202.11666313248551
  0
LINE
  5
790
  8
0
 10
144.13627957537591
 20
199.50567565370551
 30
0.0
 11
144.1362795753756
 21
205.5295749549467
 31
0.0
  0
LINE
  5
791
  8
0
 10
152.54763298081201
 20
211.5176253043262
 30
0.0
 11
152.54763298081201
 21
193.51762530432609
 31
0.0
  0
LINE
  5
792
  8
0
 10
186.5476329808121
 20
193.51762530432609
 30
0.0
 11
186.5476329808121
 21
211.5176253043262
 31
0.0
  0
LINE
  5
793
  8
0
 10
187.5476329808121
 20
210.5176253043262
 30
0.0
 11
186.5476329808121
 21
211.5176253043262
 31
0.0
  0
LINE
  5
794
  8
0
 10
186.5476329808121
 20
193.51762530432609
 30
0.0
 11
187.5476329808121
 21
194.51762530432609
 31
0.0
  0
LINE
  5
795
  8
0
 10
151.54763298081201
 20
194.51762530432609
 30
0.0
 11
152.54763298081201
 21
193.51762530432609
 31
0.0
  0
LINE
  5
796
  8
0
 10
151.54763298081201
 20
210.5176253043262
 30
0.0
 11
152.54763298081201
 21
211.5176253043262
 31
0.0
  0
LINE
  5
797
  8
0
 10
186.5476329808121
 20
193.51762530432609
 30
0.0
 11
152.54763298081201
 21
193.51762530432609
 31
0.0
  0
LINE
  5
798
  8
0
 10
186.5476329808121
 20
211.5176253043262
 30
0.0
 11
152.54763298081201
 21
211.5176253043262
 31
0.0
  0
LINE
  5
799
  8
0
 10
151.54763298081201
 20
210.5176253043262
 30
0.0
 11
151.54763298081201
 21
194.51762530432609
 31
0.0
  0
LINE
  5
79A
  8
0
 10
187.5476329808121
 20
211.017625304326
 30
0.0
 11
187.5476329808121
 21
194.0176253043262
 31
0.0
  0
LINE
  5
79B
  8
0
 10
187.5476329808121
 20
65.333772386660428
 30
0.0
 11
187.5476329808121
 21
82.333772386660286
 31
0.0
  0
LINE
  5
79C
  8
0
 10
151.54763298081201
 20
65.833772386660286
 30
0.0
 11
151.54763298081201
 21
81.833772386660286
 31
0.0
  0
LINE
  5
79D
  8
0
 10
186.5476329808121
 20
64.833772386660286
 30
0.0
 11
152.54763298081201
 21
64.833772386660286
 31
0.0
  0
LINE
  5
79E
  8
0
 10
186.5476329808121
 20
82.833772386660286
 30
0.0
 11
152.54763298081201
 21
82.833772386660286
 31
0.0
  0
LINE
  5
79F
  8
0
 10
151.54763298081201
 20
65.833772386660286
 30
0.0
 11
152.54763298081201
 21
64.833772386660286
 31
0.0
  0
LINE
  5
7A0
  8
0
 10
151.54763298081201
 20
81.833772386660286
 30
0.0
 11
152.54763298081201
 21
82.833772386660286
 31
0.0
  0
LINE
  5
7A1
  8
0
 10
186.5476329808121
 20
82.833772386660286
 30
0.0
 11
187.5476329808121
 21
81.833772386660286
 31
0.0
  0
LINE
  5
7A2
  8
0
 10
187.5476329808121
 20
65.833772386660286
 30
0.0
 11
186.5476329808121
 21
64.833772386660286
 31
0.0
  0
LINE
  5
7A3
  8
0
 10
186.5476329808121
 20
82.833772386660286
 30
0.0
 11
186.5476329808121
 21
64.833772386660286
 31
0.0
  0
LINE
  5
7A4
  8
0
 10
152.54763298081201
 20
64.833772386660286
 30
0.0
 11
152.54763298081201
 21
82.833772386660286
 31
0.0
  0
LINE
  5
7A5
  8
0
 10
144.13627957537591
 20
76.845722037280922
 30
0.0
 11
144.1362795753756
 21
70.821822736039735
 31
0.0
  0
ARC
  5
7A6
  8
0
 10
151.5476329809371
 20
73.833772386660286
 30
0.0
 40
8.0
 50
157.8833368675144
 51
202.11666313248409
  0
LINE
  5
7A7
  8
0
 10
145.84763298093711
 20
69.833772386660215
 30
0.0
 11
144.1362795753756
 21
70.821822736039735
 31
0.0
  0
LINE
  5
7A8
  8
0
 10
145.84763298093711
 20
77.833772386660314
 30
0.0
 11
144.13627957537611
 21
76.845722037281092
 31
0.0
  0
LINE
  5
7A9
  8
0
 10
145.84763298093711
 20
77.833772386660286
 30
0.0
 11
145.84763298093711
 21
69.833772386660343
 31
0.0
  0
LINE
  5
7AA
  8
0
 10
217.5476329808121
 20
88.125378314618004
 30
0.0
 11
217.5476329808121
 21
59.542166458703953
 31
0.0
  0
ARC
  5
7AB
  8
0
 10
209.5476329808119
 20
59.833772386653351
 30
0.0
 40
2.4999999999958362
 50
270.0
 51
323.13010235428231
  0
ARC
  5
7AC
  8
0
 10
209.54763298081181
 20
87.833772386667192
 30
0.0
 40
2.4999999999958362
 50
36.869897645717657
 51
90.0
  0
ARC
  5
7AD
  8
0
 10
216.5476329808121
 20
88.333772386660257
 30
0.0
 40
1.0
 50
28.212731349291172
 51
90.0
  0
ARC
  5
7AE
  8
0
 10
216.5476329808121
 20
59.333772386660229
 30
0.0
 40
1.0
 50
270.0
 51
331.78726865071388
  0
LINE
  5
7AF
  8
0
 10
188.5476329808121
 20
64.333772386660286
 30
0.0
 11
187.5476329808121
 21
65.333772386660399
 31
0.0
  0
LINE
  5
7B0
  8
0
 10
188.5476329808121
 20
83.333772386660286
 30
0.0
 11
187.5476329808121
 21
82.333772386660215
 31
0.0
  0
LINE
  5
7B1
  8
0
 10
199.5476329808121
 20
83.333772386660215
 30
0.0
 11
209.54763298081181
 21
90.333772386663043
 31
0.0
  0
LINE
  5
7B2
  8
0
 10
199.54763298081181
 20
64.333772386660343
 30
0.0
 11
209.5476329808121
 21
57.333772386660293
 31
0.0
  0
LINE
  5
7B3
  8
0
 10
188.5476329808121
 20
64.333772386660286
 30
0.0
 11
188.5476329808121
 21
83.333772386660286
 31
0.0
  0
LINE
  5
7B4
  8
0
 10
199.54763298081181
 20
64.333772386660343
 30
0.0
 11
199.5476329808121
 21
83.333772386660215
 31
0.0
  0
LINE
  5
7B5
  8
0
 10
209.54763298081181
 20
90.333772386660314
 30
0.0
 11
209.5476329808121
 21
57.333772386660293
 31
0.0
  0
LINE
  5
7B6
  8
0
 10
216.5476329808121
 20
58.333772386660229
 30
0.0
 11
211.5476329808121
 21
58.333772386660229
 31
0.0
  0
LINE
  5
7B7
  8
0
 10
216.5476329808121
 20
89.333772386660243
 30
0.0
 11
211.54763298081201
 21
89.333772386660243
 31
0.0
  0
LINE
  5
7B8
  8
0
 10
211.54763298081201
 20
89.333772386660314
 30
0.0
 11
211.5476329808121
 21
58.333772386660279
 31
0.0
  0
LINE
  5
7B9
  8
1
 10
222.5476329808121
 20
73.833772386660286
 30
0.0
 11
138.5476329808121
 21
73.833772386660286
 31
0.0
  0
LINE
  5
7BA
  8
0
 10
188.5476329808121
 20
64.333772386660343
 30
0.0
 11
199.54763298081181
 21
64.333772386660357
 31
0.0
  0
LINE
  5
7BB
  8
0
 10
188.5476329808121
 20
83.333772386660215
 30
0.0
 11
199.5476329808121
 21
83.333772386660215
 31
0.0
  0
LINE
  5
7BC
  8
0
 10
145.84763298093711
 20
77.833772386660314
 30
0.0
 11
151.5476329808121
 21
77.833772386660343
 31
0.0
  0
LINE
  5
7BD
  8
0
 10
145.84763298093711
 20
69.833772386660343
 30
0.0
 11
151.5476329808121
 21
69.833772386660343
 31
0.0
  0
POLYLINE
  5
7BE
  8
0
 66
     1
 10
0.0
 20
0.0
 30
0.0
  0
VERTEX
  5
7BF
  8
0
 10
216.54763298080999
 20
59.166350995492763
 30
0.0
  0
VERTEX
  5
7C0
  8
0
 10
216.55978419366329
 20
59.223785825547033
 30
0.0
 42
-0.0828195135496943
  0
VERTEX
  5
7C1
  8
0
 10
216.60040127655151
 20
59.285478310803079
 30
0.0
 42
-0.0688916096220044
  0
VERTEX
  5
7C2
  8
0
 10
216.68964768733869
 20
59.358497437402342
 30
0.0
 42
-0.0472034588583283
  0
VERTEX
  5
7C3
  8
0
 10
216.84052619962409
 20
59.432092658004791
 30
0.0
 42
-0.0256377372343481
 70
     2
 50
20.596996513433549
  0
VERTEX
  5
7C4
  8
0
 10
216.98965870407039
 20
59.47957156399027
 30
0.0
 42
-0.0262811245498611
  0
VERTEX
  5
7C5
  8
0
 10
217.13916173155479
 20
59.510563842183132
 30
0.0
 42
-0.0186627656480339
  0
VERTEX
  5
7C6
  8
0
 10
217.34625957906351
 20
59.53438814935793
 30
0.0
 42
-0.0193059514063199
  0
VERTEX
  5
7C7
  8
0
 10
217.5476329808121
 20
59.542166458704848
 30
0.0
 42
-0.0193059514063117
  0
SEQEND
  5
7C8
  8
0
  0
POLYLINE
  5
7C9
  8
0
 66
     1
 10
0.0
 20
0.0
 30
0.0
  0
VERTEX
  5
7CA
  8
0
 10
217.4288314084682
 20
58.861025804338908
 30
0.0
 42
-0.0064440724626187
  0
VERTEX
  5
7CB
  8
0
 10
217.34743304448801
 20
58.865137312748772
 30
0.0
 42
-0.015035182983264
  0
VERTEX
  5
7CC
  8
0
 10
217.13733183441869
 20
58.884823140247413
 30
0.0
 42
-0.0222666284275067
  0
VERTEX
  5
7CD
  8
0
 10
216.9902641574387
 20
58.909768353227918
 30
0.0
 42
-0.0214612884009766
  0
VERTEX
  5
7CE
  8
0
 10
216.84052619962409
 20
58.948874831432541
 30
0.0
 42
-0.0425649651517735
 70
     2
 50
162.90431459647439
  0
VERTEX
  5
7CF
  8
0
 10
216.6786467894018
 20
59.014180863172008
 30
0.0
 42
-0.0723438580695034
  0
VERTEX
  5
7D0
  8
0
 10
216.5943541379155
 20
59.0734679090871
 30
0.0
  0
VERTEX
  5
7D1
  8
0
 10
216.5581209092021
 20
59.122161167306359
 30
0.0
  0
VERTEX
  5
7D2
  8
0
 10
216.54763298080999
 20
59.166350995492763
 30
0.0
  0
SEQEND
  5
7D3
  8
0
  0
POLYLINE
  5
7D4
  8
0
 66
     1
 10
0.0
 20
0.0
 30
0.0
  0
VERTEX
  5
7D5
  8
0
 10
217.4288314084682
 20
88.806518968981663
 30
0.0
 42
0.0064440724626187
  0
VERTEX
  5
7D6
  8
0
 10
217.34743304448801
 20
88.802407460571814
 30
0.0
 42
0.015035182983264
  0
VERTEX
  5
7D7
  8
0
 10
217.13733183441869
 20
88.782721633073152
 30
0.0
 42
0.0222666284275067
  0
VERTEX
  5
7D8
  8
0
 10
216.9902641574387
 20
88.757776420092654
 30
0.0
 42
0.0214612884009766
  0
VERTEX
  5
7D9
  8
0
 10
216.84052619962409
 20
88.718669941888038
 30
0.0
 42
0.0425649651517735
 70
     2
 50
197.09568540352561
  0
VERTEX
  5
7DA
  8
0
 10
216.6786467894018
 20
88.653363910148556
 30
0.0
 42
0.0723438580695034
  0
VERTEX
  5
7DB
  8
0
 10
216.5943541379155
 20
88.594076864233472
 30
0.0
  0
VERTEX
  5
7DC
  8
0
 10
216.5581209092021
 20
88.545383606014227
 30
0.0
  0
VERTEX
  5
7DD
  8
0
 10
216.54763298080999
 20
88.501193777827794
 30
0.0
  0
SEQEND
  5
7DE
  8
0
  0
POLYLINE
  5
7DF
  8
0
 66
     1
 10
0.0
 20
0.0
 30
0.0
  0
VERTEX
  5
7E0
  8
0
 10
216.54763298080999
 20
88.501193777827794
 30
0.0
  0
VERTEX
  5
7E1
  8
0
 10
216.55978419366329
 20
88.443758947773546
 30
0.0
 42
0.0828195135496943
  0
VERTEX
  5
7E2
  8
0
 10
216.60040127655151
 20
88.382066462517486
 30
0.0
 42
0.0688916096220044
  0
VERTEX
  5
7E3
  8
0
 10
216.68964768733869
 20
88.309047335918223
 30
0.0
 42
0.0472034588583283
  0
VERTEX
  5
7E4
  8
0
 10
216.84052619962409
 20
88.235452115315795
 30
0.0
 42
0.0256377372343481
 70
     2
 50
339.40300348656638
  0
VERTEX
  5
7E5
  8
0
 10
216.98965870407039
 20
88.187973209330295
 30
0.0
 42
0.0262811245498611
  0
VERTEX
  5
7E6
  8
0
 10
217.13916173155479
 20
88.156980931137426
 30
0.0
 42
0.0186627656480339
  0
VERTEX
  5
7E7
  8
0
 10
217.34625957906351
 20
88.133156623962634
 30
0.0
 42
0.0193059514063199
  0
VERTEX
  5
7E8
  8
0
 10
217.5476329808121
 20
88.125378314615716
 30
0.0
 42
0.0193059514063117
  0
SEQEND
  5
7E9
  8
0
  0
INSERT
  5
7EA
  8
0
  2
STDGX5
 10
0.0
 20
0.0
 30
0.0
 41
0.25
 42
0.25
 43
0.25
  0
INSERT
  5
7EB
  8
0
  2
STDGX5
 10
0.0
 20
0.0
 30
0.0
 41
0.25
 42
0.25
 43
0.25
  0
INSERT
  5
7EC
  8
0
  2
STDGX5
 10
68.75
 20
0.0
 30
0.0
 41
0.25
 42
0.25
 43
0.25
  0
INSERT
  5
7ED
  8
0
  2
STDGX5
 10
68.75
 20
0.0
 30
0.0
 41
0.25
 42
0.25
 43
0.25
  0
INSERT
  5
7EE
  8
0
  2
STDGX5
 10
0.0
 20
0.0
 30
0.0
 41
0.5
 42
0.5
 43
0.5
  0
INSERT
  5
7EF
  8
0
  2
STDGX5
 10
0.0
 20
0.0
 30
0.0
 41
0.5
 42
0.5
 43
0.5
  0
INSERT
  5
7F0
  8
0
  2
STDGX5
 10
137.5
 20
0.0
 30
0.0
 41
0.5
 42
0.5
 43
0.5
  0
INSERT
  5
7F1
  8
0
  2
STDGX5
 10
137.5
 20
0.0
 30
0.0
 41
0.5
 42
0.5
 43
0.5
  0
INSERT
  5
7F3
  8
0
  2
STDGX5
 10
-35.0
 20
-100.0
 30
0.0
 41
0.3333333333333333
 42
0.3333333333333333
 43
0.3333333333333333
  0
INSERT
  5
7F4
  8
0
  2
STDGX5
 10
-35.0
 20
-100.0
 30
0.0
 41
0.3333333333333333
 42
0.3333333333333333
 43
0.3333333333333333
  0
INSERT
  5
7F5
  8
0
  2
STDGX5
 10
56.666666666666643
 20
-100.0
 30
0.0
 41
0.3333333333333333
 42
0.3333333333333333
 43
0.3333333333333333
  0
INSERT
  5
7F6
  8
0
  2
STDGX5
 10
56.666666666666643
 20
-100.0
 30
0.0
 41
0.3333333333333333
 42
0.3333333333333333
 43
0.3333333333333333
  0
INSERT
  5
7F8
  8
0
  2
STDGX5
 10
-35.0
 20
-100.0
 30
0.0
 41
0.3333333333333333
 42
0.3333333333333333
 43
0.3333333333333333
  0
INSERT
  5
7F9
  8
0
  2
STDGX5
 10
-35.0
 20
-100.0
 30
0.0
 41
0.3333333333333333
 42
0.3333333333333333
 43
0.3333333333333333
  0
INSERT
  5
7FA
  8
0
  2
STDGX5
 10
56.666666666666657
 20
-100.0
 30
0.0
 41
0.3333333333333333
 42
0.3333333333333333
 43
0.3333333333333333
  0
INSERT
  5
7FB
  8
0
  2
STDGX5
 10
56.666666666666657
 20
-100.0
 30
0.0
 41
0.3333333333333333
 42
0.3333333333333333
 43
0.3333333333333333
  0
INSERT
  5
7FC
  8
0
  2
STDGX5
 10
0.0
 20
0.0
 30
0.0
  0
INSERT
  5
7FD
  8
0
  2
STDGX5
 10
0.0
 20
0.0
 30
0.0
  0
INSERT
  5
7FE
  8
0
  2
STDGX5
 10
275.0
 20
0.0
 30
0.0
  0
INSERT
  5
7FF
  8
0
  2
STDGX5
 10
275.0
 20
0.0
 30
0.0
  0
TEXT
  5
91E
  8
0
 62
     3
 10
0.0
 20
0.0
 30
0.0
 40
5.0
  1
WDX16
  7
STANDARD1
  0
ENDSEC
  0
EOF
