  0
SECTION
  2
HEADER
  9
$ACADVER
  1
AC1009
  9
$INSBASE
 10
0.0
 20
0.0
 30
0.0
  9
$EXTMIN
 10
0.0
 20
-2.960436562073669
 30
0.0
  9
$EXTMAX
 10
140.7241083818551
 20
106.4608146665427
 30
0.0
  9
$LIMMIN
 10
0.0
 20
0.0
  9
$LIMMAX
 10
390.0
 20
270.0
  9
$ORTHOMODE
 70
     1
  9
$REGENMODE
 70
     1
  9
$FILLMODE
 70
     1
  9
$QTEXTMODE
 70
     0
  9
$MIRRTEXT
 70
     1
  9
$DRAGMODE
 70
     2
  9
$LTSCALE
 40
5.0
  9
$OSMODE
 70
    55
  9
$ATTMODE
 70
     1
  9
$TEXTSIZE
 40
2.5
  9
$TRACEWID
 40
1.0
  9
$TEXTSTYLE
  7
STANDARD
  9
$CLAYER
  8
4
  9
$CELTYPE
  6
BYLAYER
  9
$CECOLOR
 62
   256
  9
$DIMSCALE
 40
2.0
  9
$DIMASZ
 40
3.0
  9
$DIMEXO
 40
1.0
  9
$DIMDLI
 40
6.0
  9
$DIMRND
 40
0.0
  9
$DIMDLE
 40
0.0
  9
$DIMEXE
 40
1.0
  9
$DIMTP
 40
495.0
  9
$DIMTM
 40
0.0
  9
$DIMTXT
 40
2.5
  9
$DIMCEN
 40
0.0
  9
$DIMTSZ
 40
0.0
  9
$DIMTOL
 70
     0
  9
$DIMLIM
 70
     0
  9
$DIMTIH
 70
     0
  9
$DIMTOH
 70
     0
  9
$DIMSE1
 70
     0
  9
$DIMSE2
 70
     0
  9
$DIMTAD
 70
     1
  9
$DIMZIN
 70
     8
  9
$DIMBLK
  1

  9
$DIMASO
 70
     0
  9
$DIMSHO
 70
     1
  9
$DIMPOST
  1

  9
$DIMAPOST
  1

  9
$DIMALT
 70
     0
  9
$DIMALTD
 70
     2
  9
$DIMALTF
 40
25.399999999999999
  9
$DIMLFAC
 40
1.0
  9
$DIMTOFL
 70
     1
  9
$DIMTVP
 40
0.0
  9
$DIMTIX
 70
     1
  9
$DIMSOXD
 70
     0
  9
$DIMSAH
 70
     0
  9
$DIMBLK1
  1

  9
$DIMBLK2
  1

  9
$DIMSTYLE
  2
ITM
  9
$DIMCLRD
 70
   256
  9
$DIMCLRE
 70
   256
  9
$DIMCLRT
 70
   256
  9
$DIMTFAC
 40
1.0
  9
$DIMGAP
 40
1.0
  9
$LUNITS
 70
     2
  9
$LUPREC
 70
     2
  9
$SKETCHINC
 40
1.0
  9
$FILLETRAD
 40
0.4
  9
$AUNITS
 70
     0
  9
$AUPREC
 70
     0
  9
$MENU
  1
.
  9
$ELEVATION
 40
0.0
  9
$PELEVATION
 40
0.0
  9
$THICKNESS
 40
0.0
  9
$LIMCHECK
 70
     0
  9
$BLIPMODE
 70
     0
  9
$CHAMFERA
 40
1.1999999999999991
  9
$CHAMFERB
 40
1.1999999999999991
  9
$SKPOLY
 70
     0
  9
$TDCREATE
 40
2453354.0921258219
  9
$TDUPDATE
 40
2456598.3924134369
  9
$TDINDWG
 40
513.8018885532
  9
$TDUSRTIMER
 40
513.80161057869998
  9
$USRTIMER
 70
     1
  9
$ANGBASE
 50
0.0
  9
$ANGDIR
 70
     0
  9
$PDMODE
 70
     0
  9
$PDSIZE
 40
0.0
  9
$PLINEWID
 40
0.0
  9
$COORDS
 70
     1
  9
$SPLFRAME
 70
     0
  9
$SPLINETYPE
 70
     6
  9
$SPLINESEGS
 70
     8
  9
$ATTDIA
 70
     0
  9
$ATTREQ
 70
     1
  9
$HANDLING
 70
     1
  9
$HANDSEED
  5
58222
  9
$SURFTAB1
 70
     6
  9
$SURFTAB2
 70
     6
  9
$SURFTYPE
 70
     6
  9
$SURFU
 70
     6
  9
$SURFV
 70
     6
  9
$UCSNAME
  2

  9
$UCSORG
 10
0.0
 20
0.0
 30
0.0
  9
$UCSXDIR
 10
1.0
 20
0.0
 30
0.0
  9
$UCSYDIR
 10
0.0
 20
1.0
 30
0.0
  9
$PUCSNAME
  2

  9
$PUCSORG
 10
0.0
 20
0.0
 30
0.0
  9
$PUCSXDIR
 10
1.0
 20
0.0
 30
0.0
  9
$PUCSYDIR
 10
0.0
 20
1.0
 30
0.0
  9
$USERI1
 70
     4
  9
$USERI2
 70
     1
  9
$USERI3
 70
     1
  9
$USERI4
 70
     0
  9
$USERI5
 70
     0
  9
$USERR1
 40
1.0
  9
$USERR2
 40
3.0
  9
$USERR3
 40
3.2000000000000002
  9
$USERR4
 40
3.0
  9
$USERR5
 40
10.0
  9
$WORLDVIEW
 70
     1
  9
$SHADEDGE
 70
     3
  9
$SHADEDIF
 70
    70
  9
$TILEMODE
 70
     1
  9
$MAXACTVP
 70
    16
  9
$PLIMCHECK
 70
     0
  9
$PEXTMIN
 10
0.0
 20
0.0
 30
0.0
  9
$PEXTMAX
 10
0.0
 20
0.0
 30
0.0
  9
$PLIMMIN
 10
0.0
 20
0.0
  9
$PLIMMAX
 10
12.0
 20
9.0
  9
$UNITMODE
 70
     0
  9
$VISRETAIN
 70
     0
  9
$PLINEGEN
 70
     0
  9
$PSLTSCALE
 70
     1
  0
ENDSEC
  0
SECTION
  2
TABLES
  0
TABLE
  2
VPORT
 70
     1
  0
VPORT
  2
*ACTIVE
 70
     0
 10
0.0
 20
0.0
 11
1.0
 21
1.0
 12
194.9940495262785
 22
197.0509055860143
 13
0.0
 23
0.0
 14
5.0
 24
5.0
 15
10.0
 25
10.0
 16
0.0
 26
0.0
 36
1.0
 17
0.0
 27
0.0
 37
0.0
 40
403.57315882993248
 41
1.7807262569832401
 42
50.0
 43
0.0
 44
0.0
 50
0.0
 51
0.0
 71
    16
 72
   500
 73
     1
 74
     1
 75
     0
 76
     0
 77
     0
 78
     1
  0
ENDTAB
  0
TABLE
  2
LTYPE
 70
     4
  0
LTYPE
  2
CONTINUOUS
 70
     0
  3
Solid line
 72
    65
 73
     0
 40
0.0
  0
LTYPE
  2
CENTER
 70
     0
  3
____ _ ____ _ ____ _ ____ _ ____ _ ____ _ ____
 72
    65
 73
     4
 40
2.0
 49
1.25
 49
-0.25
 49
0.25
 49
-0.25
  0
LTYPE
  2
HIDDEN
 70
     0
  3
_ _ _ _ _ _ _ _ _ _ _ _ _ _ _ _ _ _ _ _ _ _ _
 72
    65
 73
     2
 40
0.375
 49
0.25
 49
-0.125
  0
LTYPE
  2
PHANTOM2
 70
     0
  3
___ _ _ ___ _ _ ___ _ _ ___ _ _
 72
    65
 73
     6
 40
1.25
 49
0.625
 49
-0.125
 49
0.125
 49
-0.125
 49
0.125
 49
-0.125
  0
ENDTAB
  0
TABLE
  2
LAYER
 70
     7
  0
LAYER
  2
0
 70
     0
 62
     7
  6
CONTINUOUS
  0
LAYER
  2
1
 70
     0
 62
     1
  6
CENTER
  0
LAYER
  2
WAKU
 70
     0
 62
     5
  6
CONTINUOUS
  0
LAYER
  2
DEFPOINTS
 70
     0
 62
     7
  6
CONTINUOUS
  0
LAYER
  2
4
 70
     0
 62
     4
  6
CONTINUOUS
  0
LAYER
  2
3
 70
     0
 62
     3
  6
CONTINUOUS
  0
LAYER
  2
2
 70
     0
 62
     2
  6
HIDDEN
  0
ENDTAB
  0
TABLE
  2
STYLE
 70
     3
  0
STYLE
  2
STANDARD
 70
     0
 40
0.0
 41
1.0
 50
0.0
 71
     0
 42
2.5
  3
ROMANS
  4
EXTFONT
  0
STYLE
  2
K
 70
     0
 40
0.0
 41
0.75
 50
0.0
 71
     0
 42
3.2000000000000002
  3
ROMANS.shx
  4
EXTFONT.shx
  0
STYLE
  2
STANDARD1
 70
     0
 40
0.0
 41
1.0
 50
0.0
 71
     0
 42
3.0
  3
txt
  4

  0
ENDTAB
  0
TABLE
  2
VIEW
 70
     2
  0
VIEW
  2
OLE1
 70
     0
 40
151.81220504325799
 10
73.676474473531471
 20
85.209442582639014
 41
295.93771616027522
 11
0.0
 21
0.0
 31
1.0
 12
0.0
 22
0.0
 32
0.0
 42
50.0
 43
0.0
 44
0.0
 50
0.0
 71
    16
  0
VIEW
  2
OLE2
 70
     0
 40
12.66566269640963
 10
177.82767580922561
 20
80.089748755761136
 41
24.690026015785861
 11
0.0
 21
0.0
 31
1.0
 12
0.0
 22
0.0
 32
0.0
 42
50.0
 43
0.0
 44
0.0
 50
0.0
 71
    16
  0
ENDTAB
  0
TABLE
  2
UCS
 70
     0
  0
ENDTAB
  0
TABLE
  2
APPID
 70
    46
  0
APPID
  2
ACAD
 70
     0
  0
APPID
  2
COMM
 70
     0
  0
APPID
  2
DCO15
 70
     0
  0
APPID
  2
GENIUS_GENOREF_13
 70
     0
  0
APPID
  2
GENIUS_GENOENT_13
 70
     0
  0
APPID
  2
GENIUS_GENBH_13
 70
     0
  0
APPID
  2
GENIUS_GENOBJ_13
 70
     0
  0
APPID
  2
GENIUS_GENODEF_13
 70
     0
  0
APPID
  2
GENIUS_GENOLIS_13
 70
     0
  0
APPID
  2
GENIUS_GENOBJ-NBEHI-BHF_13
 70
     0
  0
APPID
  2
GENIUS_GENOBJ-NBEHI-BHB_13
 70
     0
  0
APPID
  2
GENIUS_GENOBJ-F-PART_13
 70
     0
  0
APPID
  2
GENIUS_GEFSTDP_13
 70
     0
  0
APPID
  2
GENIUS_GENOBJ-N-RSSYM_13
 70
     0
  0
APPID
  2
GENIUS_GENSYMENT_13
 70
     0
  0
APPID
  2
GENIUS_GENOBJ-N-TIT_13
 70
     0
  0
APPID
  2
GENIUS_GENTITLE_13
 70
     0
  0
APPID
  2
GENIUS_GENZVEED_13
 70
     0
  0
APPID
  2
GENIUS_GENOBJ-N-LEADER_13
 70
     0
  0
APPID
  2
GENIUS_GENOBJ-N-FIL_13
 70
     0
  0
APPID
  2
GENIUS_GENOBJ-N-SEC_13
 70
     0
  0
APPID
  2
GENIUS_GENOBJ-N-CRS_13
 70
     0
  0
APPID
  2
GENIUS_GENOBJ-N-ZOO_13
 70
     0
  0
APPID
  2
GENIUS_GENZOO_13
 70
     0
  0
APPID
  2
GENIUS_GENOBJ-F-TOL_13
 70
     0
  0
APPID
  2
GENIUS_GENFIL_13
 70
     0
  0
APPID
  2
GENIUS_GENOBJ-N-CHA_13
 70
     0
  0
APPID
  2
_CALL_MAC$
 70
     0
  0
APPID
  2
ASM_BASE
 70
     0
  0
APPID
  2
ASM_EXPLO_VER_2_00
 70
     0
  0
APPID
  2
ASM_CADM_VER_12_00
 70
     0
  0
APPID
  2
ASM_BASEFORO
 70
     0
  0
APPID
  2
ASM_BASETRAVI
 70
     0
  0
APPID
  2
ASM_BASETRAVI1
 70
     0
  0
APPID
  2
ASM_GRUPPI
 70
     0
  0
APPID
  2
ASM_CADM_ALBERO
 70
     0
  0
APPID
  2
ASM_GOLE
 70
     0
  0
APPID
  2
GENIUS_GEFINERT_13
 70
     0
  0
APPID
  2
GENIUS_GENOBJ-F-INER_13
 70
     0
  0
APPID
  2
GENIUS_GENDTOL_13
 70
     0
  0
APPID
  2
AD_SKETCHDIM
 70
     0
  0
APPID
  2
GENIUS_GENSCREG_15
 70
     0
  0
APPID
  2
GENIUS_GENOBJ-N-SDF_13
 70
     0
  0
APPID
  2
GENIUS_GENOBJ-N-CEN_13
 70
     0
  0
APPID
  2
ACAD_MLEADERVER
 70
     0
  0
APPID
  2
ACAD_NAV_VCDISPLAY
 70
     0
  0
ENDTAB
  0
TABLE
  2
DIMSTYLE
 70
     2
  0
DIMSTYLE
  2
ITM
 70
     0
  3

  4

  5

  6

  7

 40
0.0
 41
2.5
 42
1.0
 43
6.0
 44
1.0
 45
0.0
 46
0.0
 47
495.0
 48
0.0
140
3.0
141
0.0
142
0.0
143
25.399999999999999
144
1.0
145
0.0
146
1.0
147
1.0
 71
     0
 72
     0
 73
     0
 74
     0
 75
     0
 76
     0
 77
     3
 78
     8
170
     0
171
     2
172
     1
173
     0
174
     0
175
     0
176
     0
177
     0
178
     0
  0
DIMSTYLE
  2
STANDARD
 70
     0
  3

  4

  5

  6

  7

 40
1.0
 41
0.18
 42
0.0625
 43
0.38
 44
0.18
 45
0.0
 46
0.0
 47
0.0
 48
0.0
140
0.18
141
0.09
142
0.0
143
25.399999999999999
144
1.0
145
0.0
146
1.0
147
0.09
 71
     0
 72
     0
 73
     1
 74
     1
 75
     0
 76
     0
 77
     0
 78
     0
170
     0
171
     2
172
     0
173
     0
174
     0
175
     0
176
     0
177
     0
178
     0
  0
ENDTAB
  0
ENDSEC
  0
SECTION
  2
BLOCKS
  0
BLOCK
  8
0
  2
$MODEL_SPACE
 70
     0
 10
0.0
 20
0.0
 30
0.0
  3
$MODEL_SPACE
  1

  0
ENDBLK
  5
21
  8
0
  0
BLOCK
 67
     1
  8
0
  2
$PAPER_SPACE
 70
     0
 10
0.0
 20
0.0
 30
0.0
  3
$PAPER_SPACE
  1

  0
ENDBLK
  5
76
 67
     1
  8
0
  0
BLOCK
  8
0
  2
ARROW1
 70
     0
 10
0.0
 20
0.0
 30
0.0
  3
ARROW1
  1

  0
SOLID
  5
18C
  8
WAKU
  6
CONTINUOUS
 62
     4
 10
-1.0
 20
0.1666666666666714
 30
0.0
 11
-1.0
 21
-0.1666666666666714
 31
0.0
 12
0.0
 22
0.0
 32
0.0
 13
0.0
 23
0.0
 33
0.0
  0
ENDBLK
  5
3534A
  8
0
  0
ENDSEC
  0
SECTION
  2
ENTITIES
  0
LINE
  5
56969
  8
0
 10
41.994178577296218
 20
54.737948739884366
 30
0.0
 11
47.977170789016327
 21
54.737948739884366
 31
0.0
  0
CIRCLE
  5
5696A
  8
0
 10
114.13065319645629
 20
97.043495224065524
 30
0.0
 40
4.1999999999999309
  0
CIRCLE
  5
5696B
  8
3
 10
114.13065319645629
 20
97.043495224065524
 30
0.0
 40
4.0
  0
CIRCLE
  5
5696C
  8
0
 10
114.13065319645629
 20
97.043495224065524
 30
0.0
 40
3.3234999999999668
  0
POLYLINE
  5
5697B
  8
0
 66
     1
 10
0.0
 20
0.0
 30
0.0
  0
VERTEX
  5
57BA7
  8
0
 10
109.9900862910018
 20
102.3743681076986
 30
0.0
  0
VERTEX
  5
57BA8
  8
0
 10
110.02241418472779
 20
102.399321231556
 30
0.0
  0
VERTEX
  5
57BA9
  8
0
 10
110.0876391283899
 20
102.4487276192004
 30
0.0
  0
VERTEX
  5
57BAA
  8
0
 10
110.1536111858379
 20
102.49745129702541
 30
0.0
  0
VERTEX
  5
57BAB
  8
0
 10
110.1868728711933
 20
102.5215511516796
 30
0.0
  0
VERTEX
  5
57BAC
  8
0
 10
110.2203158709756
 20
102.5454732321051
 30
0.0
  0
VERTEX
  5
57BAD
  8
0
 10
110.2877383016969
 20
102.59277491711001
 30
0.0
  0
VERTEX
  5
57BAE
  8
0
 10
110.355863234379
 20
102.639338390399
 30
0.0
  0
VERTEX
  5
57BAF
  8
0
 10
110.4246754409362
 20
102.6851464784049
 30
0.0
  0
VERTEX
  5
57BB0
  8
0
 10
110.4941598347384
 20
102.7301828390291
 30
0.0
  0
VERTEX
  5
57BB1
  8
0
 10
110.5643005202076
 20
102.77443132461779
 30
0.0
  0
VERTEX
  5
57BB2
  8
0
 10
110.59961186608599
 20
102.7962551810962
 30
0.0
  0
VERTEX
  5
57BB3
  8
0
 10
110.6350810975572
 20
102.8178762039972
 30
0.0
  0
VERTEX
  5
57BB4
  8
0
 10
110.7064846971477
 20
102.8605021940066
 30
0.0
  0
VERTEX
  5
57BB5
  8
0
 10
110.7784940095902
 20
102.9022944855105
 30
0.0
  0
VERTEX
  5
57BB6
  8
0
 10
110.85109131677321
 20
102.94323876741799
 30
0.0
  0
VERTEX
  5
57BB7
  8
0
 10
110.92425852384351
 20
102.98332124874329
 30
0.0
  0
VERTEX
  5
57BB8
  8
0
 10
110.9979771921621
 20
103.0225286787402
 30
0.0
  0
VERTEX
  5
57BB9
  8
0
 10
111.0350374765481
 20
103.0418002608785
 30
0.0
  0
VERTEX
  5
57BBA
  8
0
 10
111.07222857326779
 20
103.0608483651296
 30
0.0
  0
VERTEX
  5
57BBB
  8
0
 10
111.14699364387469
 20
103.0982681904357
 30
0.0
  0
VERTEX
  5
57BBC
  8
0
 10
111.22225314193869
 20
103.1347766264374
 30
0.0
  0
VERTEX
  5
57BBD
  8
0
 10
111.2600622257158
 20
103.1526856351349
 30
0.0
  0
VERTEX
  5
57BBE
  8
0
 10
111.29798760382209
 20
103.170362746732
 30
0.0
  0
VERTEX
  5
57BBF
  8
0
 10
111.3741774025891
 20
103.20501623740491
 30
0.0
  0
VERTEX
  5
57BC0
  8
0
 10
111.45080278746489
 20
103.23872740578619
 30
0.0
  0
VERTEX
  5
57BC1
  8
0
 10
111.4892726286931
 20
103.2552267617483
 30
0.0
  0
VERTEX
  5
57BC2
  8
0
 10
111.52784392448611
 20
103.27148718727049
 30
0.0
  0
VERTEX
  5
57BC3
  8
0
 10
111.6052852923919
 20
103.3032889066976
 30
0.0
  0
VERTEX
  5
57BC4
  8
0
 10
111.6831175298971
 20
103.3341286707798
 30
0.0
  0
VERTEX
  5
57BC5
  8
0
 10
111.7613209000198
 20
103.3639987221313
 30
0.0
  0
VERTEX
  5
57BC6
  8
0
 10
111.83987479045921
 20
103.3928915965262
 30
0.0
  0
VERTEX
  5
57BC7
  8
0
 10
111.9187582154691
 20
103.4208003440267
 30
0.0
  0
VERTEX
  5
57BC8
  8
0
 10
111.95831685158041
 20
103.434383644679
 30
0.0
  0
VERTEX
  5
57BC9
  8
0
 10
111.9979498496444
 20
103.4477185520341
 30
0.0
  0
VERTEX
  5
57BCA
  8
0
 10
112.07742806231779
 20
103.4736403661709
 30
0.0
  0
VERTEX
  5
57BCB
  8
0
 10
112.1571709525728
 20
103.4985605090241
 30
0.0
  0
VERTEX
  5
57BCC
  8
0
 10
112.2371563848906
 20
103.52247429677369
 30
0.0
  0
VERTEX
  5
57BCD
  8
0
 10
112.3173620254465
 20
103.5453776537267
 30
0.0
  0
VERTEX
  5
57BCE
  8
0
 10
112.3977653790858
 20
103.567267124769
 30
0.0
  0
VERTEX
  5
57BCF
  8
0
 10
112.4380341337195
 20
103.57783074563611
 30
0.0
  0
VERTEX
  5
57BD0
  8
0
 10
112.47834382700169
 20
103.58813988574209
 30
0.0
  0
VERTEX
  5
57BD1
  8
0
 10
112.5590746651518
 20
103.6079937517478
 30
0.0
  0
VERTEX
  5
57BD2
  8
0
 10
112.6399351434487
 20
103.6268271833728
 30
0.0
  0
VERTEX
  5
57BD3
  8
0
 10
112.7209025057617
 20
103.64463929082279
 30
0.0
  0
VERTEX
  5
57BD4
  8
0
 10
112.8019540307738
 20
103.6614298359451
 30
0.0
  0
VERTEX
  5
57BD5
  8
0
 10
112.8830670717276
 20
103.677199231736
 30
0.0
  0
VERTEX
  5
57BD6
  8
0
 10
112.9236395920649
 20
103.6847013011884
 30
0.0
  0
VERTEX
  5
57BD7
  8
0
 10
112.9642189797259
 20
103.6919485192343
 30
0.0
  0
VERTEX
  5
57BD8
  8
0
 10
113.0453868308816
 20
103.70567931907161
 30
0.0
  0
VERTEX
  5
57BD9
  8
0
 10
113.1265473776124
 20
103.7183938378696
 30
0.0
  0
VERTEX
  5
57BDA
  8
0
 10
113.2076770877261
 20
103.7300948907656
 30
0.0
  0
VERTEX
  5
57BDB
  8
0
 10
113.2887521843348
 20
103.7407859214885
 30
0.0
  0
VERTEX
  5
57BDC
  8
0
 10
113.3697486858624
 20
103.75047101988871
 30
0.0
  0
VERTEX
  5
57BDD
  8
0
 10
113.4102099231242
 20
103.7549378029684
 30
0.0
  0
VERTEX
  5
57BDE
  8
0
 10
113.45064244613999
 20
103.75915493696451
 30
0.0
  0
VERTEX
  5
57BDF
  8
0
 10
113.5314091945947
 20
103.7668430974269
 30
0.0
  0
VERTEX
  5
57BE0
  8
0
 10
113.6120245765446
 20
103.77354160983499
 30
0.0
  0
VERTEX
  5
57BE1
  8
0
 10
113.6924641936245
 20
103.779257274331
 30
0.0
  0
VERTEX
  5
57BE2
  8
0
 10
113.77270364437931
 20
103.78399758799721
 30
0.0
  0
VERTEX
  5
57BE3
  8
0
 10
113.85271856506481
 20
103.78777074784659
 30
0.0
  0
VERTEX
  5
57BE4
  8
0
 10
113.8926342333725
 20
103.78929739824849
 30
0.0
  0
VERTEX
  5
57BE5
  8
0
 10
113.9324846707125
 20
103.7905856514575
 30
0.0
  0
VERTEX
  5
57BE6
  8
0
 10
114.01197779651849
 20
103.7924518952443
 30
0.0
  0
VERTEX
  5
57BE7
  8
0
 10
114.09117393963
 20
103.7933797703581
 30
0.0
  0
VERTEX
  5
57BE8
  8
0
 10
114.13065319645629
 20
103.7934952240655
 30
0.0
  0
VERTEX
  5
57BE9
  8
0
 10
114.1701324532827
 20
103.7933797703581
 30
0.0
  0
VERTEX
  5
57BEA
  8
0
 10
114.24932859639419
 20
103.7924518952443
 30
0.0
  0
VERTEX
  5
57BEB
  8
0
 10
114.3288217222002
 20
103.7905856514575
 30
0.0
  0
VERTEX
  5
57BEC
  8
0
 10
114.3686721595402
 20
103.78929739824849
 30
0.0
  0
VERTEX
  5
57BED
  8
0
 10
114.4085878278479
 20
103.78777074784659
 30
0.0
  0
VERTEX
  5
57BEE
  8
0
 10
114.4886027485333
 20
103.78399758799721
 30
0.0
  0
VERTEX
  5
57BEF
  8
0
 10
114.5688421992881
 20
103.779257274331
 30
0.0
  0
VERTEX
  5
57BF0
  8
0
 10
114.6492818163682
 20
103.77354160983499
 30
0.0
  0
VERTEX
  5
57BF1
  8
0
 10
114.729897198318
 20
103.7668430974269
 30
0.0
  0
VERTEX
  5
57BF2
  8
0
 10
114.81066394677271
 20
103.75915493696451
 30
0.0
  0
VERTEX
  5
57BF3
  8
0
 10
114.8510964697885
 20
103.7549378029684
 30
0.0
  0
VERTEX
  5
57BF4
  8
0
 10
114.8915577070503
 20
103.75047101988871
 30
0.0
  0
VERTEX
  5
57BF5
  8
0
 10
114.9725542085779
 20
103.7407859214885
 30
0.0
  0
VERTEX
  5
57BF6
  8
0
 10
115.0536293051867
 20
103.7300948907656
 30
0.0
  0
VERTEX
  5
57BF7
  8
0
 10
115.1347590153004
 20
103.7183938378696
 30
0.0
  0
VERTEX
  5
57BF8
  8
0
 10
115.2159195620311
 20
103.70567931907161
 30
0.0
  0
VERTEX
  5
57BF9
  8
0
 10
115.2970874131869
 20
103.6919485192343
 30
0.0
  0
VERTEX
  5
57BFA
  8
0
 10
115.3376668008478
 20
103.6847013011884
 30
0.0
  0
VERTEX
  5
57BFB
  8
0
 10
115.37823932118511
 20
103.677199231736
 30
0.0
  0
VERTEX
  5
57BFC
  8
0
 10
115.4593523621389
 20
103.6614298359451
 30
0.0
  0
VERTEX
  5
57BFD
  8
0
 10
115.540403887151
 20
103.64463929082279
 30
0.0
  0
VERTEX
  5
57BFE
  8
0
 10
115.621371249464
 20
103.6268271833728
 30
0.0
  0
VERTEX
  5
57BFF
  8
0
 10
115.7022317277609
 20
103.6079937517478
 30
0.0
  0
VERTEX
  5
57C00
  8
0
 10
115.78296256591111
 20
103.58813988574209
 30
0.0
  0
VERTEX
  5
57C01
  8
0
 10
115.8232722591932
 20
103.57783074563611
 30
0.0
  0
VERTEX
  5
57C02
  8
0
 10
115.8635410138268
 20
103.567267124769
 30
0.0
  0
VERTEX
  5
57C03
  8
0
 10
115.9439443674662
 20
103.5453776537267
 30
0.0
  0
VERTEX
  5
57C04
  8
0
 10
116.0241500080223
 20
103.52247429677369
 30
0.0
  0
VERTEX
  5
57C05
  8
0
 10
116.1041354403398
 20
103.4985605090241
 30
0.0
  0
VERTEX
  5
57C06
  8
0
 10
116.18387833059499
 20
103.4736403661709
 30
0.0
  0
VERTEX
  5
57C07
  8
0
 10
116.2633565432684
 20
103.4477185520341
 30
0.0
  0
VERTEX
  5
57C08
  8
0
 10
116.30298954133229
 20
103.434383644679
 30
0.0
  0
VERTEX
  5
57C09
  8
0
 10
116.3425481774437
 20
103.4208003440267
 30
0.0
  0
VERTEX
  5
57C0A
  8
0
 10
116.4214316024535
 20
103.3928915965262
 30
0.0
  0
VERTEX
  5
57C0B
  8
0
 10
116.4999854928929
 20
103.3639987221313
 30
0.0
  0
VERTEX
  5
57C0C
  8
0
 10
116.5781888630156
 20
103.3341286707798
 30
0.0
  0
VERTEX
  5
57C0D
  8
0
 10
116.6560211005209
 20
103.3032889066976
 30
0.0
  0
VERTEX
  5
57C0E
  8
0
 10
116.73346246842659
 20
103.27148718727049
 30
0.0
  0
VERTEX
  5
57C0F
  8
0
 10
116.7720337642196
 20
103.2552267617483
 30
0.0
  0
VERTEX
  5
57C10
  8
0
 10
116.81050360544781
 20
103.23872740578619
 30
0.0
  0
VERTEX
  5
57C11
  8
0
 10
116.8871289903236
 20
103.20501623740491
 30
0.0
  0
VERTEX
  5
57C12
  8
0
 10
116.96331878909059
 20
103.170362746732
 30
0.0
  0
VERTEX
  5
57C13
  8
0
 10
117.0012441671969
 20
103.1526856351349
 30
0.0
  0
VERTEX
  5
57C14
  8
0
 10
117.03905325097401
 20
103.1347766264374
 30
0.0
  0
VERTEX
  5
57C15
  8
0
 10
117.11431274903801
 20
103.0982681904357
 30
0.0
  0
VERTEX
  5
57C16
  8
0
 10
117.18907781964499
 20
103.0608483651296
 30
0.0
  0
VERTEX
  5
57C17
  8
0
 10
117.2262689163647
 20
103.0418002608785
 30
0.0
  0
VERTEX
  5
57C18
  8
0
 10
117.2633292007506
 20
103.0225286787402
 30
0.0
  0
VERTEX
  5
57C19
  8
0
 10
117.3370478690692
 20
102.98332124874329
 30
0.0
  0
VERTEX
  5
57C1A
  8
0
 10
117.41021507613949
 20
102.94323876741799
 30
0.0
  0
VERTEX
  5
57C1B
  8
0
 10
117.4828123833225
 20
102.9022944855105
 30
0.0
  0
VERTEX
  5
57C1C
  8
0
 10
117.554821695765
 20
102.8605021940066
 30
0.0
  0
VERTEX
  5
57C1D
  8
0
 10
117.6262252953556
 20
102.8178762039972
 30
0.0
  0
VERTEX
  5
57C1E
  8
0
 10
117.66169452682669
 20
102.7962551810962
 30
0.0
  0
VERTEX
  5
57C1F
  8
0
 10
117.69700587270501
 20
102.77443132461779
 30
0.0
  0
VERTEX
  5
57C20
  8
0
 10
117.7671465581744
 20
102.7301828390291
 30
0.0
  0
VERTEX
  5
57C21
  8
0
 10
117.8366309519766
 20
102.6851464784049
 30
0.0
  0
VERTEX
  5
57C22
  8
0
 10
117.9054431585337
 20
102.639338390399
 30
0.0
  0
VERTEX
  5
57C23
  8
0
 10
117.9735680912159
 20
102.59277491711001
 30
0.0
  0
VERTEX
  5
57C24
  8
0
 10
118.0409905219371
 20
102.5454732321051
 30
0.0
  0
VERTEX
  5
57C25
  8
0
 10
118.0744335217194
 20
102.5215511516796
 30
0.0
  0
VERTEX
  5
57C26
  8
0
 10
118.1076952070748
 20
102.49745129702541
 30
0.0
  0
VERTEX
  5
57C27
  8
0
 10
118.1736672645229
 20
102.4487276192004
 30
0.0
  0
VERTEX
  5
57C28
  8
0
 10
118.23889220818489
 20
102.399321231556
 30
0.0
  0
VERTEX
  5
57C29
  8
0
 10
118.2712201019109
 20
102.3743681076986
 30
0.0
  0
SEQEND
  5
57C2A
  8
0
  0
LINE
  5
5697C
  8
0
 10
38.235674683156283
 20
52.739236260468722
 30
0.0
 11
38.235674683156283
 21
30.739236260468729
 31
0.0
  0
LINE
  5
5697D
  8
0
 10
51.735674683156283
 20
30.739236260468729
 30
0.0
 11
51.735674683156283
 21
52.739236260468722
 31
0.0
  0
LINE
  5
5697E
  8
0
 10
51.735674683156283
 20
30.739236260468729
 30
0.0
 11
38.235674683156283
 21
30.739236260468729
 31
0.0
  0
LINE
  5
5697F
  8
0
 10
50.316547566789382
 20
36.614236260468729
 30
0.0
 11
39.65480179952317
 21
36.614236260468729
 31
0.0
  0
POLYLINE
  5
56980
  8
0
 66
     1
 10
0.0
 20
0.0
 30
0.0
  0
VERTEX
  5
57C2B
  8
0
 10
42.419101619728742
 20
39.944264609529469
 30
0.0
  0
VERTEX
  5
57C2C
  8
0
 10
42.441553581595137
 20
39.843486556077231
 30
0.0
  0
VERTEX
  5
57C2D
  8
0
 10
42.474411009104422
 20
39.646154444896432
 30
0.0
  0
VERTEX
  5
57C2E
  8
0
 10
42.49097314925347
 20
39.454642718586591
 30
0.0
  0
VERTEX
  5
57C2F
  8
0
 10
42.493056032257073
 20
39.361158529388732
 30
0.0
  0
SEQEND
  5
57C30
  8
0
  0
POLYLINE
  5
56981
  8
0
 66
     1
 10
0.0
 20
0.0
 30
0.0
  0
VERTEX
  5
57C31
  8
0
 10
42.493056032257073
 20
39.361158529388732
 30
0.0
  0
VERTEX
  5
57C32
  8
0
 10
42.492209497725753
 20
39.302499199910031
 30
0.0
  0
VERTEX
  5
57C33
  8
0
 10
42.485413414575874
 20
39.187125891515642
 30
0.0
  0
VERTEX
  5
57C34
  8
0
 10
42.471760859030937
 20
39.074404423329618
 30
0.0
  0
VERTEX
  5
57C35
  8
0
 10
42.462343889080557
 20
39.019060415763548
 30
0.0
  0
VERTEX
  5
57C36
  8
0
 10
42.451189434613752
 20
38.96440643290147
 30
0.0
  0
VERTEX
  5
57C37
  8
0
 10
42.423643935558623
 20
38.857229749848571
 30
0.0
  0
VERTEX
  5
57C38
  8
0
 10
42.389077926210341
 20
38.752979876315649
 30
0.0
  0
VERTEX
  5
57C39
  8
0
 10
42.34744382299538
 20
38.651742832506692
 30
0.0
  0
VERTEX
  5
57C3A
  8
0
 10
42.298695921991673
 20
38.553607909961691
 30
0.0
  0
VERTEX
  5
57C3B
  8
0
 10
42.242789989705557
 20
38.458668320972052
 30
0.0
  0
VERTEX
  5
57C3C
  8
0
 10
42.212139235057073
 20
38.412427155400351
 30
0.0
  0
VERTEX
  5
57C3D
  8
0
 10
42.179682831757638
 20
38.367021928207713
 30
0.0
  0
VERTEX
  5
57C3E
  8
0
 10
42.109335458283908
 20
38.278776270358676
 30
0.0
  0
VERTEX
  5
57C3F
  8
0
 10
42.0317456380875
 20
38.194080420037508
 30
0.0
  0
VERTEX
  5
57C40
  8
0
 10
41.946903314173142
 20
38.113064160779928
 30
0.0
  0
VERTEX
  5
57C41
  8
0
 10
41.854795717600723
 20
38.035854270379353
 30
0.0
  0
VERTEX
  5
57C42
  8
0
 10
41.755413206262233
 20
37.962583623902461
 30
0.0
  0
VERTEX
  5
57C43
  8
0
 10
41.702991589093578
 20
37.927468844019486
 30
0.0
  0
VERTEX
  5
57C44
  8
0
 10
41.648748819394989
 20
37.893391737489097
 30
0.0
  0
VERTEX
  5
57C45
  8
0
 10
41.534797869392939
 20
37.828425179352749
 30
0.0
  0
VERTEX
  5
57C46
  8
0
 10
41.413557593081123
 20
37.767837763714979
 30
0.0
  0
VERTEX
  5
57C47
  8
0
 10
41.350203551965024
 20
37.739236260468729
 30
0.0
  0
SEQEND
  5
57C48
  8
0
  0
POLYLINE
  5
56982
  8
0
 66
     1
 10
0.0
 20
0.0
 30
0.0
  0
VERTEX
  5
57C49
  8
0
 10
41.350203551965024
 20
37.739236260468729
 30
0.0
  0
VERTEX
  5
57C4A
  8
0
 10
41.312602448994987
 20
37.737769632557402
 30
0.0
  0
VERTEX
  5
57C4B
  8
0
 10
41.235563049437467
 20
37.726496692755077
 30
0.0
  0
VERTEX
  5
57C4C
  8
0
 10
41.156364784867598
 20
37.70509922042551
 30
0.0
  0
VERTEX
  5
57C4D
  8
0
 10
41.116074786125523
 20
37.690969731987607
 30
0.0
  0
VERTEX
  5
57C4E
  8
0
 10
41.075392682409287
 20
37.674746684696643
 30
0.0
  0
VERTEX
  5
57C4F
  8
0
 10
40.993072416642342
 20
37.636600530892132
 30
0.0
  0
VERTEX
  5
57C50
  8
0
 10
40.909172690784757
 20
37.591427186501072
 30
0.0
  0
VERTEX
  5
57C51
  8
0
 10
40.822874574577547
 20
37.53944235619317
 30
0.0
  0
VERTEX
  5
57C52
  8
0
 10
40.73415883616962
 20
37.481162349474651
 30
0.0
  0
VERTEX
  5
57C53
  8
0
 10
40.643016164352957
 20
37.417087437591491
 30
0.0
  0
VERTEX
  5
57C54
  8
0
 10
40.596532512270869
 20
37.383030403137482
 30
0.0
  0
VERTEX
  5
57C55
  8
0
 10
40.549439712743492
 20
37.347708337800462
 30
0.0
  0
VERTEX
  5
57C56
  8
0
 10
40.453424282682583
 20
37.273513311558212
 30
0.0
  0
VERTEX
  5
57C57
  8
0
 10
40.354965202624378
 20
37.194992971082698
 30
0.0
  0
VERTEX
  5
57C58
  8
0
 10
40.254057125775823
 20
37.112643420388181
 30
0.0
  0
VERTEX
  5
57C59
  8
0
 10
40.150692890567818
 20
37.026968233025869
 30
0.0
  0
VERTEX
  5
57C5A
  8
0
 10
40.044862532411798
 20
36.938479657680332
 30
0.0
  0
VERTEX
  5
57C5B
  8
0
 10
39.991018478533192
 20
36.893342985511723
 30
0.0
  0
VERTEX
  5
57C5C
  8
0
 10
39.936552496426998
 20
36.847699350916528
 30
0.0
  0
VERTEX
  5
57C5D
  8
0
 10
39.825745075567973
 20
36.755158864910321
 30
0.0
  0
VERTEX
  5
57C5E
  8
0
 10
39.712418083552279
 20
36.661400065440283
 30
0.0
  0
VERTEX
  5
57C5F
  8
0
 10
39.65480179952317
 20
36.614236260468729
 30
0.0
  0
SEQEND
  5
57C60
  8
0
  0
POLYLINE
  5
56983
  8
0
 66
     1
 10
0.0
 20
0.0
 30
0.0
  0
VERTEX
  5
57C61
  8
0
 10
47.55224774658393
 20
39.944264609529469
 30
0.0
  0
VERTEX
  5
57C62
  8
0
 10
47.699229138522242
 20
40.581560126490913
 30
0.0
  0
VERTEX
  5
57C63
  8
0
 10
47.982512362693001
 20
41.969887042531141
 30
0.0
  0
VERTEX
  5
57C64
  8
0
 10
48.267440045367273
 20
43.597556497218662
 30
0.0
  0
VERTEX
  5
57C65
  8
0
 10
48.408310736827843
 20
44.49659557334941
 30
0.0
  0
SEQEND
  5
57C66
  8
0
  0
POLYLINE
  5
56984
  8
0
 66
     1
 10
0.0
 20
0.0
 30
0.0
  0
VERTEX
  5
57C67
  8
0
 10
50.316547566789382
 20
36.614236260468729
 30
0.0
  0
VERTEX
  5
57C68
  8
0
 10
50.258931280212771
 20
36.661400067533933
 30
0.0
  0
VERTEX
  5
57C69
  8
0
 10
50.145604284015008
 20
36.755158870509618
 30
0.0
  0
VERTEX
  5
57C6A
  8
0
 10
50.03479686001856
 20
36.847699359179863
 30
0.0
  0
VERTEX
  5
57C6B
  8
0
 10
49.980330876694318
 20
36.893342994805053
 30
0.0
  0
VERTEX
  5
57C6C
  8
0
 10
49.926486821810727
 20
36.938479667811883
 30
0.0
  0
VERTEX
  5
57C6D
  8
0
 10
49.820656462226111
 20
37.026968244292121
 30
0.0
  0
VERTEX
  5
57C6E
  8
0
 10
49.717292226274367
 20
37.112643432131691
 30
0.0
  0
VERTEX
  5
57C6F
  8
0
 10
49.616384149265741
 20
37.194992982732408
 30
0.0
  0
VERTEX
  5
57C70
  8
0
 10
49.517925069537
 20
37.273513322636987
 30
0.0
  0
VERTEX
  5
57C71
  8
0
 10
49.4219096402079
 20
37.34770834793018
 30
0.0
  0
VERTEX
  5
57C72
  8
0
 10
49.374816841171537
 20
37.383030412682523
 30
0.0
  0
VERTEX
  5
57C73
  8
0
 10
49.328333189650607
 20
37.41708744649533
 30
0.0
  0
VERTEX
  5
57C74
  8
0
 10
49.237190519129292
 20
37.48116235697718
 30
0.0
  0
VERTEX
  5
57C75
  8
0
 10
49.14847478218735
 20
37.539442362217883
 30
0.0
  0
VERTEX
  5
57C76
  8
0
 10
49.062176667548549
 20
37.591427191064462
 30
0.0
  0
VERTEX
  5
57C77
  8
0
 10
48.978276943286581
 20
37.636600534101959
 30
0.0
  0
VERTEX
  5
57C78
  8
0
 10
48.895956679005501
 20
37.674746686760862
 30
0.0
  0
VERTEX
  5
57C79
  8
0
 10
48.855274576026552
 20
37.690969733549437
 30
0.0
  0
VERTEX
  5
57C7A
  8
0
 10
48.81498457801365
 20
37.70509922154146
 30
0.0
  0
VERTEX
  5
57C7B
  8
0
 10
48.735786314867028
 20
37.726496693179811
 30
0.0
  0
VERTEX
  5
57C7C
  8
0
 10
48.658746916668171
 20
37.737769632607197
 30
0.0
  0
VERTEX
  5
57C7D
  8
0
 10
48.621145814347521
 20
37.739236260468729
 30
0.0
  0
SEQEND
  5
57C7E
  8
0
  0
POLYLINE
  5
56985
  8
0
 66
     1
 10
0.0
 20
0.0
 30
0.0
  0
VERTEX
  5
57C7F
  8
0
 10
48.621145814347521
 20
37.739236260468729
 30
0.0
  0
VERTEX
  5
57C80
  8
0
 10
48.557774921476152
 20
37.767845636697658
 30
0.0
  0
VERTEX
  5
57C81
  8
0
 10
48.436489834022503
 20
37.828458112324498
 30
0.0
  0
VERTEX
  5
57C82
  8
0
 10
48.322485579392719
 20
37.893461681594673
 30
0.0
  0
VERTEX
  5
57C83
  8
0
 10
48.268215097542218
 20
37.927561414862922
 30
0.0
  0
VERTEX
  5
57C84
  8
0
 10
48.215766059580233
 20
37.962701285641081
 30
0.0
  0
VERTEX
  5
57C85
  8
0
 10
48.116333859876249
 20
38.03602706917242
 30
0.0
  0
VERTEX
  5
57C86
  8
0
 10
48.024204401528657
 20
38.113280343399779
 30
0.0
  0
VERTEX
  5
57C87
  8
0
 10
47.939366905142947
 20
38.194322139766562
 30
0.0
  0
VERTEX
  5
57C88
  8
0
 10
47.861800777376743
 20
38.279025543133237
 30
0.0
  0
VERTEX
  5
57C89
  8
0
 10
47.7914839136672
 20
38.367268217814413
 30
0.0
  0
VERTEX
  5
57C8A
  8
0
 10
47.759041190704338
 20
38.412672564691682
 30
0.0
  0
VERTEX
  5
57C8B
  8
0
 10
47.728404344079308
 20
38.458911499682827
 30
0.0
  0
VERTEX
  5
57C8C
  8
0
 10
47.67252621460284
 20
38.553842754233088
 30
0.0
  0
VERTEX
  5
57C8D
  8
0
 10
47.623805083284992
 20
38.651964552340488
 30
0.0
  0
VERTEX
  5
57C8E
  8
0
 10
47.582195702277879
 20
38.753184230869479
 30
0.0
  0
VERTEX
  5
57C8F
  8
0
 10
47.547651586046193
 20
38.857413149021021
 30
0.0
  0
VERTEX
  5
57C90
  8
0
 10
47.520124598530622
 20
38.964566026983121
 30
0.0
  0
VERTEX
  5
57C91
  8
0
 10
47.508976954322968
 20
39.019212993213401
 30
0.0
  0
VERTEX
  5
57C92
  8
0
 10
47.499566224929247
 20
39.074549574505241
 30
0.0
  0
VERTEX
  5
57C93
  8
0
 10
47.485926331693577
 20
39.187233354420428
 30
0.0
  0
VERTEX
  5
57C94
  8
0
 10
47.479138648998628
 20
39.302541205573007
 30
0.0
  0
VERTEX
  5
57C95
  8
0
 10
47.478293334055593
 20
39.361158529304262
 30
0.0
  0
SEQEND
  5
57C96
  8
0
  0
POLYLINE
  5
56986
  8
0
 66
     1
 10
0.0
 20
0.0
 30
0.0
  0
VERTEX
  5
57C97
  8
0
 10
47.478293334055593
 20
39.361158529304262
 30
0.0
  0
VERTEX
  5
57C98
  8
0
 10
47.480374872529069
 20
39.454612252451177
 30
0.0
  0
VERTEX
  5
57C99
  8
0
 10
47.496929417619633
 20
39.646084216921643
 30
0.0
  0
VERTEX
  5
57C9A
  8
0
 10
47.529787575792511
 20
39.84344639132884
 30
0.0
  0
VERTEX
  5
57C9B
  8
0
 10
47.55224774658393
 20
39.944264609529469
 30
0.0
  0
SEQEND
  5
57C9C
  8
0
  0
LINE
  5
56987
  8
0
 10
48.485674683156283
 20
45.395450625068307
 30
0.0
 11
48.485674683156283
 21
52.083021895869152
 31
0.0
  0
LINE
  5
56988
  8
0
 10
41.485674683156269
 20
45.395450625068307
 30
0.0
 11
41.485674683156269
 21
52.083021895869152
 31
0.0
  0
POLYLINE
  5
56989
  8
0
 66
     1
 10
0.0
 20
0.0
 30
0.0
  0
VERTEX
  5
57C9D
  8
0
 10
41.563038629484822
 20
44.49659557334941
 30
0.0
  0
VERTEX
  5
57C9E
  8
0
 10
41.703909320945279
 20
43.597556497218662
 30
0.0
  0
VERTEX
  5
57C9F
  8
0
 10
41.988837003619672
 20
41.969887042531141
 30
0.0
  0
VERTEX
  5
57CA0
  8
0
 10
42.272120227790303
 20
40.581560126490913
 30
0.0
  0
VERTEX
  5
57CA1
  8
0
 10
42.419101619728742
 20
39.944264609529469
 30
0.0
  0
SEQEND
  5
57CA2
  8
0
  0
POLYLINE
  5
5698A
  8
0
 66
     1
 10
0.0
 20
0.0
 30
0.0
  0
VERTEX
  5
57CA3
  8
0
 10
48.485674683156283
 20
52.083021895869152
 30
0.0
  0
VERTEX
  5
57CA4
  8
0
 10
48.475906661654342
 20
52.21805832015459
 30
0.0
  0
VERTEX
  5
57CA5
  8
0
 10
48.45536422317889
 20
52.478600315921547
 30
0.0
  0
VERTEX
  5
57CA6
  8
0
 10
48.433795720192158
 20
52.723511420957159
 30
0.0
  0
VERTEX
  5
57CA7
  8
0
 10
48.422762113562158
 20
52.839146137820997
 30
0.0
  0
VERTEX
  5
57CA8
  8
0
 10
48.411643547447738
 20
52.949791296042818
 30
0.0
  0
VERTEX
  5
57CA9
  8
0
 10
48.38856387254009
 20
53.162513891896211
 30
0.0
  0
VERTEX
  5
57CAA
  8
0
 10
48.36348158044256
 20
53.370761375678867
 30
0.0
  0
VERTEX
  5
57CAB
  8
0
 10
48.336670349679594
 20
53.570341204395291
 30
0.0
  0
VERTEX
  5
57CAC
  8
0
 10
48.308486318768253
 20
53.757530389738591
 30
0.0
  0
VERTEX
  5
57CAD
  8
0
 10
48.279333238071899
 20
53.929393551968147
 30
0.0
  0
VERTEX
  5
57CAE
  8
0
 10
48.264534836949558
 20
54.008859178839558
 30
0.0
  0
VERTEX
  5
57CAF
  8
0
 10
48.24967108661496
 20
54.083722706416452
 30
0.0
  0
VERTEX
  5
57CB0
  8
0
 10
48.220011131101501
 20
54.219070402965947
 30
0.0
  0
VERTEX
  5
57CB1
  8
0
 10
48.190570853211277
 20
54.336016174300667
 30
0.0
  0
VERTEX
  5
57CB2
  8
0
 10
48.1596621413712
 20
54.441311299967317
 30
0.0
  0
VERTEX
  5
57CB3
  8
0
 10
48.127330241899237
 20
54.533331918682642
 30
0.0
  0
VERTEX
  5
57CB4
  8
0
 10
48.094041500180531
 20
54.609619583283468
 30
0.0
  0
VERTEX
  5
57CB5
  8
0
 10
48.077190747587451
 20
54.64133383185937
 30
0.0
  0
VERTEX
  5
57CB6
  8
0
 10
48.060283057955303
 20
54.668595343665068
 30
0.0
  0
VERTEX
  5
57CB7
  8
0
 10
48.026554895779903
 20
54.709573540933107
 30
0.0
  0
VERTEX
  5
57CB8
  8
0
 10
47.993382169646338
 20
54.732741528178408
 30
0.0
  0
VERTEX
  5
57CB9
  8
0
 10
47.977170789016327
 20
54.737948739884366
 30
0.0
  0
SEQEND
  5
57CBA
  8
0
  0
POLYLINE
  5
5698B
  8
0
 66
     1
 10
0.0
 20
0.0
 30
0.0
  0
VERTEX
  5
57CBB
  8
0
 10
47.438229427681897
 20
48.739236260468729
 30
0.0
  0
VERTEX
  5
57CBC
  8
0
 10
47.481082030045052
 20
48.834719760884028
 30
0.0
  0
VERTEX
  5
57CBD
  8
0
 10
47.566154820736983
 20
49.02570858672312
 30
0.0
  0
VERTEX
  5
57CBE
  8
0
 10
47.650088871596488
 20
49.21663921991707
 30
0.0
  0
VERTEX
  5
57CBF
  8
0
 10
47.69151536052231
 20
49.312046239117549
 30
0.0
  0
VERTEX
  5
57CC0
  8
0
 10
47.73252034410347
 20
49.407395247276682
 30
0.0
  0
VERTEX
  5
57CC1
  8
0
 10
47.813079847854283
 20
49.597862979715863
 30
0.0
  0
VERTEX
  5
57CC2
  8
0
 10
47.891389970009747
 20
49.787932243453959
 30
0.0
  0
VERTEX
  5
57CC3
  8
0
 10
47.967083459896571
 20
49.977551134127239
 30
0.0
  0
VERTEX
  5
57CC4
  8
0
 10
48.039817464259841
 20
50.166785763640299
 30
0.0
  0
VERTEX
  5
57CC5
  8
0
 10
48.109119799101911
 20
50.355436564127693
 30
0.0
  0
VERTEX
  5
57CC6
  8
0
 10
48.142328553660377
 20
50.44947468829595
 30
0.0
  0
VERTEX
  5
57CC7
  8
0
 10
48.174490313988372
 20
50.543286326718437
 30
0.0
  0
VERTEX
  5
57CC8
  8
0
 10
48.235407637030448
 20
50.730130031821439
 30
0.0
  0
VERTEX
  5
57CC9
  8
0
 10
48.291322266160712
 20
50.915775492279309
 30
0.0
  0
VERTEX
  5
57CCA
  8
0
 10
48.34164761093848
 20
51.100045397275053
 30
0.0
  0
VERTEX
  5
57CCB
  8
0
 10
48.385816321939039
 20
51.28308673769812
 30
0.0
  0
VERTEX
  5
57CCC
  8
0
 10
48.42307804104496
 20
51.464696057902998
 30
0.0
  0
VERTEX
  5
57CCD
  8
0
 10
48.438843790249962
 20
51.554805692867269
 30
0.0
  0
VERTEX
  5
57CCE
  8
0
 10
48.452546144432858
 20
51.644371818755999
 30
0.0
  0
VERTEX
  5
57CCF
  8
0
 10
48.473281593007073
 20
51.82173408216034
 30
0.0
  0
VERTEX
  5
57CD0
  8
0
 10
48.484243610228638
 20
51.996680938655579
 30
0.0
  0
VERTEX
  5
57CD1
  8
0
 10
48.485674683156283
 20
52.083021895869152
 30
0.0
  0
SEQEND
  5
57CD2
  8
0
  0
POLYLINE
  5
5698C
  8
0
 66
     1
 10
0.0
 20
0.0
 30
0.0
  0
VERTEX
  5
57CD3
  8
0
 10
48.485674683156283
 20
45.395450625068307
 30
0.0
  0
VERTEX
  5
57CD4
  8
0
 10
48.484243610228638
 20
45.481791582281872
 30
0.0
  0
VERTEX
  5
57CD5
  8
0
 10
48.473281593007187
 20
45.656738438777111
 30
0.0
  0
VERTEX
  5
57CD6
  8
0
 10
48.452546144432858
 20
45.834100702181452
 30
0.0
  0
VERTEX
  5
57CD7
  8
0
 10
48.438843790249962
 20
45.923666828070182
 30
0.0
  0
VERTEX
  5
57CD8
  8
0
 10
48.42307804104496
 20
46.013776463034461
 30
0.0
  0
VERTEX
  5
57CD9
  8
0
 10
48.385816321939039
 20
46.195385783239331
 30
0.0
  0
VERTEX
  5
57CDA
  8
0
 10
48.341647610938587
 20
46.378427123662398
 30
0.0
  0
VERTEX
  5
57CDB
  8
0
 10
48.291322266160712
 20
46.56269702865815
 30
0.0
  0
VERTEX
  5
57CDC
  8
0
 10
48.235407637030448
 20
46.748342489116013
 30
0.0
  0
VERTEX
  5
57CDD
  8
0
 10
48.174490313988478
 20
46.935186194219121
 30
0.0
  0
VERTEX
  5
57CDE
  8
0
 10
48.142328553660377
 20
47.028997832641501
 30
0.0
  0
VERTEX
  5
57CDF
  8
0
 10
48.109119799101911
 20
47.123035956809773
 30
0.0
  0
VERTEX
  5
57CE0
  8
0
 10
48.039817464259947
 20
47.311686757297153
 30
0.0
  0
VERTEX
  5
57CE1
  8
0
 10
47.967083459896571
 20
47.500921386810212
 30
0.0
  0
VERTEX
  5
57CE2
  8
0
 10
47.891389970009747
 20
47.690540277483493
 30
0.0
  0
VERTEX
  5
57CE3
  8
0
 10
47.813079847854162
 20
47.880609541221602
 30
0.0
  0
VERTEX
  5
57CE4
  8
0
 10
47.73252034410347
 20
48.071077273660769
 30
0.0
  0
VERTEX
  5
57CE5
  8
0
 10
47.69151536052231
 20
48.166426281819909
 30
0.0
  0
VERTEX
  5
57CE6
  8
0
 10
47.650088871596488
 20
48.261833301020388
 30
0.0
  0
VERTEX
  5
57CE7
  8
0
 10
47.566154820736983
 20
48.452763934214332
 30
0.0
  0
VERTEX
  5
57CE8
  8
0
 10
47.481082030045052
 20
48.643752760053431
 30
0.0
  0
VERTEX
  5
57CE9
  8
0
 10
47.438229427681897
 20
48.739236260468729
 30
0.0
  0
SEQEND
  5
57CEA
  8
0
  0
POLYLINE
  5
5698D
  8
0
 66
     1
 10
0.0
 20
0.0
 30
0.0
  0
VERTEX
  5
57CEB
  8
0
 10
48.408310736827843
 20
44.49659557334941
 30
0.0
  0
VERTEX
  5
57CEC
  8
0
 10
48.421845886986709
 20
44.629992123580578
 30
0.0
  0
VERTEX
  5
57CED
  8
0
 10
48.448451668247678
 20
44.918458292879571
 30
0.0
  0
VERTEX
  5
57CEE
  8
0
 10
48.473744118290597
 20
45.231557148847301
 30
0.0
  0
VERTEX
  5
57CEF
  8
0
 10
48.485674683156283
 20
45.395450625068307
 30
0.0
  0
SEQEND
  5
57CF0
  8
0
  0
POLYLINE
  5
5698E
  8
0
 66
     1
 10
0.0
 20
0.0
 30
0.0
  0
VERTEX
  5
57CF1
  8
0
 10
41.485674683156269
 20
45.395450625068307
 30
0.0
  0
VERTEX
  5
57CF2
  8
0
 10
41.497605248022062
 20
45.23155714884718
 30
0.0
  0
VERTEX
  5
57CF3
  8
0
 10
41.52289769806498
 20
44.918458292879237
 30
0.0
  0
VERTEX
  5
57CF4
  8
0
 10
41.549503479325949
 20
44.62999212358001
 30
0.0
  0
VERTEX
  5
57CF5
  8
0
 10
41.563038629484822
 20
44.49659557334941
 30
0.0
  0
SEQEND
  5
57CF6
  8
0
  0
POLYLINE
  5
5698F
  8
0
 66
     1
 10
0.0
 20
0.0
 30
0.0
  0
VERTEX
  5
57CF7
  8
0
 10
42.533119938630762
 20
48.739236260468729
 30
0.0
  0
VERTEX
  5
57CF8
  8
0
 10
42.490267336266008
 20
48.643752760049907
 30
0.0
  0
VERTEX
  5
57CF9
  8
0
 10
42.405194545571248
 20
48.452763934204441
 30
0.0
  0
VERTEX
  5
57CFA
  8
0
 10
42.321260494708888
 20
48.261833301003669
 30
0.0
  0
VERTEX
  5
57CFB
  8
0
 10
42.279834005781602
 20
48.166426281799552
 30
0.0
  0
VERTEX
  5
57CFC
  8
0
 10
42.238829022198949
 20
48.071077273637009
 30
0.0
  0
VERTEX
  5
57CFD
  8
0
 10
42.158269518445543
 20
47.880609541190793
 30
0.0
  0
VERTEX
  5
57CFE
  8
0
 10
42.079959396287677
 20
47.690540277446082
 30
0.0
  0
VERTEX
  5
57CFF
  8
0
 10
42.004265906400413
 20
47.500921386770322
 30
0.0
  0
VERTEX
  5
57D00
  8
0
 10
41.931531902036681
 20
47.311686757254627
 30
0.0
  0
VERTEX
  5
57D01
  8
0
 10
41.862229567193822
 20
47.123035956762479
 30
0.0
  0
VERTEX
  5
57D02
  8
0
 10
41.829020812634781
 20
47.0289978325916
 30
0.0
  0
VERTEX
  5
57D03
  8
0
 10
41.796859052306438
 20
46.935186194166491
 30
0.0
  0
VERTEX
  5
57D04
  8
0
 10
41.735941729264141
 20
46.748342489058707
 30
0.0
  0
VERTEX
  5
57D05
  8
0
 10
41.680027100134559
 20
46.562697028597889
 30
0.0
  0
VERTEX
  5
57D06
  8
0
 10
41.629701755359399
 20
46.378427123605668
 30
0.0
  0
VERTEX
  5
57D07
  8
0
 10
41.585533044367708
 20
46.195385783213183
 30
0.0
  0
VERTEX
  5
57D08
  8
0
 10
41.548271325266107
 20
46.013776463026161
 30
0.0
  0
VERTEX
  5
57D09
  8
0
 10
41.532505576062128
 20
45.923666828067333
 30
0.0
  0
VERTEX
  5
57D0A
  8
0
 10
41.518803221879921
 20
45.834100702182248
 30
0.0
  0
VERTEX
  5
57D0B
  8
0
 10
41.498067773305593
 20
45.656738438778362
 30
0.0
  0
VERTEX
  5
57D0C
  8
0
 10
41.48710575608402
 20
45.481791582281751
 30
0.0
  0
VERTEX
  5
57D0D
  8
0
 10
41.485674683156269
 20
45.395450625068307
 30
0.0
  0
SEQEND
  5
57D0E
  8
0
  0
POLYLINE
  5
56990
  8
0
 66
     1
 10
0.0
 20
0.0
 30
0.0
  0
VERTEX
  5
57D0F
  8
0
 10
41.485674683156269
 20
52.083021895869273
 30
0.0
  0
VERTEX
  5
57D10
  8
0
 10
41.48710575608402
 20
51.996680938655807
 30
0.0
  0
VERTEX
  5
57D11
  8
0
 10
41.498067773305593
 20
51.821734082159317
 30
0.0
  0
VERTEX
  5
57D12
  8
0
 10
41.518803221879921
 20
51.64437181875531
 30
0.0
  0
VERTEX
  5
57D13
  8
0
 10
41.532505576062128
 20
51.554805692870353
 30
0.0
  0
VERTEX
  5
57D14
  8
0
 10
41.548271325266107
 20
51.464696057911411
 30
0.0
  0
VERTEX
  5
57D15
  8
0
 10
41.585533044367708
 20
51.283086737724503
 30
0.0
  0
VERTEX
  5
57D16
  8
0
 10
41.629701755359399
 20
51.10004539733189
 30
0.0
  0
VERTEX
  5
57D17
  8
0
 10
41.680027100134559
 20
50.915775492339669
 30
0.0
  0
VERTEX
  5
57D18
  8
0
 10
41.735941729264141
 20
50.730130031878971
 30
0.0
  0
VERTEX
  5
57D19
  8
0
 10
41.796859052306438
 20
50.543286326771081
 30
0.0
  0
VERTEX
  5
57D1A
  8
0
 10
41.829020812634781
 20
50.449474688345973
 30
0.0
  0
VERTEX
  5
57D1B
  8
0
 10
41.862229567193822
 20
50.355436564175093
 30
0.0
  0
VERTEX
  5
57D1C
  8
0
 10
41.931531902036681
 20
50.166785763682938
 30
0.0
  0
VERTEX
  5
57D1D
  8
0
 10
42.004265906400292
 20
49.977551134167257
 30
0.0
  0
VERTEX
  5
57D1E
  8
0
 10
42.079959396287677
 20
49.787932243491483
 30
0.0
  0
VERTEX
  5
57D1F
  8
0
 10
42.158269518445543
 20
49.597862979746779
 30
0.0
  0
VERTEX
  5
57D20
  8
0
 10
42.238829022198949
 20
49.407395247300443
 30
0.0
  0
VERTEX
  5
57D21
  8
0
 10
42.279834005781602
 20
49.312046239137899
 30
0.0
  0
VERTEX
  5
57D22
  8
0
 10
42.321260494708888
 20
49.216639219933782
 30
0.0
  0
VERTEX
  5
57D23
  8
0
 10
42.405194545571248
 20
49.025708586733018
 30
0.0
  0
VERTEX
  5
57D24
  8
0
 10
42.490267336266008
 20
48.834719760887552
 30
0.0
  0
VERTEX
  5
57D25
  8
0
 10
42.533119938630762
 20
48.739236260468729
 30
0.0
  0
SEQEND
  5
57D26
  8
0
  0
POLYLINE
  5
56991
  8
0
 66
     1
 10
0.0
 20
0.0
 30
0.0
  0
VERTEX
  5
57D27
  8
0
 10
41.994178577296218
 20
54.737948739884366
 30
0.0
  0
VERTEX
  5
57D28
  8
0
 10
41.977967196666327
 20
54.732741528178408
 30
0.0
  0
VERTEX
  5
57D29
  8
0
 10
41.944794470532649
 20
54.709573540933107
 30
0.0
  0
VERTEX
  5
57D2A
  8
0
 10
41.911066308357249
 20
54.668595343665068
 30
0.0
  0
VERTEX
  5
57D2B
  8
0
 10
41.894158618725207
 20
54.64133383185937
 30
0.0
  0
VERTEX
  5
57D2C
  8
0
 10
41.877307866132007
 20
54.609619583283468
 30
0.0
  0
VERTEX
  5
57D2D
  8
0
 10
41.8440191244133
 20
54.533331918682642
 30
0.0
  0
VERTEX
  5
57D2E
  8
0
 10
41.811687224941458
 20
54.441311299967317
 30
0.0
  0
VERTEX
  5
57D2F
  8
0
 10
41.780778513101367
 20
54.336016174300667
 30
0.0
  0
VERTEX
  5
57D30
  8
0
 10
41.751338235211051
 20
54.219070402965947
 30
0.0
  0
VERTEX
  5
57D31
  8
0
 10
41.721678279697699
 20
54.083722706416452
 30
0.0
  0
VERTEX
  5
57D32
  8
0
 10
41.706814529362987
 20
54.008859178839558
 30
0.0
  0
VERTEX
  5
57D33
  8
0
 10
41.692016128240759
 20
53.929393551968147
 30
0.0
  0
VERTEX
  5
57D34
  8
0
 10
41.66286304754442
 20
53.757530389738591
 30
0.0
  0
VERTEX
  5
57D35
  8
0
 10
41.634679016632951
 20
53.570341204395291
 30
0.0
  0
VERTEX
  5
57D36
  8
0
 10
41.607867785870091
 20
53.370761375678867
 30
0.0
  0
VERTEX
  5
57D37
  8
0
 10
41.582785493772462
 20
53.162513891896211
 30
0.0
  0
VERTEX
  5
57D38
  8
0
 10
41.55970581886492
 20
52.949791296042818
 30
0.0
  0
VERTEX
  5
57D39
  8
0
 10
41.548587252750387
 20
52.839146137820997
 30
0.0
  0
VERTEX
  5
57D3A
  8
0
 10
41.5375536461205
 20
52.723511420957159
 30
0.0
  0
VERTEX
  5
57D3B
  8
0
 10
41.515985143133662
 20
52.478600315921547
 30
0.0
  0
VERTEX
  5
57D3C
  8
0
 10
41.495442704658331
 20
52.21805832015459
 30
0.0
  0
VERTEX
  5
57D3D
  8
0
 10
41.485674683156269
 20
52.083021895869152
 30
0.0
  0
SEQEND
  5
57D3E
  8
0
  0
POLYLINE
  5
56992
  8
0
 66
     1
 10
0.0
 20
0.0
 30
0.0
  0
VERTEX
  5
57D3F
  8
0
 10
50.316547566789382
 20
52.848000792756707
 30
0.0
  0
VERTEX
  5
57D40
  8
0
 10
50.39090707829132
 20
52.84293279083375
 30
0.0
  0
VERTEX
  5
57D41
  8
0
 10
50.534954376200751
 20
52.832916427940418
 30
0.0
  0
VERTEX
  5
57D42
  8
0
 10
50.672362298119992
 20
52.823117478610257
 30
0.0
  0
VERTEX
  5
57D43
  8
0
 10
50.738434640187052
 20
52.818320786999621
 30
0.0
  0
VERTEX
  5
57D44
  8
0
 10
50.802681653097352
 20
52.813603759868677
 30
0.0
  0
VERTEX
  5
57D45
  8
0
 10
50.92550070783409
 20
52.80444137198085
 30
0.0
  0
VERTEX
  5
57D46
  8
0
 10
51.040447649526527
 20
52.79569382314822
 30
0.0
  0
VERTEX
  5
57D47
  8
0
 10
51.147195696495828
 20
52.787420961922308
 30
0.0
  0
VERTEX
  5
57D48
  8
0
 10
51.245468365788383
 20
52.779677903790358
 30
0.0
  0
VERTEX
  5
57D49
  8
0
 10
51.335071055617043
 20
52.772511861446233
 30
0.0
  0
VERTEX
  5
57D4A
  8
0
 10
51.37656310376974
 20
52.769159227268588
 30
0.0
  0
VERTEX
  5
57D4B
  8
0
 10
51.415819825261678
 20
52.765967239662487
 30
0.0
  0
VERTEX
  5
57D4C
  8
0
 10
51.487557112817512
 20
52.760084078965868
 30
0.0
  0
VERTEX
  5
57D4D
  8
0
 10
51.55017321083858
 20
52.75489595954901
 30
0.0
  0
VERTEX
  5
57D4E
  8
0
 10
51.603609295036001
 20
52.750429408907628
 30
0.0
  0
VERTEX
  5
57D4F
  8
0
 10
51.647858778162458
 20
52.746703522079329
 30
0.0
  0
VERTEX
  5
57D50
  8
0
 10
51.682965380579269
 20
52.743729944739819
 30
0.0
  0
VERTEX
  5
57D51
  8
0
 10
51.697117262059237
 20
52.742526873105611
 30
0.0
  0
VERTEX
  5
57D52
  8
0
 10
51.709022556517652
 20
52.741512834507162
 30
0.0
  0
VERTEX
  5
57D53
  8
0
 10
51.726177047087958
 20
52.74004855588511
 30
0.0
  0
VERTEX
  5
57D54
  8
0
 10
51.734631354335193
 20
52.739325547785718
 30
0.0
  0
VERTEX
  5
57D55
  8
0
 10
51.735674683156283
 20
52.739236260468722
 30
0.0
  0
SEQEND
  5
57D56
  8
0
  0
POLYLINE
  5
56993
  8
0
 66
     1
 10
0.0
 20
0.0
 30
0.0
  0
VERTEX
  5
57D57
  8
0
 10
51.735674683156283
 20
52.739236260468722
 30
0.0
  0
VERTEX
  5
57D58
  8
0
 10
51.734631354335193
 20
52.739325547785718
 30
0.0
  0
VERTEX
  5
57D59
  8
0
 10
51.726177047087958
 20
52.74004855588511
 30
0.0
  0
VERTEX
  5
57D5A
  8
0
 10
51.709022556517652
 20
52.741512834507162
 30
0.0
  0
VERTEX
  5
57D5B
  8
0
 10
51.697117262059237
 20
52.742526873105611
 30
0.0
  0
VERTEX
  5
57D5C
  8
0
 10
51.682965380579269
 20
52.743729944739819
 30
0.0
  0
VERTEX
  5
57D5D
  8
0
 10
51.647858778162458
 20
52.746703522079329
 30
0.0
  0
VERTEX
  5
57D5E
  8
0
 10
51.603609295036001
 20
52.750429408907628
 30
0.0
  0
VERTEX
  5
57D5F
  8
0
 10
51.55017321083858
 20
52.75489595954901
 30
0.0
  0
VERTEX
  5
57D60
  8
0
 10
51.487557112817512
 20
52.760084078965868
 30
0.0
  0
VERTEX
  5
57D61
  8
0
 10
51.415819825261678
 20
52.765967239662487
 30
0.0
  0
VERTEX
  5
57D62
  8
0
 10
51.37656310376974
 20
52.769159227268588
 30
0.0
  0
VERTEX
  5
57D63
  8
0
 10
51.335071055617043
 20
52.772511861446233
 30
0.0
  0
VERTEX
  5
57D64
  8
0
 10
51.245468365788383
 20
52.779677903790358
 30
0.0
  0
VERTEX
  5
57D65
  8
0
 10
51.147195696495828
 20
52.787420961922308
 30
0.0
  0
VERTEX
  5
57D66
  8
0
 10
51.040447649526527
 20
52.795693823148341
 30
0.0
  0
VERTEX
  5
57D67
  8
0
 10
50.92550070783409
 20
52.80444137198095
 30
0.0
  0
VERTEX
  5
57D68
  8
0
 10
50.802681653097352
 20
52.813603759868677
 30
0.0
  0
VERTEX
  5
57D69
  8
0
 10
50.738434640187052
 20
52.818320786999621
 30
0.0
  0
VERTEX
  5
57D6A
  8
0
 10
50.672362298119992
 20
52.823117478610257
 30
0.0
  0
VERTEX
  5
57D6B
  8
0
 10
50.534954376200751
 20
52.832916427940418
 30
0.0
  0
VERTEX
  5
57D6C
  8
0
 10
50.39090707829132
 20
52.842932790833871
 30
0.0
  0
VERTEX
  5
57D6D
  8
0
 10
50.316547566789382
 20
52.848000792756821
 30
0.0
  0
SEQEND
  5
57D6E
  8
0
  0
POLYLINE
  5
56994
  8
0
 66
     1
 10
0.0
 20
0.0
 30
0.0
  0
VERTEX
  5
57D6F
  8
0
 10
50.316547566789382
 20
52.848000792756821
 30
0.0
  0
VERTEX
  5
57D70
  8
0
 10
50.249389786494021
 20
52.852633255638032
 30
0.0
  0
VERTEX
  5
57D71
  8
0
 10
50.117407318929388
 20
52.862265335154142
 30
0.0
  0
VERTEX
  5
57D72
  8
0
 10
49.98856263931566
 20
52.87239349606967
 30
0.0
  0
VERTEX
  5
57D73
  8
0
 10
49.925326669247397
 20
52.877645900925941
 30
0.0
  0
VERTEX
  5
57D74
  8
0
 10
49.86288654373481
 20
52.883024991032137
 30
0.0
  0
VERTEX
  5
57D75
  8
0
 10
49.740407847187377
 20
52.89416636265436
 30
0.0
  0
VERTEX
  5
57D76
  8
0
 10
49.621153226247998
 20
52.90582341797883
 30
0.0
  0
VERTEX
  5
57D77
  8
0
 10
49.505147074252363
 20
52.918001206189167
 30
0.0
  0
VERTEX
  5
57D78
  8
0
 10
49.392408047208853
 20
52.93070438759208
 30
0.0
  0
VERTEX
  5
57D79
  8
0
 10
49.282623749298637
 20
52.94397808053192
 30
0.0
  0
VERTEX
  5
57D7A
  8
0
 10
49.228771541708738
 20
52.950842075495771
 30
0.0
  0
VERTEX
  5
57D7B
  8
0
 10
49.175622817768271
 20
52.95785940073587
 30
0.0
  0
VERTEX
  5
57D7C
  8
0
 10
49.071465619460923
 20
52.97235954580561
 30
0.0
  0
VERTEX
  5
57D7D
  8
0
 10
48.970210419712657
 20
52.987489196408333
 30
0.0
  0
VERTEX
  5
57D7E
  8
0
 10
48.871913292338043
 20
53.003258498002552
 30
0.0
  0
VERTEX
  5
57D7F
  8
0
 10
48.776628044235501
 20
53.019677045861741
 30
0.0
  0
VERTEX
  5
57D80
  8
0
 10
48.684406154725252
 20
53.036753873624789
 30
0.0
  0
VERTEX
  5
57D81
  8
0
 10
48.639459408711438
 20
53.045541809935592
 30
0.0
  0
VERTEX
  5
57D82
  8
0
 10
48.595296729831261
 20
53.054497445587351
 30
0.0
  0
VERTEX
  5
57D83
  8
0
 10
48.509346517080978
 20
53.072915642847882
 30
0.0
  0
VERTEX
  5
57D84
  8
0
 10
48.426600144807132
 20
53.092015698767689
 30
0.0
  0
VERTEX
  5
57D85
  8
0
 10
48.38644179367077
 20
53.101823494085927
 30
0.0
  0
SEQEND
  5
57D86
  8
0
  0
POLYLINE
  5
56995
  8
0
 66
     1
 10
0.0
 20
0.0
 30
0.0
  0
VERTEX
  5
57D87
  8
0
 10
41.584907572850959
 20
53.101823494138003
 30
0.0
  0
VERTEX
  5
57D88
  8
0
 10
41.544749218314223
 20
53.092015698002932
 30
0.0
  0
VERTEX
  5
57D89
  8
0
 10
41.462002838837968
 20
53.072915640536628
 30
0.0
  0
VERTEX
  5
57D8A
  8
0
 10
41.37605261838155
 20
53.054497441849108
 30
0.0
  0
VERTEX
  5
57D8B
  8
0
 10
41.331889935473207
 20
53.045541805529652
 30
0.0
  0
VERTEX
  5
57D8C
  8
0
 10
41.286943185321199
 20
53.036753868581869
 30
0.0
  0
VERTEX
  5
57D8D
  8
0
 10
41.194721287218613
 20
53.019677039635901
 30
0.0
  0
VERTEX
  5
57D8E
  8
0
 10
41.099436030130498
 20
53.003258490713741
 30
0.0
  0
VERTEX
  5
57D8F
  8
0
 10
41.001138893415941
 20
52.987489188174912
 30
0.0
  0
VERTEX
  5
57D90
  8
0
 10
40.899883684018839
 20
52.9723595367442
 30
0.0
  0
VERTEX
  5
57D91
  8
0
 10
40.795726475806418
 20
52.95785939096141
 30
0.0
  0
VERTEX
  5
57D92
  8
0
 10
40.74257774683587
 20
52.950842065407421
 30
0.0
  0
VERTEX
  5
57D93
  8
0
 10
40.688725534174978
 20
52.943978070157762
 30
0.0
  0
VERTEX
  5
57D94
  8
0
 10
40.578941226035788
 20
52.930704376729423
 30
0.0
  0
VERTEX
  5
57D95
  8
0
 10
40.466202211264203
 20
52.91800119740163
 30
0.0
  0
VERTEX
  5
57D96
  8
0
 10
40.350196073700431
 20
52.905823411255952
 30
0.0
  0
VERTEX
  5
57D97
  8
0
 10
40.230941466537963
 20
52.894166357695227
 30
0.0
  0
VERTEX
  5
57D98
  8
0
 10
40.108462783057462
 20
52.88302498756515
 30
0.0
  0
VERTEX
  5
57D99
  8
0
 10
40.046022663796982
 20
52.877645898111737
 30
0.0
  0
VERTEX
  5
57D9A
  8
0
 10
39.982786699785947
 20
52.87239349385051
 30
0.0
  0
VERTEX
  5
57D9B
  8
0
 10
39.85394203168358
 20
52.86226533396497
 30
0.0
  0
VERTEX
  5
57D9C
  8
0
 10
39.721959574798923
 20
52.852633255285248
 30
0.0
  0
VERTEX
  5
57D9D
  8
0
 10
39.65480179952317
 20
52.848000792756821
 30
0.0
  0
SEQEND
  5
57D9E
  8
0
  0
POLYLINE
  5
56996
  8
0
 66
     1
 10
0.0
 20
0.0
 30
0.0
  0
VERTEX
  5
57D9F
  8
0
 10
39.65480179952317
 20
52.848000792756821
 30
0.0
  0
VERTEX
  5
57DA0
  8
0
 10
39.580442288021352
 20
52.842932790833871
 30
0.0
  0
VERTEX
  5
57DA1
  8
0
 10
39.436394990111921
 20
52.832916427940418
 30
0.0
  0
VERTEX
  5
57DA2
  8
0
 10
39.29898706819268
 20
52.823117478610257
 30
0.0
  0
VERTEX
  5
57DA3
  8
0
 10
39.232914726125607
 20
52.818320786999621
 30
0.0
  0
VERTEX
  5
57DA4
  8
0
 10
39.168667713215321
 20
52.813603759868677
 30
0.0
  0
VERTEX
  5
57DA5
  8
0
 10
39.045848658478462
 20
52.80444137198095
 30
0.0
  0
VERTEX
  5
57DA6
  8
0
 10
38.930901716786032
 20
52.795693823148341
 30
0.0
  0
VERTEX
  5
57DA7
  8
0
 10
38.824153669816837
 20
52.787420961922308
 30
0.0
  0
VERTEX
  5
57DA8
  8
0
 10
38.725881000524168
 20
52.779677903790358
 30
0.0
  0
VERTEX
  5
57DA9
  8
0
 10
38.636278310695623
 20
52.772511861446233
 30
0.0
  0
VERTEX
  5
57DAA
  8
0
 10
38.594786262542812
 20
52.769159227268588
 30
0.0
  0
VERTEX
  5
57DAB
  8
0
 10
38.55552954105088
 20
52.765967239662487
 30
0.0
  0
VERTEX
  5
57DAC
  8
0
 10
38.483792253495039
 20
52.760084078965868
 30
0.0
  0
VERTEX
  5
57DAD
  8
0
 10
38.421176155474079
 20
52.75489595954901
 30
0.0
  0
VERTEX
  5
57DAE
  8
0
 10
38.367740071276671
 20
52.750429408907628
 30
0.0
  0
VERTEX
  5
57DAF
  8
0
 10
38.323490588150207
 20
52.746703522079329
 30
0.0
  0
VERTEX
  5
57DB0
  8
0
 10
38.288383985733283
 20
52.743729944739819
 30
0.0
  0
VERTEX
  5
57DB1
  8
0
 10
38.274232104253429
 20
52.742526873105611
 30
0.0
  0
VERTEX
  5
57DB2
  8
0
 10
38.262326809794899
 20
52.741512834507162
 30
0.0
  0
VERTEX
  5
57DB3
  8
0
 10
38.245172319224707
 20
52.74004855588511
 30
0.0
  0
VERTEX
  5
57DB4
  8
0
 10
38.236718011977473
 20
52.739325547785718
 30
0.0
  0
VERTEX
  5
57DB5
  8
0
 10
38.235674683156283
 20
52.739236260468722
 30
0.0
  0
SEQEND
  5
57DB6
  8
0
  0
POLYLINE
  5
56997
  8
0
 66
     1
 10
0.0
 20
0.0
 30
0.0
  0
VERTEX
  5
57DB7
  8
0
 10
38.235674683156283
 20
52.739236260468722
 30
0.0
  0
VERTEX
  5
57DB8
  8
0
 10
38.236718011977473
 20
52.739325547785718
 30
0.0
  0
VERTEX
  5
57DB9
  8
0
 10
38.245172319224707
 20
52.74004855588511
 30
0.0
  0
VERTEX
  5
57DBA
  8
0
 10
38.262326809794899
 20
52.741512834507162
 30
0.0
  0
VERTEX
  5
57DBB
  8
0
 10
38.274232104253429
 20
52.742526873105611
 30
0.0
  0
VERTEX
  5
57DBC
  8
0
 10
38.288383985733283
 20
52.743729944739819
 30
0.0
  0
VERTEX
  5
57DBD
  8
0
 10
38.323490588150207
 20
52.746703522079329
 30
0.0
  0
VERTEX
  5
57DBE
  8
0
 10
38.367740071276671
 20
52.750429408907628
 30
0.0
  0
VERTEX
  5
57DBF
  8
0
 10
38.421176155474079
 20
52.75489595954901
 30
0.0
  0
VERTEX
  5
57DC0
  8
0
 10
38.483792253495039
 20
52.760084078965868
 30
0.0
  0
VERTEX
  5
57DC1
  8
0
 10
38.55552954105088
 20
52.765967239662487
 30
0.0
  0
VERTEX
  5
57DC2
  8
0
 10
38.594786262542812
 20
52.769159227268588
 30
0.0
  0
VERTEX
  5
57DC3
  8
0
 10
38.636278310695623
 20
52.772511861446233
 30
0.0
  0
VERTEX
  5
57DC4
  8
0
 10
38.725881000524168
 20
52.779677903790358
 30
0.0
  0
VERTEX
  5
57DC5
  8
0
 10
38.824153669816837
 20
52.787420961922308
 30
0.0
  0
VERTEX
  5
57DC6
  8
0
 10
38.930901716786032
 20
52.79569382314822
 30
0.0
  0
VERTEX
  5
57DC7
  8
0
 10
39.045848658478462
 20
52.80444137198085
 30
0.0
  0
VERTEX
  5
57DC8
  8
0
 10
39.168667713215321
 20
52.813603759868677
 30
0.0
  0
VERTEX
  5
57DC9
  8
0
 10
39.232914726125607
 20
52.818320786999621
 30
0.0
  0
VERTEX
  5
57DCA
  8
0
 10
39.29898706819268
 20
52.823117478610257
 30
0.0
  0
VERTEX
  5
57DCB
  8
0
 10
39.436394990111921
 20
52.832916427940418
 30
0.0
  0
VERTEX
  5
57DCC
  8
0
 10
39.580442288021352
 20
52.84293279083375
 30
0.0
  0
VERTEX
  5
57DCD
  8
0
 10
39.65480179952317
 20
52.848000792756707
 30
0.0
  0
SEQEND
  5
57DCE
  8
0
  0
LINE
  5
56998
  8
1
 10
44.985674683156269
 20
28.55545499212521
 30
0.0
 11
44.985674683156269
 21
58.15449854958861
 31
0.0
  0
LINE
  5
56999
  8
0
 10
107.38065319645651
 20
36.614236260468729
 30
0.0
 11
107.38065319645651
 21
30.739236260468729
 31
0.0
  0
LINE
  5
5699A
  8
0
 10
120.88065319645651
 20
30.739236260468729
 30
0.0
 11
120.88065319645651
 21
36.614236260468729
 31
0.0
  0
ARC
  5
5699B
  8
0
 10
122.00565319645651
 20
36.614236260468687
 30
0.0
 40
1.1249999999999989
 50
90.0
 51
180.0
  0
ARC
  5
5699C
  8
0
 10
106.25565319645651
 20
36.614236260468687
 30
0.0
 40
1.1249999999999989
 50
0.0
 51
90.0
  0
ARC
  5
5699D
  8
0
 10
109.0421638345781
 20
83.95555311463292
 30
0.0
 40
48.000000000000327
 50
285.66859267406318
 51
304.7082949490466
  0
ARC
  5
5699E
  8
0
 10
119.2191425583346
 20
83.955553114632465
 30
0.0
 40
47.999999999999858
 50
235.2917050509534
 51
254.33140732593679
  0
ARC
  5
5699F
  8
0
 10
96.130653196456493
 20
48.7392362604688
 30
0.0
 40
5.999999999999992
 50
90.000000853773628
 51
225.0000000000006
  0
ARC
  5
569A0
  8
0
 10
132.13065319645639
 20
48.7392362604688
 30
0.0
 40
5.999999999999992
 50
314.99999999999949
 51
90.000000853773628
  0
LINE
  5
569A1
  8
0
 10
120.88065319645651
 20
30.739236260468729
 30
0.0
 11
107.38065319645651
 21
30.739236260468729
 31
0.0
  0
POLYLINE
  5
569A2
  8
0
 10
96.483098139850654
 20
45.155860849358902
 30
0.0
 66
     1
 70
     8
  0
VERTEX
  8
0
  5
5811E
 10
96.4831
 20
45.1559
 30
0.000000
  70
    32
  0
VERTEX
  8
0
  5
5811F
 10
96.6702
 20
45.1605
 30
0.000000
  70
    32
  0
VERTEX
  8
0
  5
58120
 10
96.8568
 20
45.1743
 30
0.000000
  70
    32
  0
VERTEX
  8
0
  5
58121
 10
97.0425
 20
45.1974
 30
0.000000
  70
    32
  0
VERTEX
  8
0
  5
58122
 10
97.2269
 20
45.2295
 30
0.000000
  70
    32
  0
VERTEX
  8
0
  5
58123
 10
97.4094
 20
45.2707
 30
0.000000
  70
    32
  0
VERTEX
  8
0
  5
58124
 10
97.5898
 20
45.3209
 30
0.000000
  70
    32
  0
VERTEX
  8
0
  5
58125
 10
97.7674
 20
45.3799
 30
0.000000
  70
    32
  0
VERTEX
  8
0
  5
58126
 10
97.9420
 20
45.4477
 30
0.000000
  70
    32
  0
VERTEX
  8
0
  5
58127
 10
98.1131
 20
45.5239
 30
0.000000
  70
    32
  0
VERTEX
  8
0
  5
58128
 10
98.2802
 20
45.6085
 30
0.000000
  70
    32
  0
VERTEX
  8
0
  5
58129
 10
98.4431
 20
45.7012
 30
0.000000
  70
    32
  0
VERTEX
  8
0
  5
5812A
 10
98.6011
 20
45.8019
 30
0.000000
  70
    32
  0
VERTEX
  8
0
  5
5812B
 10
98.7541
 20
45.9102
 30
0.000000
  70
    32
  0
VERTEX
  8
0
  5
5812C
 10
98.9016
 20
46.0260
 30
0.000000
  70
    32
  0
VERTEX
  8
0
  5
5812D
 10
99.0433
 20
46.1489
 30
0.000000
  70
    32
  0
VERTEX
  8
0
  5
5812E
 10
99.1789
 20
46.2786
 30
0.000000
  70
    32
  0
VERTEX
  8
0
  5
5812F
 10
99.3079
 20
46.4149
 30
0.000000
  70
    32
  0
VERTEX
  8
0
  5
58130
 10
99.4301
 20
46.5574
 30
0.000000
  70
    32
  0
VERTEX
  8
0
  5
58131
 10
99.5452
 20
46.7057
 30
0.000000
  70
    32
  0
VERTEX
  8
0
  5
58132
 10
99.6530
 20
46.8595
 30
0.000000
  70
    32
  0
VERTEX
  8
0
  5
58133
 10
99.7531
 20
47.0185
 30
0.000000
  70
    32
  0
VERTEX
  8
0
  5
58134
 10
99.8453
 20
47.1822
 30
0.000000
  70
    32
  0
VERTEX
  8
0
  5
58135
 10
99.9294
 20
47.3503
 30
0.000000
  70
    32
  0
VERTEX
  8
0
  5
58136
 10
100.005
 20
47.5223
 30
0.000000
  70
    32
  0
VERTEX
  8
0
  5
58137
 10
100.073
 20
47.6978
 30
0.000000
  70
    32
  0
VERTEX
  8
0
  5
58138
 10
100.131
 20
47.8765
 30
0.000000
  70
    32
  0
VERTEX
  8
0
  5
58139
 10
100.181
 20
48.0578
 30
0.000000
  70
    32
  0
VERTEX
  8
0
  5
5813A
 10
100.222
 20
48.2414
 30
0.000000
  70
    32
  0
VERTEX
  8
0
  5
5813B
 10
100.254
 20
48.4268
 30
0.000000
  70
    32
  0
VERTEX
  8
0
  5
5813C
 10
100.277
 20
48.6135
 30
0.000000
  70
    32
  0
VERTEX
  8
0
  5
5813D
 10
100.291
 20
48.8011
 30
0.000000
  70
    32
  0
VERTEX
  8
0
  5
5813E
 10
100.295
 20
48.9892
 30
0.000000
  70
    32
  0
VERTEX
  8
0
  5
5813F
 10
100.291
 20
49.1773
 30
0.000000
  70
    32
  0
VERTEX
  8
0
  5
58140
 10
100.277
 20
49.3650
 30
0.000000
  70
    32
  0
VERTEX
  8
0
  5
58141
 10
100.254
 20
49.5517
 30
0.000000
  70
    32
  0
VERTEX
  8
0
  5
58142
 10
100.222
 20
49.7371
 30
0.000000
  70
    32
  0
VERTEX
  8
0
  5
58143
 10
100.181
 20
49.9207
 30
0.000000
  70
    32
  0
VERTEX
  8
0
  5
58144
 10
100.131
 20
50.1020
 30
0.000000
  70
    32
  0
VERTEX
  8
0
  5
58145
 10
100.073
 20
50.2807
 30
0.000000
  70
    32
  0
VERTEX
  8
0
  5
58146
 10
100.005
 20
50.4562
 30
0.000000
  70
    32
  0
VERTEX
  8
0
  5
58147
 10
99.9294
 20
50.6282
 30
0.000000
  70
    32
  0
VERTEX
  8
0
  5
58148
 10
99.8453
 20
50.7963
 30
0.000000
  70
    32
  0
VERTEX
  8
0
  5
58149
 10
99.7531
 20
50.9600
 30
0.000000
  70
    32
  0
VERTEX
  8
0
  5
5814A
 10
99.6530
 20
51.1189
 30
0.000000
  70
    32
  0
VERTEX
  8
0
  5
5814B
 10
99.5452
 20
51.2728
 30
0.000000
  70
    32
  0
VERTEX
  8
0
  5
5814C
 10
99.4301
 20
51.4211
 30
0.000000
  70
    32
  0
VERTEX
  8
0
  5
5814D
 10
99.3079
 20
51.5636
 30
0.000000
  70
    32
  0
VERTEX
  8
0
  5
5814E
 10
99.1789
 20
51.6998
 30
0.000000
  70
    32
  0
VERTEX
  8
0
  5
5814F
 10
99.0433
 20
51.8296
 30
0.000000
  70
    32
  0
VERTEX
  8
0
  5
58150
 10
98.9016
 20
51.9525
 30
0.000000
  70
    32
  0
VERTEX
  8
0
  5
58151
 10
98.7541
 20
52.0682
 30
0.000000
  70
    32
  0
VERTEX
  8
0
  5
58152
 10
98.6011
 20
52.1766
 30
0.000000
  70
    32
  0
VERTEX
  8
0
  5
58153
 10
98.4431
 20
52.2772
 30
0.000000
  70
    32
  0
VERTEX
  8
0
  5
58154
 10
98.2802
 20
52.3700
 30
0.000000
  70
    32
  0
VERTEX
  8
0
  5
58155
 10
98.1131
 20
52.4546
 30
0.000000
  70
    32
  0
VERTEX
  8
0
  5
58156
 10
97.9420
 20
52.5308
 30
0.000000
  70
    32
  0
VERTEX
  8
0
  5
58157
 10
97.7674
 20
52.5985
 30
0.000000
  70
    32
  0
VERTEX
  8
0
  5
58158
 10
97.5898
 20
52.6575
 30
0.000000
  70
    32
  0
VERTEX
  8
0
  5
58159
 10
97.4094
 20
52.7077
 30
0.000000
  70
    32
  0
VERTEX
  8
0
  5
5815A
 10
97.2269
 20
52.7490
 30
0.000000
  70
    32
  0
VERTEX
  8
0
  5
5815B
 10
97.0425
 20
52.7811
 30
0.000000
  70
    32
  0
VERTEX
  8
0
  5
5815C
 10
96.8568
 20
52.8042
 30
0.000000
  70
    32
  0
VERTEX
  8
0
  5
5815D
 10
96.6702
 20
52.8180
 30
0.000000
  70
    32
  0
VERTEX
  8
0
  5
5815E
 10
96.4831
 20
52.8226
 30
0.000000
  70
    32
  0
VERTEX
  8
0
  5
5815F
 10
96.2960
 20
52.8180
 30
0.000000
  70
    32
  0
VERTEX
  8
0
  5
58160
 10
96.1094
 20
52.8042
 30
0.000000
  70
    32
  0
VERTEX
  8
0
  5
58161
 10
95.9237
 20
52.7811
 30
0.000000
  70
    32
  0
VERTEX
  8
0
  5
58162
 10
95.7393
 20
52.7490
 30
0.000000
  70
    32
  0
VERTEX
  8
0
  5
58163
 10
95.5568
 20
52.7077
 30
0.000000
  70
    32
  0
VERTEX
  8
0
  5
58164
 10
95.3764
 20
52.6575
 30
0.000000
  70
    32
  0
VERTEX
  8
0
  5
58165
 10
95.1987
 20
52.5985
 30
0.000000
  70
    32
  0
VERTEX
  8
0
  5
58166
 10
95.0242
 20
52.5308
 30
0.000000
  70
    32
  0
VERTEX
  8
0
  5
58167
 10
94.8531
 20
52.4546
 30
0.000000
  70
    32
  0
VERTEX
  8
0
  5
58168
 10
94.6860
 20
52.3700
 30
0.000000
  70
    32
  0
VERTEX
  8
0
  5
58169
 10
94.5231
 20
52.2772
 30
0.000000
  70
    32
  0
VERTEX
  8
0
  5
5816A
 10
94.3651
 20
52.1766
 30
0.000000
  70
    32
  0
VERTEX
  8
0
  5
5816B
 10
94.2121
 20
52.0682
 30
0.000000
  70
    32
  0
VERTEX
  8
0
  5
5816C
 10
94.0646
 20
51.9525
 30
0.000000
  70
    32
  0
VERTEX
  8
0
  5
5816D
 10
93.9229
 20
51.8296
 30
0.000000
  70
    32
  0
VERTEX
  8
0
  5
5816E
 10
93.7873
 20
51.6998
 30
0.000000
  70
    32
  0
VERTEX
  8
0
  5
5816F
 10
93.6583
 20
51.5636
 30
0.000000
  70
    32
  0
VERTEX
  8
0
  5
58170
 10
93.5361
 20
51.4211
 30
0.000000
  70
    32
  0
VERTEX
  8
0
  5
58171
 10
93.4210
 20
51.2728
 30
0.000000
  70
    32
  0
VERTEX
  8
0
  5
58172
 10
93.3132
 20
51.1189
 30
0.000000
  70
    32
  0
VERTEX
  8
0
  5
58173
 10
93.2131
 20
50.9600
 30
0.000000
  70
    32
  0
VERTEX
  8
0
  5
58174
 10
93.1209
 20
50.7963
 30
0.000000
  70
    32
  0
VERTEX
  8
0
  5
58175
 10
93.0368
 20
50.6282
 30
0.000000
  70
    32
  0
VERTEX
  8
0
  5
58176
 10
92.9609
 20
50.4562
 30
0.000000
  70
    32
  0
VERTEX
  8
0
  5
58177
 10
92.8936
 20
50.2807
 30
0.000000
  70
    32
  0
VERTEX
  8
0
  5
58178
 10
92.8349
 20
50.1020
 30
0.000000
  70
    32
  0
VERTEX
  8
0
  5
58179
 10
92.7850
 20
49.9207
 30
0.000000
  70
    32
  0
VERTEX
  8
0
  5
5817A
 10
92.7440
 20
49.7371
 30
0.000000
  70
    32
  0
VERTEX
  8
0
  5
5817B
 10
92.7120
 20
49.5517
 30
0.000000
  70
    32
  0
VERTEX
  8
0
  5
5817C
 10
92.6891
 20
49.3650
 30
0.000000
  70
    32
  0
VERTEX
  8
0
  5
5817D
 10
92.6753
 20
49.1773
 30
0.000000
  70
    32
  0
VERTEX
  8
0
  5
5817E
 10
92.6707
 20
48.9892
 30
0.000000
  70
    32
  0
VERTEX
  8
0
  5
5817F
 10
92.6753
 20
48.8011
 30
0.000000
  70
    32
  0
VERTEX
  8
0
  5
58180
 10
92.6891
 20
48.6135
 30
0.000000
  70
    32
  0
VERTEX
  8
0
  5
58181
 10
92.7120
 20
48.4268
 30
0.000000
  70
    32
  0
VERTEX
  8
0
  5
58182
 10
92.7440
 20
48.2414
 30
0.000000
  70
    32
  0
VERTEX
  8
0
  5
58183
 10
92.7850
 20
48.0578
 30
0.000000
  70
    32
  0
VERTEX
  8
0
  5
58184
 10
92.8349
 20
47.8765
 30
0.000000
  70
    32
  0
VERTEX
  8
0
  5
58185
 10
92.8936
 20
47.6978
 30
0.000000
  70
    32
  0
VERTEX
  8
0
  5
58186
 10
92.9609
 20
47.5223
 30
0.000000
  70
    32
  0
VERTEX
  8
0
  5
58187
 10
93.0368
 20
47.3503
 30
0.000000
  70
    32
  0
VERTEX
  8
0
  5
58188
 10
93.1209
 20
47.1822
 30
0.000000
  70
    32
  0
VERTEX
  8
0
  5
58189
 10
93.2131
 20
47.0185
 30
0.000000
  70
    32
  0
VERTEX
  8
0
  5
5818A
 10
93.3132
 20
46.8595
 30
0.000000
  70
    32
  0
VERTEX
  8
0
  5
5818B
 10
93.4210
 20
46.7057
 30
0.000000
  70
    32
  0
VERTEX
  8
0
  5
5818C
 10
93.5361
 20
46.5574
 30
0.000000
  70
    32
  0
VERTEX
  8
0
  5
5818D
 10
93.6583
 20
46.4149
 30
0.000000
  70
    32
  0
VERTEX
  8
0
  5
5818E
 10
93.7873
 20
46.2786
 30
0.000000
  70
    32
  0
VERTEX
  8
0
  5
5818F
 10
93.9229
 20
46.1489
 30
0.000000
  70
    32
  0
VERTEX
  8
0
  5
58190
 10
94.0646
 20
46.0260
 30
0.000000
  70
    32
  0
VERTEX
  8
0
  5
58191
 10
94.2121
 20
45.9102
 30
0.000000
  70
    32
  0
VERTEX
  8
0
  5
58192
 10
94.3651
 20
45.8019
 30
0.000000
  70
    32
  0
VERTEX
  8
0
  5
58193
 10
94.5231
 20
45.7012
 30
0.000000
  70
    32
  0
VERTEX
  8
0
  5
58194
 10
94.6860
 20
45.6085
 30
0.000000
  70
    32
  0
VERTEX
  8
0
  5
58195
 10
94.8531
 20
45.5239
 30
0.000000
  70
    32
  0
VERTEX
  8
0
  5
58196
 10
95.0242
 20
45.4477
 30
0.000000
  70
    32
  0
VERTEX
  8
0
  5
58197
 10
95.1987
 20
45.3799
 30
0.000000
  70
    32
  0
VERTEX
  8
0
  5
58198
 10
95.3764
 20
45.3209
 30
0.000000
  70
    32
  0
VERTEX
  8
0
  5
58199
 10
95.5568
 20
45.2707
 30
0.000000
  70
    32
  0
VERTEX
  8
0
  5
5819A
 10
95.7393
 20
45.2295
 30
0.000000
  70
    32
  0
VERTEX
  8
0
  5
5819B
 10
95.9237
 20
45.1974
 30
0.000000
  70
    32
  0
VERTEX
  8
0
  5
5819C
 10
96.1094
 20
45.1743
 30
0.000000
  70
    32
  0
VERTEX
  8
0
  5
5819D
 10
96.2960
 20
45.1605
 30
0.000000
  70
    32
  0
VERTEX
  8
0
  5
5819E
 10
96.4831
 20
45.1559
 30
0.000000
  70
    32
  0
SEQEND
  8
0
  5
5819F
  0
POLYLINE
  5
569A3
  8
0
 10
131.7782082530623
 20
52.822611671578542
 30
0.0
 66
     1
 70
     8
  0
VERTEX
  8
0
  5
581A0
 10
131.778
 20
52.8226
 30
0.000000
  70
    32
  0
VERTEX
  8
0
  5
581A1
 10
131.591
 20
52.8180
 30
0.000000
  70
    32
  0
VERTEX
  8
0
  5
581A2
 10
131.405
 20
52.8042
 30
0.000000
  70
    32
  0
VERTEX
  8
0
  5
581A3
 10
131.219
 20
52.7811
 30
0.000000
  70
    32
  0
VERTEX
  8
0
  5
581A4
 10
131.034
 20
52.7490
 30
0.000000
  70
    32
  0
VERTEX
  8
0
  5
581A5
 10
130.852
 20
52.7077
 30
0.000000
  70
    32
  0
VERTEX
  8
0
  5
581A6
 10
130.672
 20
52.6575
 30
0.000000
  70
    32
  0
VERTEX
  8
0
  5
581A7
 10
130.494
 20
52.5985
 30
0.000000
  70
    32
  0
VERTEX
  8
0
  5
581A8
 10
130.319
 20
52.5308
 30
0.000000
  70
    32
  0
VERTEX
  8
0
  5
581A9
 10
130.148
 20
52.4546
 30
0.000000
  70
    32
  0
VERTEX
  8
0
  5
581AA
 10
129.981
 20
52.3700
 30
0.000000
  70
    32
  0
VERTEX
  8
0
  5
581AB
 10
129.818
 20
52.2772
 30
0.000000
  70
    32
  0
VERTEX
  8
0
  5
581AC
 10
129.660
 20
52.1766
 30
0.000000
  70
    32
  0
VERTEX
  8
0
  5
581AD
 10
129.507
 20
52.0682
 30
0.000000
  70
    32
  0
VERTEX
  8
0
  5
581AE
 10
129.360
 20
51.9525
 30
0.000000
  70
    32
  0
VERTEX
  8
0
  5
581AF
 10
129.218
 20
51.8296
 30
0.000000
  70
    32
  0
VERTEX
  8
0
  5
581B0
 10
129.082
 20
51.6998
 30
0.000000
  70
    32
  0
VERTEX
  8
0
  5
581B1
 10
128.953
 20
51.5636
 30
0.000000
  70
    32
  0
VERTEX
  8
0
  5
581B2
 10
128.831
 20
51.4211
 30
0.000000
  70
    32
  0
VERTEX
  8
0
  5
581B3
 10
128.716
 20
51.2728
 30
0.000000
  70
    32
  0
VERTEX
  8
0
  5
581B4
 10
128.608
 20
51.1189
 30
0.000000
  70
    32
  0
VERTEX
  8
0
  5
581B5
 10
128.508
 20
50.9600
 30
0.000000
  70
    32
  0
VERTEX
  8
0
  5
581B6
 10
128.416
 20
50.7963
 30
0.000000
  70
    32
  0
VERTEX
  8
0
  5
581B7
 10
128.332
 20
50.6282
 30
0.000000
  70
    32
  0
VERTEX
  8
0
  5
581B8
 10
128.256
 20
50.4562
 30
0.000000
  70
    32
  0
VERTEX
  8
0
  5
581B9
 10
128.189
 20
50.2807
 30
0.000000
  70
    32
  0
VERTEX
  8
0
  5
581BA
 10
128.130
 20
50.1020
 30
0.000000
  70
    32
  0
VERTEX
  8
0
  5
581BB
 10
128.080
 20
49.9207
 30
0.000000
  70
    32
  0
VERTEX
  8
0
  5
581BC
 10
128.039
 20
49.7371
 30
0.000000
  70
    32
  0
VERTEX
  8
0
  5
581BD
 10
128.007
 20
49.5517
 30
0.000000
  70
    32
  0
VERTEX
  8
0
  5
581BE
 10
127.984
 20
49.3650
 30
0.000000
  70
    32
  0
VERTEX
  8
0
  5
581BF
 10
127.970
 20
49.1773
 30
0.000000
  70
    32
  0
VERTEX
  8
0
  5
581C0
 10
127.966
 20
48.9892
 30
0.000000
  70
    32
  0
VERTEX
  8
0
  5
581C1
 10
127.970
 20
48.8011
 30
0.000000
  70
    32
  0
VERTEX
  8
0
  5
581C2
 10
127.984
 20
48.6135
 30
0.000000
  70
    32
  0
VERTEX
  8
0
  5
581C3
 10
128.007
 20
48.4268
 30
0.000000
  70
    32
  0
VERTEX
  8
0
  5
581C4
 10
128.039
 20
48.2414
 30
0.000000
  70
    32
  0
VERTEX
  8
0
  5
581C5
 10
128.080
 20
48.0578
 30
0.000000
  70
    32
  0
VERTEX
  8
0
  5
581C6
 10
128.130
 20
47.8765
 30
0.000000
  70
    32
  0
VERTEX
  8
0
  5
581C7
 10
128.189
 20
47.6978
 30
0.000000
  70
    32
  0
VERTEX
  8
0
  5
581C8
 10
128.256
 20
47.5223
 30
0.000000
  70
    32
  0
VERTEX
  8
0
  5
581C9
 10
128.332
 20
47.3503
 30
0.000000
  70
    32
  0
VERTEX
  8
0
  5
581CA
 10
128.416
 20
47.1822
 30
0.000000
  70
    32
  0
VERTEX
  8
0
  5
581CB
 10
128.508
 20
47.0185
 30
0.000000
  70
    32
  0
VERTEX
  8
0
  5
581CC
 10
128.608
 20
46.8595
 30
0.000000
  70
    32
  0
VERTEX
  8
0
  5
581CD
 10
128.716
 20
46.7057
 30
0.000000
  70
    32
  0
VERTEX
  8
0
  5
581CE
 10
128.831
 20
46.5574
 30
0.000000
  70
    32
  0
VERTEX
  8
0
  5
581CF
 10
128.953
 20
46.4149
 30
0.000000
  70
    32
  0
VERTEX
  8
0
  5
581D0
 10
129.082
 20
46.2786
 30
0.000000
  70
    32
  0
VERTEX
  8
0
  5
581D1
 10
129.218
 20
46.1489
 30
0.000000
  70
    32
  0
VERTEX
  8
0
  5
581D2
 10
129.360
 20
46.0260
 30
0.000000
  70
    32
  0
VERTEX
  8
0
  5
581D3
 10
129.507
 20
45.9102
 30
0.000000
  70
    32
  0
VERTEX
  8
0
  5
581D4
 10
129.660
 20
45.8019
 30
0.000000
  70
    32
  0
VERTEX
  8
0
  5
581D5
 10
129.818
 20
45.7012
 30
0.000000
  70
    32
  0
VERTEX
  8
0
  5
581D6
 10
129.981
 20
45.6085
 30
0.000000
  70
    32
  0
VERTEX
  8
0
  5
581D7
 10
130.148
 20
45.5239
 30
0.000000
  70
    32
  0
VERTEX
  8
0
  5
581D8
 10
130.319
 20
45.4477
 30
0.000000
  70
    32
  0
VERTEX
  8
0
  5
581D9
 10
130.494
 20
45.3799
 30
0.000000
  70
    32
  0
VERTEX
  8
0
  5
581DA
 10
130.672
 20
45.3209
 30
0.000000
  70
    32
  0
VERTEX
  8
0
  5
581DB
 10
130.852
 20
45.2707
 30
0.000000
  70
    32
  0
VERTEX
  8
0
  5
581DC
 10
131.034
 20
45.2295
 30
0.000000
  70
    32
  0
VERTEX
  8
0
  5
581DD
 10
131.219
 20
45.1974
 30
0.000000
  70
    32
  0
VERTEX
  8
0
  5
581DE
 10
131.405
 20
45.1743
 30
0.000000
  70
    32
  0
VERTEX
  8
0
  5
581DF
 10
131.591
 20
45.1605
 30
0.000000
  70
    32
  0
VERTEX
  8
0
  5
581E0
 10
131.778
 20
45.1559
 30
0.000000
  70
    32
  0
VERTEX
  8
0
  5
581E1
 10
131.965
 20
45.1605
 30
0.000000
  70
    32
  0
VERTEX
  8
0
  5
581E2
 10
132.152
 20
45.1743
 30
0.000000
  70
    32
  0
VERTEX
  8
0
  5
581E3
 10
132.338
 20
45.1974
 30
0.000000
  70
    32
  0
VERTEX
  8
0
  5
581E4
 10
132.522
 20
45.2295
 30
0.000000
  70
    32
  0
VERTEX
  8
0
  5
581E5
 10
132.705
 20
45.2707
 30
0.000000
  70
    32
  0
VERTEX
  8
0
  5
581E6
 10
132.885
 20
45.3209
 30
0.000000
  70
    32
  0
VERTEX
  8
0
  5
581E7
 10
133.063
 20
45.3799
 30
0.000000
  70
    32
  0
VERTEX
  8
0
  5
581E8
 10
133.237
 20
45.4477
 30
0.000000
  70
    32
  0
VERTEX
  8
0
  5
581E9
 10
133.408
 20
45.5239
 30
0.000000
  70
    32
  0
VERTEX
  8
0
  5
581EA
 10
133.575
 20
45.6085
 30
0.000000
  70
    32
  0
VERTEX
  8
0
  5
581EB
 10
133.738
 20
45.7012
 30
0.000000
  70
    32
  0
VERTEX
  8
0
  5
581EC
 10
133.896
 20
45.8019
 30
0.000000
  70
    32
  0
VERTEX
  8
0
  5
581ED
 10
134.049
 20
45.9102
 30
0.000000
  70
    32
  0
VERTEX
  8
0
  5
581EE
 10
134.197
 20
46.0260
 30
0.000000
  70
    32
  0
VERTEX
  8
0
  5
581EF
 10
134.338
 20
46.1489
 30
0.000000
  70
    32
  0
VERTEX
  8
0
  5
581F0
 10
134.474
 20
46.2786
 30
0.000000
  70
    32
  0
VERTEX
  8
0
  5
581F1
 10
134.603
 20
46.4149
 30
0.000000
  70
    32
  0
VERTEX
  8
0
  5
581F2
 10
134.725
 20
46.5574
 30
0.000000
  70
    32
  0
VERTEX
  8
0
  5
581F3
 10
134.840
 20
46.7057
 30
0.000000
  70
    32
  0
VERTEX
  8
0
  5
581F4
 10
134.948
 20
46.8595
 30
0.000000
  70
    32
  0
VERTEX
  8
0
  5
581F5
 10
135.048
 20
47.0185
 30
0.000000
  70
    32
  0
VERTEX
  8
0
  5
581F6
 10
135.140
 20
47.1822
 30
0.000000
  70
    32
  0
VERTEX
  8
0
  5
581F7
 10
135.225
 20
47.3503
 30
0.000000
  70
    32
  0
VERTEX
  8
0
  5
581F8
 10
135.300
 20
47.5223
 30
0.000000
  70
    32
  0
VERTEX
  8
0
  5
581F9
 10
135.368
 20
47.6978
 30
0.000000
  70
    32
  0
VERTEX
  8
0
  5
581FA
 10
135.426
 20
47.8765
 30
0.000000
  70
    32
  0
VERTEX
  8
0
  5
581FB
 10
135.476
 20
48.0578
 30
0.000000
  70
    32
  0
VERTEX
  8
0
  5
581FC
 10
135.517
 20
48.2414
 30
0.000000
  70
    32
  0
VERTEX
  8
0
  5
581FD
 10
135.549
 20
48.4268
 30
0.000000
  70
    32
  0
VERTEX
  8
0
  5
581FE
 10
135.572
 20
48.6135
 30
0.000000
  70
    32
  0
VERTEX
  8
0
  5
581FF
 10
135.586
 20
48.8011
 30
0.000000
  70
    32
  0
VERTEX
  8
0
  5
58200
 10
135.591
 20
48.9892
 30
0.000000
  70
    32
  0
VERTEX
  8
0
  5
58201
 10
135.586
 20
49.1773
 30
0.000000
  70
    32
  0
VERTEX
  8
0
  5
58202
 10
135.572
 20
49.3650
 30
0.000000
  70
    32
  0
VERTEX
  8
0
  5
58203
 10
135.549
 20
49.5517
 30
0.000000
  70
    32
  0
VERTEX
  8
0
  5
58204
 10
135.517
 20
49.7371
 30
0.000000
  70
    32
  0
VERTEX
  8
0
  5
58205
 10
135.476
 20
49.9207
 30
0.000000
  70
    32
  0
VERTEX
  8
0
  5
58206
 10
135.426
 20
50.1020
 30
0.000000
  70
    32
  0
VERTEX
  8
0
  5
58207
 10
135.368
 20
50.2807
 30
0.000000
  70
    32
  0
VERTEX
  8
0
  5
58208
 10
135.300
 20
50.4562
 30
0.000000
  70
    32
  0
VERTEX
  8
0
  5
58209
 10
135.225
 20
50.6282
 30
0.000000
  70
    32
  0
VERTEX
  8
0
  5
5820A
 10
135.140
 20
50.7963
 30
0.000000
  70
    32
  0
VERTEX
  8
0
  5
5820B
 10
135.048
 20
50.9600
 30
0.000000
  70
    32
  0
VERTEX
  8
0
  5
5820C
 10
134.948
 20
51.1189
 30
0.000000
  70
    32
  0
VERTEX
  8
0
  5
5820D
 10
134.840
 20
51.2728
 30
0.000000
  70
    32
  0
VERTEX
  8
0
  5
5820E
 10
134.725
 20
51.4211
 30
0.000000
  70
    32
  0
VERTEX
  8
0
  5
5820F
 10
134.603
 20
51.5636
 30
0.000000
  70
    32
  0
VERTEX
  8
0
  5
58210
 10
134.474
 20
51.6998
 30
0.000000
  70
    32
  0
VERTEX
  8
0
  5
58211
 10
134.338
 20
51.8296
 30
0.000000
  70
    32
  0
VERTEX
  8
0
  5
58212
 10
134.197
 20
51.9525
 30
0.000000
  70
    32
  0
VERTEX
  8
0
  5
58213
 10
134.049
 20
52.0682
 30
0.000000
  70
    32
  0
VERTEX
  8
0
  5
58214
 10
133.896
 20
52.1766
 30
0.000000
  70
    32
  0
VERTEX
  8
0
  5
58215
 10
133.738
 20
52.2772
 30
0.000000
  70
    32
  0
VERTEX
  8
0
  5
58216
 10
133.575
 20
52.3700
 30
0.000000
  70
    32
  0
VERTEX
  8
0
  5
58217
 10
133.408
 20
52.4546
 30
0.000000
  70
    32
  0
VERTEX
  8
0
  5
58218
 10
133.237
 20
52.5308
 30
0.000000
  70
    32
  0
VERTEX
  8
0
  5
58219
 10
133.063
 20
52.5985
 30
0.000000
  70
    32
  0
VERTEX
  8
0
  5
5821A
 10
132.885
 20
52.6575
 30
0.000000
  70
    32
  0
VERTEX
  8
0
  5
5821B
 10
132.705
 20
52.7077
 30
0.000000
  70
    32
  0
VERTEX
  8
0
  5
5821C
 10
132.522
 20
52.7490
 30
0.000000
  70
    32
  0
VERTEX
  8
0
  5
5821D
 10
132.338
 20
52.7811
 30
0.000000
  70
    32
  0
VERTEX
  8
0
  5
5821E
 10
132.152
 20
52.8042
 30
0.000000
  70
    32
  0
VERTEX
  8
0
  5
5821F
 10
131.965
 20
52.8180
 30
0.000000
  70
    32
  0
VERTEX
  8
0
  5
58220
 10
131.778
 20
52.8226
 30
0.000000
  70
    32
  0
SEQEND
  8
0
  5
58221
  0
POLYLINE
  5
569A4
  8
0
 66
     1
 10
0.0
 20
0.0
 30
0.0
  0
VERTEX
  5
57DCF
  8
0
 10
130.0239125469256
 20
54.357211325882879
 30
0.0
  0
VERTEX
  5
57DD0
  8
0
 10
129.68125022960251
 20
54.287504300728429
 30
0.0
  0
VERTEX
  5
57DD1
  8
0
 10
128.9950152560784
 20
54.152651456204588
 30
0.0
  0
VERTEX
  5
57DD2
  8
0
 10
128.3076114737371
 20
54.02388900598352
 30
0.0
  0
VERTEX
  5
57DD3
  8
0
 10
127.9634881669333
 20
53.961794861465258
 30
0.0
  0
SEQEND
  5
57DD4
  8
0
  0
POLYLINE
  5
569A5
  8
0
 66
     1
 10
0.0
 20
0.0
 30
0.0
  0
VERTEX
  5
57DD5
  8
0
 10
127.9634881669333
 20
53.961794861465258
 30
0.0
  0
VERTEX
  5
57DD6
  8
0
 10
127.6770161884894
 20
53.911303782185207
 30
0.0
  0
VERTEX
  5
57DD7
  8
0
 10
127.1019926728229
 20
53.813237851072479
 30
0.0
  0
VERTEX
  5
57DD8
  8
0
 10
126.5253068055967
 20
53.719275944591132
 30
0.0
  0
VERTEX
  5
57DD9
  8
0
 10
126.2367592542348
 20
53.673905913577997
 30
0.0
  0
VERTEX
  5
57DDA
  8
0
 10
125.9482317605254
 20
53.629633048235299
 30
0.0
  0
VERTEX
  5
57DDB
  8
0
 10
125.3717083166493
 20
53.544438380049549
 30
0.0
  0
VERTEX
  5
57DDC
  8
0
 10
124.7970060673922
 20
53.46383846754545
 30
0.0
  0
VERTEX
  5
57DDD
  8
0
 10
124.2254790791028
 20
53.387953705234182
 30
0.0
  0
VERTEX
  5
57DDE
  8
0
 10
123.65848336624251
 20
53.316865856311573
 30
0.0
  0
VERTEX
  5
57DDF
  8
0
 10
123.0973548784104
 20
53.250616366061209
 30
0.0
  0
VERTEX
  5
57DE0
  8
0
 10
122.81939750035281
 20
53.219307784642311
 30
0.0
  0
VERTEX
  5
57DE1
  8
0
 10
122.54338568124651
 20
53.189205624063007
 30
0.0
  0
VERTEX
  5
57DE2
  8
0
 10
121.9978187994745
 20
53.132595258463098
 30
0.0
  0
VERTEX
  5
57DE3
  8
0
 10
121.46191719829611
 20
53.080717661734312
 30
0.0
  0
VERTEX
  5
57DE4
  8
0
 10
120.93691964537101
 20
53.033472993140222
 30
0.0
  0
VERTEX
  5
57DE5
  8
0
 10
120.42401890225391
 20
52.990729923396557
 30
0.0
  0
VERTEX
  5
57DE6
  8
0
 10
119.9243700682345
 20
52.952329543717973
 30
0.0
  0
VERTEX
  5
57DE7
  8
0
 10
119.67986354864409
 20
52.934701259298329
 30
0.0
  0
VERTEX
  5
57DE8
  8
0
 10
119.4387073148459
 20
52.918062582436519
 30
0.0
  0
VERTEX
  5
57DE9
  8
0
 10
118.9635797890048
 20
52.887452841975019
 30
0.0
  0
VERTEX
  5
57DEA
  8
0
 10
118.4990553692293
 20
52.86030912715524
 30
0.0
  0
VERTEX
  5
57DEB
  8
0
 10
118.271220101911
 20
52.848000792756821
 30
0.0
  0
SEQEND
  5
57DEC
  8
0
  0
POLYLINE
  5
569A6
  8
0
 66
     1
 10
0.0
 20
0.0
 30
0.0
  0
VERTEX
  5
57DED
  8
0
 10
118.271220101911
 20
52.848000792756821
 30
0.0
  0
VERTEX
  5
57DEE
  8
0
 10
118.23889220818501
 20
52.846307892847229
 30
0.0
  0
VERTEX
  5
57DEF
  8
0
 10
118.1736672645229
 20
52.842932790833871
 30
0.0
  0
VERTEX
  5
57DF0
  8
0
 10
118.1076952070748
 20
52.839574118142671
 30
0.0
  0
VERTEX
  5
57DF1
  8
0
 10
118.0744335217196
 20
52.83790175378477
 30
0.0
  0
VERTEX
  5
57DF2
  8
0
 10
118.0409905219371
 20
52.836234468942408
 30
0.0
  0
VERTEX
  5
57DF3
  8
0
 10
117.9735680912158
 20
52.832916427940418
 30
0.0
  0
VERTEX
  5
57DF4
  8
0
 10
117.9054431585337
 20
52.829622565692269
 30
0.0
  0
VERTEX
  5
57DF5
  8
0
 10
117.8366309519765
 20
52.826355417954019
 30
0.0
  0
VERTEX
  5
57DF6
  8
0
 10
117.7671465581745
 20
52.823117478610371
 30
0.0
  0
VERTEX
  5
57DF7
  8
0
 10
117.69700587270511
 20
52.819911242027743
 30
0.0
  0
VERTEX
  5
57DF8
  8
0
 10
117.66169452682669
 20
52.818320786999621
 30
0.0
  0
VERTEX
  5
57DF9
  8
0
 10
117.6262252953556
 20
52.81673918463845
 30
0.0
  0
VERTEX
  5
57DFA
  8
0
 10
117.554821695765
 20
52.813603759868677
 30
0.0
  0
VERTEX
  5
57DFB
  8
0
 10
117.4828123833226
 20
52.810507393412209
 30
0.0
  0
VERTEX
  5
57DFC
  8
0
 10
117.41021507613959
 20
52.807452478614337
 30
0.0
  0
VERTEX
  5
57DFD
  8
0
 10
117.3370478690692
 20
52.80444137198095
 30
0.0
  0
VERTEX
  5
57DFE
  8
0
 10
117.2633292007506
 20
52.801476388823303
 30
0.0
  0
VERTEX
  5
57DFF
  8
0
 10
117.2262689163647
 20
52.800011904780852
 30
0.0
  0
VERTEX
  5
57E00
  8
0
 10
117.18907781964499
 20
52.798559799054622
 30
0.0
  0
VERTEX
  5
57E01
  8
0
 10
117.11431274903811
 20
52.795693823148341
 30
0.0
  0
VERTEX
  5
57E02
  8
0
 10
117.03905325097411
 20
52.792880628273799
 30
0.0
  0
VERTEX
  5
57E03
  8
0
 10
117.001244167197
 20
52.791494485479703
 30
0.0
  0
VERTEX
  5
57E04
  8
0
 10
116.96331878909059
 20
52.79012232462005
 30
0.0
  0
VERTEX
  5
57E05
  8
0
 10
116.8871289903236
 20
52.787420961922422
 30
0.0
  0
VERTEX
  5
57E06
  8
0
 10
116.81050360544781
 20
52.784778526203141
 30
0.0
  0
VERTEX
  5
57E07
  8
0
 10
116.7720337642197
 20
52.78348000842017
 30
0.0
  0
VERTEX
  5
57E08
  8
0
 10
116.73346246842669
 20
52.782196936740789
 30
0.0
  0
VERTEX
  5
57E09
  8
0
 10
116.6560211005208
 20
52.779677903790358
 30
0.0
  0
VERTEX
  5
57E0A
  8
0
 10
116.5781888630156
 20
52.777222891544291
 30
0.0
  0
VERTEX
  5
57E0B
  8
0
 10
116.4999854928931
 20
52.774833644947428
 30
0.0
  0
VERTEX
  5
57E0C
  8
0
 10
116.42143160245359
 20
52.772511861446233
 30
0.0
  0
VERTEX
  5
57E0D
  8
0
 10
116.3425481774436
 20
52.770259171646799
 30
0.0
  0
VERTEX
  5
57E0E
  8
0
 10
116.30298954133239
 20
52.769159227268588
 30
0.0
  0
VERTEX
  5
57E0F
  8
0
 10
116.2633565432684
 20
52.768077135658707
 30
0.0
  0
VERTEX
  5
57E10
  8
0
 10
116.18387833059499
 20
52.765967239662601
 30
0.0
  0
VERTEX
  5
57E11
  8
0
 10
116.1041354403398
 20
52.763930892708579
 30
0.0
  0
VERTEX
  5
57E12
  8
0
 10
116.0241500080224
 20
52.761969423756689
 30
0.0
  0
VERTEX
  5
57E13
  8
0
 10
115.9439443674662
 20
52.760084078965988
 30
0.0
  0
VERTEX
  5
57E14
  8
0
 10
115.863541013827
 20
52.75827601924437
 30
0.0
  0
VERTEX
  5
57E15
  8
0
 10
115.8232722591933
 20
52.757401310214057
 30
0.0
  0
VERTEX
  5
57E16
  8
0
 10
115.78296256591101
 20
52.75654631806357
 30
0.0
  0
VERTEX
  5
57E17
  8
0
 10
115.702231727761
 20
52.754895959549131
 30
0.0
  0
VERTEX
  5
57E18
  8
0
 10
115.6213712494641
 20
52.753325836852369
 30
0.0
  0
VERTEX
  5
57E19
  8
0
 10
115.5404038871511
 20
52.751836750811343
 30
0.0
  0
VERTEX
  5
57E1A
  8
0
 10
115.459352362139
 20
52.750429408907749
 30
0.0
  0
VERTEX
  5
57E1B
  8
0
 10
115.37823932118521
 20
52.749104424557359
 30
0.0
  0
VERTEX
  5
57E1C
  8
0
 10
115.3376668008479
 20
52.748472982663102
 30
0.0
  0
VERTEX
  5
57E1D
  8
0
 10
115.2970874131868
 20
52.747862318433377
 30
0.0
  0
VERTEX
  5
57E1E
  8
0
 10
115.2159195620311
 20
52.746703522079329
 30
0.0
  0
VERTEX
  5
57E1F
  8
0
 10
115.1347590153004
 20
52.745628377046629
 30
0.0
  0
VERTEX
  5
57E20
  8
0
 10
115.0536293051866
 20
52.744637132769313
 30
0.0
  0
VERTEX
  5
57E21
  8
0
 10
114.972554208578
 20
52.74372994473994
 30
0.0
  0
VERTEX
  5
57E22
  8
0
 10
114.8915577070504
 20
52.742906873001189
 30
0.0
  0
VERTEX
  5
57E23
  8
0
 10
114.8510964697887
 20
52.742526873105611
 30
0.0
  0
VERTEX
  5
57E24
  8
0
 10
114.81066394677281
 20
52.742167880957609
 30
0.0
  0
VERTEX
  5
57E25
  8
0
 10
114.729897198318
 20
52.741512834507269
 30
0.0
  0
VERTEX
  5
57E26
  8
0
 10
114.6492818163681
 20
52.740941501495293
 30
0.0
  0
VERTEX
  5
57E27
  8
0
 10
114.5688421992881
 20
52.74045355149088
 30
0.0
  0
VERTEX
  5
57E28
  8
0
 10
114.4886027485333
 20
52.74004855588511
 30
0.0
  0
VERTEX
  5
57E29
  8
0
 10
114.4085878278479
 20
52.739725988312458
 30
0.0
  0
VERTEX
  5
57E2A
  8
0
 10
114.3686721595402
 20
52.739595423994523
 30
0.0
  0
VERTEX
  5
57E2B
  8
0
 10
114.3288217222002
 20
52.739485225391157
 30
0.0
  0
VERTEX
  5
57E2C
  8
0
 10
114.24932859639419
 20
52.739325547785839
 30
0.0
  0
VERTEX
  5
57E2D
  8
0
 10
114.1701324532828
 20
52.739246141586719
 30
0.0
  0
VERTEX
  5
57E2E
  8
0
 10
114.13065319645639
 20
52.739236260468722
 30
0.0
  0
VERTEX
  5
57E2F
  8
0
 10
114.0911739396301
 20
52.739246141586719
 30
0.0
  0
VERTEX
  5
57E30
  8
0
 10
114.01197779651849
 20
52.739325547785839
 30
0.0
  0
VERTEX
  5
57E31
  8
0
 10
113.9324846707125
 20
52.739485225391157
 30
0.0
  0
VERTEX
  5
57E32
  8
0
 10
113.8926342333725
 20
52.739595423994523
 30
0.0
  0
VERTEX
  5
57E33
  8
0
 10
113.85271856506481
 20
52.739725988312458
 30
0.0
  0
VERTEX
  5
57E34
  8
0
 10
113.77270364437931
 20
52.74004855588511
 30
0.0
  0
VERTEX
  5
57E35
  8
0
 10
113.6924641936245
 20
52.74045355149088
 30
0.0
  0
VERTEX
  5
57E36
  8
0
 10
113.6120245765446
 20
52.740941501495293
 30
0.0
  0
VERTEX
  5
57E37
  8
0
 10
113.5314091945947
 20
52.741512834507269
 30
0.0
  0
VERTEX
  5
57E38
  8
0
 10
113.45064244614009
 20
52.742167880957609
 30
0.0
  0
VERTEX
  5
57E39
  8
0
 10
113.4102099231243
 20
52.742526873105611
 30
0.0
  0
VERTEX
  5
57E3A
  8
0
 10
113.3697486858625
 20
52.742906873001189
 30
0.0
  0
VERTEX
  5
57E3B
  8
0
 10
113.2887521843349
 20
52.74372994473994
 30
0.0
  0
VERTEX
  5
57E3C
  8
0
 10
113.2076770877261
 20
52.744637132769313
 30
0.0
  0
VERTEX
  5
57E3D
  8
0
 10
113.1265473776122
 20
52.745628377046629
 30
0.0
  0
VERTEX
  5
57E3E
  8
0
 10
113.0453868308816
 20
52.746703522079329
 30
0.0
  0
VERTEX
  5
57E3F
  8
0
 10
112.9642189797259
 20
52.747862318433377
 30
0.0
  0
VERTEX
  5
57E40
  8
0
 10
112.923639592065
 20
52.748472982663102
 30
0.0
  0
VERTEX
  5
57E41
  8
0
 10
112.88306707172769
 20
52.749104424557359
 30
0.0
  0
VERTEX
  5
57E42
  8
0
 10
112.8019540307739
 20
52.750429408907749
 30
0.0
  0
VERTEX
  5
57E43
  8
0
 10
112.7209025057618
 20
52.751836750811343
 30
0.0
  0
VERTEX
  5
57E44
  8
0
 10
112.6399351434488
 20
52.753325836852369
 30
0.0
  0
VERTEX
  5
57E45
  8
0
 10
112.5590746651519
 20
52.754895959549131
 30
0.0
  0
VERTEX
  5
57E46
  8
0
 10
112.47834382700169
 20
52.75654631806357
 30
0.0
  0
VERTEX
  5
57E47
  8
0
 10
112.4380341337196
 20
52.757401310214057
 30
0.0
  0
VERTEX
  5
57E48
  8
0
 10
112.3977653790859
 20
52.75827601924437
 30
0.0
  0
VERTEX
  5
57E49
  8
0
 10
112.3173620254465
 20
52.760084078965988
 30
0.0
  0
VERTEX
  5
57E4A
  8
0
 10
112.2371563848906
 20
52.761969423756689
 30
0.0
  0
VERTEX
  5
57E4B
  8
0
 10
112.1571709525728
 20
52.7639308927087
 30
0.0
  0
VERTEX
  5
57E4C
  8
0
 10
112.07742806231769
 20
52.765967239662601
 30
0.0
  0
VERTEX
  5
57E4D
  8
0
 10
111.9979498496443
 20
52.768077135658707
 30
0.0
  0
VERTEX
  5
57E4E
  8
0
 10
111.95831685158051
 20
52.769159227268588
 30
0.0
  0
VERTEX
  5
57E4F
  8
0
 10
111.9187582154691
 20
52.770259171646799
 30
0.0
  0
VERTEX
  5
57E50
  8
0
 10
111.83987479045931
 20
52.772511861446233
 30
0.0
  0
VERTEX
  5
57E51
  8
0
 10
111.7613209000199
 20
52.774833644947428
 30
0.0
  0
VERTEX
  5
57E52
  8
0
 10
111.6831175298971
 20
52.777222891544412
 30
0.0
  0
VERTEX
  5
57E53
  8
0
 10
111.6052852923919
 20
52.779677903790358
 30
0.0
  0
VERTEX
  5
57E54
  8
0
 10
111.52784392448621
 20
52.782196936740789
 30
0.0
  0
VERTEX
  5
57E55
  8
0
 10
111.4892726286932
 20
52.78348000842017
 30
0.0
  0
VERTEX
  5
57E56
  8
0
 10
111.45080278746489
 20
52.784778526203247
 30
0.0
  0
VERTEX
  5
57E57
  8
0
 10
111.3741774025891
 20
52.787420961922422
 30
0.0
  0
VERTEX
  5
57E58
  8
0
 10
111.29798760382209
 20
52.79012232462005
 30
0.0
  0
VERTEX
  5
57E59
  8
0
 10
111.2600622257159
 20
52.791494485479703
 30
0.0
  0
VERTEX
  5
57E5A
  8
0
 10
111.22225314193879
 20
52.792880628273799
 30
0.0
  0
VERTEX
  5
57E5B
  8
0
 10
111.14699364387479
 20
52.795693823148341
 30
0.0
  0
VERTEX
  5
57E5C
  8
0
 10
111.07222857326769
 20
52.798559799054622
 30
0.0
  0
VERTEX
  5
57E5D
  8
0
 10
111.035037476548
 20
52.800011904780852
 30
0.0
  0
VERTEX
  5
57E5E
  8
0
 10
110.9979771921621
 20
52.801476388823303
 30
0.0
  0
VERTEX
  5
57E5F
  8
0
 10
110.92425852384351
 20
52.80444137198095
 30
0.0
  0
VERTEX
  5
57E60
  8
0
 10
110.85109131677331
 20
52.807452478614451
 30
0.0
  0
VERTEX
  5
57E61
  8
0
 10
110.7784940095903
 20
52.810507393412209
 30
0.0
  0
VERTEX
  5
57E62
  8
0
 10
110.7064846971477
 20
52.813603759868677
 30
0.0
  0
VERTEX
  5
57E63
  8
0
 10
110.63508109755711
 20
52.81673918463845
 30
0.0
  0
VERTEX
  5
57E64
  8
0
 10
110.59961186608599
 20
52.818320786999621
 30
0.0
  0
VERTEX
  5
57E65
  8
0
 10
110.56430052020779
 20
52.819911242027743
 30
0.0
  0
VERTEX
  5
57E66
  8
0
 10
110.4941598347384
 20
52.823117478610371
 30
0.0
  0
VERTEX
  5
57E67
  8
0
 10
110.4246754409362
 20
52.826355417954019
 30
0.0
  0
VERTEX
  5
57E68
  8
0
 10
110.355863234379
 20
52.829622565692269
 30
0.0
  0
VERTEX
  5
57E69
  8
0
 10
110.2877383016969
 20
52.832916427940532
 30
0.0
  0
VERTEX
  5
57E6A
  8
0
 10
110.2203158709756
 20
52.836234468942408
 30
0.0
  0
VERTEX
  5
57E6B
  8
0
 10
110.1868728711933
 20
52.83790175378477
 30
0.0
  0
VERTEX
  5
57E6C
  8
0
 10
110.1536111858379
 20
52.839574118142671
 30
0.0
  0
VERTEX
  5
57E6D
  8
0
 10
110.0876391283898
 20
52.842932790833871
 30
0.0
  0
VERTEX
  5
57E6E
  8
0
 10
110.02241418472789
 20
52.846307892847229
 30
0.0
  0
VERTEX
  5
57E6F
  8
0
 10
109.9900862910019
 20
52.848000792756821
 30
0.0
  0
SEQEND
  5
57E70
  8
0
  0
POLYLINE
  5
569A7
  8
0
 66
     1
 10
0.0
 20
0.0
 30
0.0
  0
VERTEX
  5
57E71
  8
0
 10
109.9900862910019
 20
52.848000792756821
 30
0.0
  0
VERTEX
  5
57E72
  8
0
 10
109.76225099698151
 20
52.86030912863658
 30
0.0
  0
VERTEX
  5
57E73
  8
0
 10
109.29772651192521
 20
52.887452847622178
 30
0.0
  0
VERTEX
  5
57E74
  8
0
 10
108.8225989030138
 20
52.918062594244937
 30
0.0
  0
VERTEX
  5
57E75
  8
0
 10
108.58144263807461
 20
52.934701273842407
 30
0.0
  0
VERTEX
  5
57E76
  8
0
 10
108.3369361244779
 20
52.95232955846474
 30
0.0
  0
VERTEX
  5
57E77
  8
0
 10
107.83728730539769
 20
52.990729938227012
 30
0.0
  0
VERTEX
  5
57E78
  8
0
 10
107.32438658045361
 20
53.0334730076138
 30
0.0
  0
VERTEX
  5
57E79
  8
0
 10
106.7993890482785
 20
53.080717675396507
 30
0.0
  0
VERTEX
  5
57E7A
  8
0
 10
106.26348746948111
 20
53.132595270889979
 30
0.0
  0
VERTEX
  5
57E7B
  8
0
 10
105.71792061063159
 20
53.18920563490213
 30
0.0
  0
VERTEX
  5
57E7C
  8
0
 10
105.4419088029844
 20
53.219307794571151
 30
0.0
  0
VERTEX
  5
57E7D
  8
0
 10
105.16395143666701
 20
53.250616374968338
 30
0.0
  0
VERTEX
  5
57E7E
  8
0
 10
104.6028229716426
 20
53.316865863008402
 30
0.0
  0
VERTEX
  5
57E7F
  8
0
 10
104.0358272792157
 20
53.387953709698891
 30
0.0
  0
VERTEX
  5
57E80
  8
0
 10
103.46430030748679
 20
53.463838470007097
 30
0.0
  0
VERTEX
  5
57E81
  8
0
 10
102.88959806977709
 20
53.544438380983607
 30
0.0
  0
VERTEX
  5
57E82
  8
0
 10
102.31307463170261
 20
53.629633048339102
 30
0.0
  0
VERTEX
  5
57E83
  8
0
 10
102.0245471386333
 20
53.673905913585038
 30
0.0
  0
VERTEX
  5
57E84
  8
0
 10
101.7359995926392
 20
53.719275943744051
 30
0.0
  0
VERTEX
  5
57E85
  8
0
 10
101.1593137303264
 20
53.813237849365699
 30
0.0
  0
VERTEX
  5
57E86
  8
0
 10
100.5842902103841
 20
53.911303781146003
 30
0.0
  0
VERTEX
  5
57E87
  8
0
 10
100.2978182259794
 20
53.961794861465378
 30
0.0
  0
SEQEND
  5
57E88
  8
0
  0
POLYLINE
  5
569A8
  8
0
 66
     1
 10
0.0
 20
0.0
 30
0.0
  0
VERTEX
  5
57E89
  8
0
 10
100.2978182259794
 20
53.961794861465378
 30
0.0
  0
VERTEX
  5
57E8A
  8
0
 10
99.953694919175646
 20
54.023889005983641
 30
0.0
  0
VERTEX
  5
57E8B
  8
0
 10
99.26629113683407
 20
54.152651456204708
 30
0.0
  0
VERTEX
  5
57E8C
  8
0
 10
98.580056163309791
 20
54.287504300728664
 30
0.0
  0
VERTEX
  5
57E8D
  8
0
 10
98.237393845986844
 20
54.357211325883107
 30
0.0
  0
SEQEND
  5
57E8E
  8
0
  0
POLYLINE
  5
569A9
  8
0
 66
     1
 10
0.0
 20
0.0
 30
0.0
  0
VERTEX
  5
57E8F
  8
0
 10
98.237393845986844
 20
54.357211325883107
 30
0.0
  0
VERTEX
  5
57E90
  8
0
 10
98.184546797324174
 20
54.376746444611641
 30
0.0
  0
VERTEX
  5
57E91
  8
0
 10
98.078314047252434
 20
54.414323679203122
 30
0.0
  0
VERTEX
  5
57E92
  8
0
 10
97.971394343903526
 20
54.449899271721982
 30
0.0
  0
VERTEX
  5
57E93
  8
0
 10
97.917688660432773
 20
54.466932503330447
 30
0.0
  0
VERTEX
  5
57E94
  8
0
 10
97.863825398586414
 20
54.483460674414019
 30
0.0
  0
VERTEX
  5
57E95
  8
0
 10
97.755645151602266
 20
54.514996049943321
 30
0.0
  0
VERTEX
  5
57E96
  8
0
 10
97.646891758862921
 20
54.5444942755678
 30
0.0
  0
VERTEX
  5
57E97
  8
0
 10
97.537603578432254
 20
54.57194494706188
 30
0.0
  0
VERTEX
  5
57E98
  8
0
 10
97.427819156997657
 20
54.597338382386177
 30
0.0
  0
VERTEX
  5
57E99
  8
0
 10
97.317577216273776
 20
54.620665625102909
 30
0.0
  0
VERTEX
  5
57E9A
  8
0
 10
97.262296821213795
 20
54.631551824535798
 30
0.0
  0
VERTEX
  5
57E9B
  8
0
 10
97.206916639346005
 20
54.641918447534188
 30
0.0
  0
VERTEX
  5
57E9C
  8
0
 10
97.095876456955011
 20
54.6610893536646
 30
0.0
  0
VERTEX
  5
57E9D
  8
0
 10
96.984495833730989
 20
54.678171581784582
 30
0.0
  0
VERTEX
  5
57E9E
  8
0
 10
96.872814054380115
 20
54.693159106875683
 30
0.0
  0
VERTEX
  5
57E9F
  8
0
 10
96.760870509828706
 20
54.706046642735501
 30
0.0
  0
VERTEX
  5
57EA0
  8
0
 10
96.648704683328575
 20
54.716829643842189
 30
0.0
  0
VERTEX
  5
57EA1
  8
0
 10
96.592550774683104
 20
54.721430726317301
 30
0.0
  0
VERTEX
  5
57EA2
  8
0
 10
96.536356136532731
 20
54.72550430695766
 30
0.0
  0
VERTEX
  5
57EA3
  8
0
 10
96.423864495540329
 20
54.732067572468978
 30
0.0
  0
VERTEX
  5
57EA4
  8
0
 10
96.311269436921293
 20
54.736517125467579
 30
0.0
  0
VERTEX
  5
57EA5
  8
0
 10
96.254945535286666
 20
54.737948740202128
 30
0.0
  0
SEQEND
  5
57EA6
  8
0
  0
POLYLINE
  5
569AA
  8
0
 66
     1
 10
0.0
 20
0.0
 30
0.0
  0
VERTEX
  5
57EA7
  8
0
 10
96.254945542950296
 20
54.737948740043301
 30
0.0
  0
VERTEX
  5
57EA8
  8
0
 10
96.217141275824588
 20
54.738612879095641
 30
0.0
  0
VERTEX
  5
57EA9
  8
0
 10
96.161985360762174
 20
54.739154451201003
 30
0.0
  0
VERTEX
  5
57EAA
  8
0
 10
96.134223469824065
 20
54.739235198230993
 30
0.0
  0
VERTEX
  5
57EAB
  8
0
 10
96.130653196456493
 20
54.739236260468729
 30
0.0
  0
SEQEND
  5
57EAC
  8
0
  0
POLYLINE
  5
569AB
  8
0
 66
     1
 10
0.0
 20
0.0
 30
0.0
  0
VERTEX
  5
57EAD
  8
0
 10
132.13065319645671
 20
54.739236260468729
 30
0.0
  0
VERTEX
  5
57EAE
  8
0
 10
132.12708292308639
 20
54.739235198230993
 30
0.0
  0
VERTEX
  5
57EAF
  8
0
 10
132.09932103215851
 20
54.739154451201117
 30
0.0
  0
VERTEX
  5
57EB0
  8
0
 10
132.044165117094
 20
54.738612879095747
 30
0.0
  0
VERTEX
  5
57EB1
  8
0
 10
132.00636084996239
 20
54.737948740043301
 30
0.0
  0
SEQEND
  5
57EB2
  8
0
  0
POLYLINE
  5
569AC
  8
0
 66
     1
 10
0.0
 20
0.0
 30
0.0
  0
VERTEX
  5
57EB3
  8
0
 10
132.00636085762631
 20
54.737948740202128
 30
0.0
  0
VERTEX
  5
57EB4
  8
0
 10
131.95003695599161
 20
54.736517125467579
 30
0.0
  0
VERTEX
  5
57EB5
  8
0
 10
131.8374418973724
 20
54.732067572468978
 30
0.0
  0
VERTEX
  5
57EB6
  8
0
 10
131.7249502563802
 20
54.72550430695766
 30
0.0
  0
VERTEX
  5
57EB7
  8
0
 10
131.6687556182296
 20
54.721430726317301
 30
0.0
  0
VERTEX
  5
57EB8
  8
0
 10
131.61260170958411
 20
54.716829643842189
 30
0.0
  0
VERTEX
  5
57EB9
  8
0
 10
131.50043588308421
 20
54.706046642735501
 30
0.0
  0
VERTEX
  5
57EBA
  8
0
 10
131.38849233853259
 20
54.693159106875683
 30
0.0
  0
VERTEX
  5
57EBB
  8
0
 10
131.27681055918171
 20
54.678171581784582
 30
0.0
  0
VERTEX
  5
57EBC
  8
0
 10
131.16542993595769
 20
54.6610893536646
 30
0.0
  0
VERTEX
  5
57EBD
  8
0
 10
131.05438975356651
 20
54.641918447534188
 30
0.0
  0
VERTEX
  5
57EBE
  8
0
 10
130.99900957169891
 20
54.631551824535691
 30
0.0
  0
VERTEX
  5
57EBF
  8
0
 10
130.9437291766387
 20
54.620665625102802
 30
0.0
  0
VERTEX
  5
57EC0
  8
0
 10
130.83348723591479
 20
54.597338382386177
 30
0.0
  0
VERTEX
  5
57EC1
  8
0
 10
130.72370281448019
 20
54.571944947061759
 30
0.0
  0
VERTEX
  5
57EC2
  8
0
 10
130.61441463404961
 20
54.5444942755678
 30
0.0
  0
VERTEX
  5
57EC3
  8
0
 10
130.50566124131021
 20
54.514996049943321
 30
0.0
  0
VERTEX
  5
57EC4
  8
0
 10
130.39748099432609
 20
54.483460674413912
 30
0.0
  0
VERTEX
  5
57EC5
  8
0
 10
130.34361773247969
 20
54.466932503330341
 30
0.0
  0
VERTEX
  5
57EC6
  8
0
 10
130.28991204900899
 20
54.449899271721861
 30
0.0
  0
VERTEX
  5
57EC7
  8
0
 10
130.18299234565981
 20
54.414323679203008
 30
0.0
  0
VERTEX
  5
57EC8
  8
0
 10
130.0767595955883
 20
54.376746444611527
 30
0.0
  0
VERTEX
  5
57EC9
  8
0
 10
130.0239125469254
 20
54.357211325882879
 30
0.0
  0
SEQEND
  5
57ECA
  8
0
  0
LINE
  5
569AD
  8
1
 10
114.13065319645629
 20
28.212540761530949
 30
0.0
 11
114.13065319645629
 21
58.15449854958861
 31
0.0
  0
LINE
  5
569AE
  8
1
 10
87.537198011057626
 20
97.043495224065524
 30
0.0
 11
140.7241083818551
 21
97.043495224065524
 31
0.0
  0
LINE
  5
569AF
  8
1
 10
114.13065319645629
 20
106.4608146665427
 30
0.0
 11
114.13065319645629
 21
87.626175781588316
 31
0.0
  0
POLYLINE
  5
569B0
  8
0
 66
     1
 10
0.0
 20
0.0
 30
0.0
  0
VERTEX
  5
57ECB
  8
0
 10
98.237393845987313
 20
94.260362831856156
 30
0.0
  0
VERTEX
  5
57ECC
  8
0
 10
98.184546797324515
 20
94.254808383220407
 30
0.0
  0
VERTEX
  5
57ECD
  8
0
 10
98.078314047252888
 20
94.243642871263901
 30
0.0
  0
VERTEX
  5
57ECE
  8
0
 10
97.971394343903853
 20
94.232405157608596
 30
0.0
  0
VERTEX
  5
57ECF
  8
0
 10
97.917688660433114
 20
94.226760462818007
 30
0.0
  0
VERTEX
  5
57ED0
  8
0
 10
97.863825398586641
 20
94.221099205872648
 30
0.0
  0
VERTEX
  5
57ED1
  8
0
 10
97.755645151602621
 20
94.209729003742623
 30
0.0
  0
VERTEX
  5
57ED2
  8
0
 10
97.646891758863262
 20
94.198298561566176
 30
0.0
  0
VERTEX
  5
57ED3
  8
0
 10
97.537603578432595
 20
94.186811910938445
 30
0.0
  0
VERTEX
  5
57ED4
  8
0
 10
97.427819156997884
 20
94.175273103279466
 30
0.0
  0
VERTEX
  5
57ED5
  8
0
 10
97.317577216274117
 20
94.163686208405494
 30
0.0
  0
VERTEX
  5
57ED6
  8
0
 10
97.262296821213923
 20
94.157876004757455
 30
0.0
  0
VERTEX
  5
57ED7
  8
0
 10
97.206916639346233
 20
94.152055313093356
 30
0.0
  0
VERTEX
  5
57ED8
  8
0
 10
97.095876456955011
 20
94.140384519639383
 30
0.0
  0
VERTEX
  5
57ED9
  8
0
 10
96.984495833730989
 20
94.128677944412075
 30
0.0
  0
VERTEX
  5
57EDA
  8
0
 10
96.872814054380228
 20
94.116939716400239
 30
0.0
  0
VERTEX
  5
57EDB
  8
0
 10
96.760870509828564
 20
94.105173975757225
 30
0.0
  0
VERTEX
  5
57EDC
  8
0
 10
96.648704683328575
 20
94.093384872340053
 30
0.0
  0
VERTEX
  5
57EDD
  8
0
 10
96.592550774683104
 20
94.087482858714694
 30
0.0
  0
VERTEX
  5
57EDE
  8
0
 10
96.536356136532618
 20
94.081576564245793
 30
0.0
  0
VERTEX
  5
57EDF
  8
0
 10
96.423864495540329
 20
94.069753216345489
 30
0.0
  0
VERTEX
  5
57EE0
  8
0
 10
96.311269436921179
 20
94.057918998814685
 30
0.0
  0
VERTEX
  5
57EE1
  8
0
 10
96.254945535286524
 20
94.051999118206155
 30
0.0
  0
SEQEND
  5
57EE2
  8
0
  0
POLYLINE
  5
569B1
  8
0
 66
     1
 10
0.0
 20
0.0
 30
0.0
  0
VERTEX
  5
57EE3
  8
0
 10
96.254945535286524
 20
100.03499132992491
 30
0.0
  0
VERTEX
  5
57EE4
  8
0
 10
96.311269436921179
 20
100.02907144931631
 30
0.0
  0
VERTEX
  5
57EE5
  8
0
 10
96.423864495540329
 20
100.0172372317855
 30
0.0
  0
VERTEX
  5
57EE6
  8
0
 10
96.536356136532618
 20
100.0054138838852
 30
0.0
  0
VERTEX
  5
57EE7
  8
0
 10
96.592550774683104
 20
99.999507589416467
 30
0.0
  0
VERTEX
  5
57EE8
  8
0
 10
96.648704683328575
 20
99.993605575791108
 30
0.0
  0
VERTEX
  5
57EE9
  8
0
 10
96.760870509828564
 20
99.981816472373794
 30
0.0
  0
VERTEX
  5
57EEA
  8
0
 10
96.872814054380228
 20
99.970050731730808
 30
0.0
  0
VERTEX
  5
57EEB
  8
0
 10
96.984495833730989
 20
99.958312503718986
 30
0.0
  0
VERTEX
  5
57EEC
  8
0
 10
97.095876456955011
 20
99.946605928491635
 30
0.0
  0
VERTEX
  5
57EED
  8
0
 10
97.206916639346233
 20
99.934935135037705
 30
0.0
  0
VERTEX
  5
57EEE
  8
0
 10
97.262296821213923
 20
99.929114443373592
 30
0.0
  0
VERTEX
  5
57EEF
  8
0
 10
97.317577216274117
 20
99.923304239725567
 30
0.0
  0
VERTEX
  5
57EF0
  8
0
 10
97.427819156997884
 20
99.911717344851596
 30
0.0
  0
VERTEX
  5
57EF1
  8
0
 10
97.537603578432595
 20
99.900178537192573
 30
0.0
  0
VERTEX
  5
57EF2
  8
0
 10
97.646891758863262
 20
99.888691886564871
 30
0.0
  0
VERTEX
  5
57EF3
  8
0
 10
97.755645151602621
 20
99.877261444388537
 30
0.0
  0
VERTEX
  5
57EF4
  8
0
 10
97.863825398586641
 20
99.8658912422584
 30
0.0
  0
VERTEX
  5
57EF5
  8
0
 10
97.917688660433114
 20
99.86022998531304
 30
0.0
  0
VERTEX
  5
57EF6
  8
0
 10
97.971394343903853
 20
99.854585290522451
 30
0.0
  0
VERTEX
  5
57EF7
  8
0
 10
98.078314047252888
 20
99.843347576867146
 30
0.0
  0
VERTEX
  5
57EF8
  8
0
 10
98.184546797324515
 20
99.832182064910654
 30
0.0
  0
VERTEX
  5
57EF9
  8
0
 10
98.237393845987313
 20
99.826627616274905
 30
0.0
  0
SEQEND
  5
57EFA
  8
0
  0
POLYLINE
  5
569B2
  8
0
 66
     1
 10
0.0
 20
0.0
 30
0.0
  0
VERTEX
  5
57EFB
  8
0
 10
130.023912546926
 20
99.826627616275005
 30
0.0
  0
VERTEX
  5
57EFC
  8
0
 10
130.07675959558861
 20
99.832182064910754
 30
0.0
  0
VERTEX
  5
57EFD
  8
0
 10
130.1829923456603
 20
99.843347576867146
 30
0.0
  0
VERTEX
  5
57EFE
  8
0
 10
130.2899120490093
 20
99.854585290522451
 30
0.0
  0
VERTEX
  5
57EFF
  8
0
 10
130.34361773248011
 20
99.860229985313154
 30
0.0
  0
VERTEX
  5
57F00
  8
0
 10
130.39748099432649
 20
99.8658912422584
 30
0.0
  0
VERTEX
  5
57F01
  8
0
 10
130.50566124131049
 20
99.877261444388537
 30
0.0
  0
VERTEX
  5
57F02
  8
0
 10
130.61441463404989
 20
99.888691886564985
 30
0.0
  0
VERTEX
  5
57F03
  8
0
 10
130.72370281448039
 20
99.900178537192716
 30
0.0
  0
VERTEX
  5
57F04
  8
0
 10
130.83348723591519
 20
99.911717344851596
 30
0.0
  0
VERTEX
  5
57F05
  8
0
 10
130.9437291766389
 20
99.923304239725567
 30
0.0
  0
VERTEX
  5
57F06
  8
0
 10
130.99900957169899
 20
99.929114443373592
 30
0.0
  0
VERTEX
  5
57F07
  8
0
 10
131.0543897535668
 20
99.934935135037705
 30
0.0
  0
VERTEX
  5
57F08
  8
0
 10
131.1654299359578
 20
99.946605928491635
 30
0.0
  0
VERTEX
  5
57F09
  8
0
 10
131.2768105591818
 20
99.958312503719085
 30
0.0
  0
VERTEX
  5
57F0A
  8
0
 10
131.38849233853259
 20
99.970050731730808
 30
0.0
  0
VERTEX
  5
57F0B
  8
0
 10
131.50043588308421
 20
99.981816472373794
 30
0.0
  0
VERTEX
  5
57F0C
  8
0
 10
131.61260170958431
 20
99.993605575791108
 30
0.0
  0
VERTEX
  5
57F0D
  8
0
 10
131.6687556182296
 20
99.999507589416353
 30
0.0
  0
VERTEX
  5
57F0E
  8
0
 10
131.72495025638011
 20
100.0054138838852
 30
0.0
  0
VERTEX
  5
57F0F
  8
0
 10
131.8374418973724
 20
100.0172372317855
 30
0.0
  0
VERTEX
  5
57F10
  8
0
 10
131.95003695599141
 20
100.02907144931631
 30
0.0
  0
VERTEX
  5
57F11
  8
0
 10
132.00636085762599
 20
100.03499132992491
 30
0.0
  0
SEQEND
  5
57F12
  8
0
  0
POLYLINE
  5
569B3
  8
0
 66
     1
 10
0.0
 20
0.0
 30
0.0
  0
VERTEX
  5
57F13
  8
0
 10
132.00636085762599
 20
94.051999118206155
 30
0.0
  0
VERTEX
  5
57F14
  8
0
 10
131.95003695599141
 20
94.057918998814685
 30
0.0
  0
VERTEX
  5
57F15
  8
0
 10
131.8374418973724
 20
94.069753216345489
 30
0.0
  0
VERTEX
  5
57F16
  8
0
 10
131.72495025638011
 20
94.081576564245793
 30
0.0
  0
VERTEX
  5
57F17
  8
0
 10
131.6687556182296
 20
94.087482858714594
 30
0.0
  0
VERTEX
  5
57F18
  8
0
 10
131.61260170958431
 20
94.093384872339925
 30
0.0
  0
VERTEX
  5
57F19
  8
0
 10
131.50043588308421
 20
94.105173975757225
 30
0.0
  0
VERTEX
  5
57F1A
  8
0
 10
131.38849233853259
 20
94.116939716400239
 30
0.0
  0
VERTEX
  5
57F1B
  8
0
 10
131.2768105591818
 20
94.128677944411947
 30
0.0
  0
VERTEX
  5
57F1C
  8
0
 10
131.1654299359578
 20
94.140384519639383
 30
0.0
  0
VERTEX
  5
57F1D
  8
0
 10
131.0543897535668
 20
94.152055313093356
 30
0.0
  0
VERTEX
  5
57F1E
  8
0
 10
130.99900957169899
 20
94.157876004757455
 30
0.0
  0
VERTEX
  5
57F1F
  8
0
 10
130.9437291766389
 20
94.163686208405366
 30
0.0
  0
VERTEX
  5
57F20
  8
0
 10
130.83348723591519
 20
94.175273103279324
 30
0.0
  0
VERTEX
  5
57F21
  8
0
 10
130.72370281448039
 20
94.186811910938346
 30
0.0
  0
VERTEX
  5
57F22
  8
0
 10
130.61441463404989
 20
94.198298561566062
 30
0.0
  0
VERTEX
  5
57F23
  8
0
 10
130.50566124131049
 20
94.209729003742495
 30
0.0
  0
VERTEX
  5
57F24
  8
0
 10
130.39748099432649
 20
94.221099205872648
 30
0.0
  0
VERTEX
  5
57F25
  8
0
 10
130.34361773248011
 20
94.226760462817893
 30
0.0
  0
VERTEX
  5
57F26
  8
0
 10
130.2899120490093
 20
94.232405157608483
 30
0.0
  0
VERTEX
  5
57F27
  8
0
 10
130.1829923456603
 20
94.243642871263901
 30
0.0
  0
VERTEX
  5
57F28
  8
0
 10
130.07675959558861
 20
94.254808383220279
 30
0.0
  0
VERTEX
  5
57F29
  8
0
 10
130.023912546926
 20
94.260362831856014
 30
0.0
  0
SEQEND
  5
57F2A
  8
0
  0
POLYLINE
  5
569B4
  8
0
 66
     1
 10
0.0
 20
0.0
 30
0.0
  0
VERTEX
  5
57F2B
  8
0
 10
100.2978182259794
 20
94.476922160637969
 30
0.0
  0
VERTEX
  5
57F2C
  8
0
 10
99.953694919175646
 20
94.440753343639258
 30
0.0
  0
VERTEX
  5
57F2D
  8
0
 10
99.266291136834411
 20
94.368504294777495
 30
0.0
  0
VERTEX
  5
57F2E
  8
0
 10
98.580056163310246
 20
94.296378092672754
 30
0.0
  0
VERTEX
  5
57F2F
  8
0
 10
98.237393845987185
 20
94.260362831856156
 30
0.0
  0
SEQEND
  5
57F30
  8
0
  0
POLYLINE
  5
569B5
  8
0
 66
     1
 10
0.0
 20
0.0
 30
0.0
  0
VERTEX
  5
57F31
  8
0
 10
109.9900862910018
 20
91.712622340432418
 30
0.0
  0
VERTEX
  5
57F32
  8
0
 10
109.76225099698151
 20
91.885745423220555
 30
0.0
  0
VERTEX
  5
57F33
  8
0
 10
109.29772651192521
 20
92.216023625211065
 30
0.0
  0
VERTEX
  5
57F34
  8
0
 10
108.8225989030137
 20
92.524587157352371
 30
0.0
  0
VERTEX
  5
57F35
  8
0
 10
108.58144263807441
 20
92.670639007417904
 30
0.0
  0
VERTEX
  5
57F36
  8
0
 10
108.3369361244779
 20
92.8118218077026
 30
0.0
  0
VERTEX
  5
57F37
  8
0
 10
107.8372873053976
 20
93.079738209620245
 30
0.0
  0
VERTEX
  5
57F38
  8
0
 10
107.32438658045351
 20
93.327557715254457
 30
0.0
  0
VERTEX
  5
57F39
  8
0
 10
106.7993890482785
 20
93.554374305612015
 30
0.0
  0
VERTEX
  5
57F3A
  8
0
 10
106.26348746948101
 20
93.759385967679819
 30
0.0
  0
VERTEX
  5
57F3B
  8
0
 10
105.71792061063159
 20
93.941887958171066
 30
0.0
  0
VERTEX
  5
57F3C
  8
0
 10
105.4419088029844
 20
94.024505097653233
 30
0.0
  0
VERTEX
  5
57F3D
  8
0
 10
105.16395143666691
 20
94.101278184230651
 30
0.0
  0
VERTEX
  5
57F3E
  8
0
 10
104.6028229716426
 20
94.2370630415178
 30
0.0
  0
VERTEX
  5
57F3F
  8
0
 10
104.0358272792156
 20
94.348833321073386
 30
0.0
  0
VERTEX
  5
57F40
  8
0
 10
103.4643003074867
 20
94.436269880979935
 30
0.0
  0
VERTEX
  5
57F41
  8
0
 10
102.88959806977689
 20
94.499150662861112
 30
0.0
  0
VERTEX
  5
57F42
  8
0
 10
102.31307463170261
 20
94.537352629791854
 30
0.0
  0
VERTEX
  5
57F43
  8
0
 10
102.0245471386332
 20
94.547187180569296
 30
0.0
  0
VERTEX
  5
57F44
  8
0
 10
101.7359995926392
 20
94.550849478831765
 30
0.0
  0
VERTEX
  5
57F45
  8
0
 10
101.1593137303263
 20
94.53968294158723
 30
0.0
  0
VERTEX
  5
57F46
  8
0
 10
100.5842902103841
 20
94.503948147312158
 30
0.0
  0
VERTEX
  5
57F47
  8
0
 10
100.2978182259794
 20
94.476922160637969
 30
0.0
  0
SEQEND
  5
57F48
  8
0
  0
POLYLINE
  5
569B6
  8
0
 66
     1
 10
0.0
 20
0.0
 30
0.0
  0
VERTEX
  5
57F49
  8
0
 10
118.2712201019109
 20
91.712622340432418
 30
0.0
  0
VERTEX
  5
57F4A
  8
0
 10
118.23889220818501
 20
91.687669216575046
 30
0.0
  0
VERTEX
  5
57F4B
  8
0
 10
118.1736672645229
 20
91.638262828930607
 30
0.0
  0
VERTEX
  5
57F4C
  8
0
 10
118.1076952070748
 20
91.589539151105555
 30
0.0
  0
VERTEX
  5
57F4D
  8
0
 10
118.0744335217194
 20
91.565439296451359
 30
0.0
  0
VERTEX
  5
57F4E
  8
0
 10
118.0409905219371
 20
91.541517216025923
 30
0.0
  0
VERTEX
  5
57F4F
  8
0
 10
117.9735680912159
 20
91.494215531021055
 30
0.0
  0
VERTEX
  5
57F50
  8
0
 10
117.9054431585338
 20
91.447652057732185
 30
0.0
  0
VERTEX
  5
57F51
  8
0
 10
117.8366309519766
 20
91.401843969726102
 30
0.0
  0
VERTEX
  5
57F52
  8
0
 10
117.7671465581744
 20
91.356807609101921
 30
0.0
  0
VERTEX
  5
57F53
  8
0
 10
117.69700587270501
 20
91.312559123513225
 30
0.0
  0
VERTEX
  5
57F54
  8
0
 10
117.66169452682669
 20
91.290735267034862
 30
0.0
  0
VERTEX
  5
57F55
  8
0
 10
117.6262252953556
 20
91.269114244133803
 30
0.0
  0
VERTEX
  5
57F56
  8
0
 10
117.554821695765
 20
91.226488254124448
 30
0.0
  0
VERTEX
  5
57F57
  8
0
 10
117.4828123833225
 20
91.184695962620495
 30
0.0
  0
VERTEX
  5
57F58
  8
0
 10
117.41021507613949
 20
91.143751680712981
 30
0.0
  0
VERTEX
  5
57F59
  8
0
 10
117.3370478690692
 20
91.10366919938771
 30
0.0
  0
VERTEX
  5
57F5A
  8
0
 10
117.2633292007506
 20
91.064461769390846
 30
0.0
  0
VERTEX
  5
57F5B
  8
0
 10
117.2262689163647
 20
91.045190187252516
 30
0.0
  0
VERTEX
  5
57F5C
  8
0
 10
117.18907781964499
 20
91.02614208300146
 30
0.0
  0
VERTEX
  5
57F5D
  8
0
 10
117.11431274903801
 20
90.988722257695272
 30
0.0
  0
VERTEX
  5
57F5E
  8
0
 10
117.03905325097401
 20
90.952213821693604
 30
0.0
  0
VERTEX
  5
57F5F
  8
0
 10
117.0012441671969
 20
90.934304812996075
 30
0.0
  0
VERTEX
  5
57F60
  8
0
 10
116.96331878909059
 20
90.916627701398966
 30
0.0
  0
VERTEX
  5
57F61
  8
0
 10
116.8871289903236
 20
90.881974210726085
 30
0.0
  0
VERTEX
  5
57F62
  8
0
 10
116.81050360544781
 20
90.848263042344797
 30
0.0
  0
VERTEX
  5
57F63
  8
0
 10
116.7720337642196
 20
90.831763686382729
 30
0.0
  0
VERTEX
  5
57F64
  8
0
 10
116.73346246842659
 20
90.815503260860524
 30
0.0
  0
VERTEX
  5
57F65
  8
0
 10
116.6560211005209
 20
90.783701541433416
 30
0.0
  0
VERTEX
  5
57F66
  8
0
 10
116.5781888630156
 20
90.752861777351214
 30
0.0
  0
VERTEX
  5
57F67
  8
0
 10
116.4999854928929
 20
90.722991725999705
 30
0.0
  0
VERTEX
  5
57F68
  8
0
 10
116.4214316024535
 20
90.694098851604863
 30
0.0
  0
VERTEX
  5
57F69
  8
0
 10
116.3425481774437
 20
90.666190104104317
 30
0.0
  0
VERTEX
  5
57F6A
  8
0
 10
116.30298954133229
 20
90.652606803452059
 30
0.0
  0
VERTEX
  5
57F6B
  8
0
 10
116.2633565432684
 20
90.639271896096957
 30
0.0
  0
VERTEX
  5
57F6C
  8
0
 10
116.18387833059499
 20
90.613350081960121
 30
0.0
  0
VERTEX
  5
57F6D
  8
0
 10
116.1041354403398
 20
90.588429939106973
 30
0.0
  0
VERTEX
  5
57F6E
  8
0
 10
116.0241500080223
 20
90.564516151357353
 30
0.0
  0
VERTEX
  5
57F6F
  8
0
 10
115.9439443674662
 20
90.541612794404287
 30
0.0
  0
VERTEX
  5
57F70
  8
0
 10
115.8635410138268
 20
90.519723323361987
 30
0.0
  0
VERTEX
  5
57F71
  8
0
 10
115.8232722591932
 20
90.509159702494927
 30
0.0
  0
VERTEX
  5
57F72
  8
0
 10
115.78296256591111
 20
90.498850562388853
 30
0.0
  0
VERTEX
  5
57F73
  8
0
 10
115.7022317277609
 20
90.47899669638322
 30
0.0
  0
VERTEX
  5
57F74
  8
0
 10
115.621371249464
 20
90.460163264758194
 30
0.0
  0
VERTEX
  5
57F75
  8
0
 10
115.540403887151
 20
90.442351157308195
 30
0.0
  0
VERTEX
  5
57F76
  8
0
 10
115.4593523621389
 20
90.425560612185919
 30
0.0
  0
VERTEX
  5
57F77
  8
0
 10
115.37823932118511
 20
90.409791216395007
 30
0.0
  0
VERTEX
  5
57F78
  8
0
 10
115.3376668008478
 20
90.402289146942636
 30
0.0
  0
VERTEX
  5
57F79
  8
0
 10
115.2970874131869
 20
90.395041928896731
 30
0.0
  0
VERTEX
  5
57F7A
  8
0
 10
115.2159195620311
 20
90.381311129059455
 30
0.0
  0
VERTEX
  5
57F7B
  8
0
 10
115.1347590153004
 20
90.368596610261434
 30
0.0
  0
VERTEX
  5
57F7C
  8
0
 10
115.0536293051867
 20
90.356895557365434
 30
0.0
  0
VERTEX
  5
57F7D
  8
0
 10
114.9725542085779
 20
90.346204526642524
 30
0.0
  0
VERTEX
  5
57F7E
  8
0
 10
114.8915577070503
 20
90.336519428242369
 30
0.0
  0
VERTEX
  5
57F7F
  8
0
 10
114.8510964697885
 20
90.332052645162676
 30
0.0
  0
VERTEX
  5
57F80
  8
0
 10
114.81066394677271
 20
90.327835511166555
 30
0.0
  0
VERTEX
  5
57F81
  8
0
 10
114.729897198318
 20
90.320147350704147
 30
0.0
  0
VERTEX
  5
57F82
  8
0
 10
114.6492818163682
 20
90.313448838296054
 30
0.0
  0
VERTEX
  5
57F83
  8
0
 10
114.5688421992881
 20
90.307733173800017
 30
0.0
  0
VERTEX
  5
57F84
  8
0
 10
114.4886027485333
 20
90.302992860133841
 30
0.0
  0
VERTEX
  5
57F85
  8
0
 10
114.4085878278479
 20
90.299219700284439
 30
0.0
  0
VERTEX
  5
57F86
  8
0
 10
114.3686721595402
 20
90.297693049882469
 30
0.0
  0
VERTEX
  5
57F87
  8
0
 10
114.3288217222002
 20
90.296404796673556
 30
0.0
  0
VERTEX
  5
57F88
  8
0
 10
114.24932859639419
 20
90.294538552886721
 30
0.0
  0
VERTEX
  5
57F89
  8
0
 10
114.1701324532827
 20
90.293610677772918
 30
0.0
  0
VERTEX
  5
57F8A
  8
0
 10
114.13065319645629
 20
90.293495224065524
 30
0.0
  0
VERTEX
  5
57F8B
  8
0
 10
114.09117393963
 20
90.293610677772918
 30
0.0
  0
VERTEX
  5
57F8C
  8
0
 10
114.01197779651849
 20
90.294538552886721
 30
0.0
  0
VERTEX
  5
57F8D
  8
0
 10
113.9324846707125
 20
90.296404796673556
 30
0.0
  0
VERTEX
  5
57F8E
  8
0
 10
113.8926342333725
 20
90.297693049882469
 30
0.0
  0
VERTEX
  5
57F8F
  8
0
 10
113.85271856506481
 20
90.299219700284439
 30
0.0
  0
VERTEX
  5
57F90
  8
0
 10
113.77270364437931
 20
90.302992860133841
 30
0.0
  0
VERTEX
  5
57F91
  8
0
 10
113.6924641936245
 20
90.307733173800017
 30
0.0
  0
VERTEX
  5
57F92
  8
0
 10
113.6120245765446
 20
90.313448838296054
 30
0.0
  0
VERTEX
  5
57F93
  8
0
 10
113.5314091945947
 20
90.320147350704147
 30
0.0
  0
VERTEX
  5
57F94
  8
0
 10
113.45064244613999
 20
90.327835511166555
 30
0.0
  0
VERTEX
  5
57F95
  8
0
 10
113.4102099231242
 20
90.332052645162676
 30
0.0
  0
VERTEX
  5
57F96
  8
0
 10
113.3697486858624
 20
90.336519428242369
 30
0.0
  0
VERTEX
  5
57F97
  8
0
 10
113.2887521843348
 20
90.346204526642524
 30
0.0
  0
VERTEX
  5
57F98
  8
0
 10
113.2076770877261
 20
90.356895557365434
 30
0.0
  0
VERTEX
  5
57F99
  8
0
 10
113.1265473776122
 20
90.368596610261434
 30
0.0
  0
VERTEX
  5
57F9A
  8
0
 10
113.0453868308816
 20
90.381311129059455
 30
0.0
  0
VERTEX
  5
57F9B
  8
0
 10
112.9642189797259
 20
90.395041928896731
 30
0.0
  0
VERTEX
  5
57F9C
  8
0
 10
112.9236395920649
 20
90.402289146942636
 30
0.0
  0
VERTEX
  5
57F9D
  8
0
 10
112.8830670717276
 20
90.409791216395007
 30
0.0
  0
VERTEX
  5
57F9E
  8
0
 10
112.8019540307738
 20
90.425560612185919
 30
0.0
  0
VERTEX
  5
57F9F
  8
0
 10
112.7209025057617
 20
90.442351157308195
 30
0.0
  0
VERTEX
  5
57FA0
  8
0
 10
112.6399351434487
 20
90.460163264758194
 30
0.0
  0
VERTEX
  5
57FA1
  8
0
 10
112.5590746651518
 20
90.47899669638322
 30
0.0
  0
VERTEX
  5
57FA2
  8
0
 10
112.47834382700169
 20
90.498850562388967
 30
0.0
  0
VERTEX
  5
57FA3
  8
0
 10
112.4380341337195
 20
90.509159702494927
 30
0.0
  0
VERTEX
  5
57FA4
  8
0
 10
112.3977653790858
 20
90.519723323361987
 30
0.0
  0
VERTEX
  5
57FA5
  8
0
 10
112.3173620254465
 20
90.541612794404287
 30
0.0
  0
VERTEX
  5
57FA6
  8
0
 10
112.2371563848906
 20
90.564516151357353
 30
0.0
  0
VERTEX
  5
57FA7
  8
0
 10
112.1571709525728
 20
90.588429939106973
 30
0.0
  0
VERTEX
  5
57FA8
  8
0
 10
112.07742806231779
 20
90.613350081960121
 30
0.0
  0
VERTEX
  5
57FA9
  8
0
 10
111.9979498496444
 20
90.639271896096957
 30
0.0
  0
VERTEX
  5
57FAA
  8
0
 10
111.95831685158041
 20
90.652606803452059
 30
0.0
  0
VERTEX
  5
57FAB
  8
0
 10
111.9187582154691
 20
90.666190104104317
 30
0.0
  0
VERTEX
  5
57FAC
  8
0
 10
111.83987479045921
 20
90.694098851604863
 30
0.0
  0
VERTEX
  5
57FAD
  8
0
 10
111.7613209000198
 20
90.722991725999705
 30
0.0
  0
VERTEX
  5
57FAE
  8
0
 10
111.6831175298971
 20
90.752861777351214
 30
0.0
  0
VERTEX
  5
57FAF
  8
0
 10
111.6052852923919
 20
90.783701541433416
 30
0.0
  0
VERTEX
  5
57FB0
  8
0
 10
111.52784392448611
 20
90.815503260860524
 30
0.0
  0
VERTEX
  5
57FB1
  8
0
 10
111.4892726286931
 20
90.831763686382729
 30
0.0
  0
VERTEX
  5
57FB2
  8
0
 10
111.45080278746489
 20
90.848263042344797
 30
0.0
  0
VERTEX
  5
57FB3
  8
0
 10
111.3741774025891
 20
90.881974210726085
 30
0.0
  0
VERTEX
  5
57FB4
  8
0
 10
111.29798760382209
 20
90.916627701398966
 30
0.0
  0
VERTEX
  5
57FB5
  8
0
 10
111.2600622257158
 20
90.934304812996075
 30
0.0
  0
VERTEX
  5
57FB6
  8
0
 10
111.22225314193869
 20
90.952213821693604
 30
0.0
  0
VERTEX
  5
57FB7
  8
0
 10
111.14699364387469
 20
90.988722257695272
 30
0.0
  0
VERTEX
  5
57FB8
  8
0
 10
111.07222857326779
 20
91.02614208300146
 30
0.0
  0
VERTEX
  5
57FB9
  8
0
 10
111.035037476548
 20
91.045190187252516
 30
0.0
  0
VERTEX
  5
57FBA
  8
0
 10
110.9979771921621
 20
91.064461769390846
 30
0.0
  0
VERTEX
  5
57FBB
  8
0
 10
110.92425852384351
 20
91.10366919938771
 30
0.0
  0
VERTEX
  5
57FBC
  8
0
 10
110.85109131677321
 20
91.143751680712981
 30
0.0
  0
VERTEX
  5
57FBD
  8
0
 10
110.7784940095902
 20
91.184695962620495
 30
0.0
  0
VERTEX
  5
57FBE
  8
0
 10
110.7064846971477
 20
91.226488254124448
 30
0.0
  0
VERTEX
  5
57FBF
  8
0
 10
110.63508109755711
 20
91.269114244133803
 30
0.0
  0
VERTEX
  5
57FC0
  8
0
 10
110.59961186608599
 20
91.290735267034862
 30
0.0
  0
VERTEX
  5
57FC1
  8
0
 10
110.5643005202076
 20
91.312559123513225
 30
0.0
  0
VERTEX
  5
57FC2
  8
0
 10
110.4941598347383
 20
91.356807609101921
 30
0.0
  0
VERTEX
  5
57FC3
  8
0
 10
110.4246754409362
 20
91.401843969726102
 30
0.0
  0
VERTEX
  5
57FC4
  8
0
 10
110.355863234379
 20
91.447652057732185
 30
0.0
  0
VERTEX
  5
57FC5
  8
0
 10
110.2877383016969
 20
91.494215531021055
 30
0.0
  0
VERTEX
  5
57FC6
  8
0
 10
110.2203158709756
 20
91.541517216025923
 30
0.0
  0
VERTEX
  5
57FC7
  8
0
 10
110.1868728711932
 20
91.565439296451359
 30
0.0
  0
VERTEX
  5
57FC8
  8
0
 10
110.1536111858379
 20
91.589539151105555
 30
0.0
  0
VERTEX
  5
57FC9
  8
0
 10
110.0876391283899
 20
91.638262828930607
 30
0.0
  0
VERTEX
  5
57FCA
  8
0
 10
110.02241418472779
 20
91.687669216575046
 30
0.0
  0
VERTEX
  5
57FCB
  8
0
 10
109.9900862910018
 20
91.712622340432418
 30
0.0
  0
SEQEND
  5
57FCC
  8
0
  0
POLYLINE
  5
569B7
  8
0
 66
     1
 10
0.0
 20
0.0
 30
0.0
  0
VERTEX
  5
57FCD
  8
0
 10
127.9634881669333
 20
94.476922160637969
 30
0.0
  0
VERTEX
  5
57FCE
  8
0
 10
127.6770161884893
 20
94.503948146813855
 30
0.0
  0
VERTEX
  5
57FCF
  8
0
 10
127.1019926728229
 20
94.539682941170113
 30
0.0
  0
VERTEX
  5
57FD0
  8
0
 10
126.5253068055967
 20
94.550849478842466
 30
0.0
  0
VERTEX
  5
57FD1
  8
0
 10
126.2367592542347
 20
94.547187180568258
 30
0.0
  0
VERTEX
  5
57FD2
  8
0
 10
125.9482317605253
 20
94.537352629761145
 30
0.0
  0
VERTEX
  5
57FD3
  8
0
 10
125.3717083166493
 20
94.499150662291655
 30
0.0
  0
VERTEX
  5
57FD4
  8
0
 10
124.7970060673921
 20
94.436269878615022
 30
0.0
  0
VERTEX
  5
57FD5
  8
0
 10
124.2254790791028
 20
94.348833315020002
 30
0.0
  0
VERTEX
  5
57FD6
  8
0
 10
123.65848336624251
 20
94.237063029441316
 30
0.0
  0
VERTEX
  5
57FD7
  8
0
 10
123.0973548784103
 20
94.101278163624244
 30
0.0
  0
VERTEX
  5
57FD8
  8
0
 10
122.81939750035269
 20
94.024505071879275
 30
0.0
  0
VERTEX
  5
57FD9
  8
0
 10
122.54338568124651
 20
93.941887926750283
 30
0.0
  0
VERTEX
  5
57FDA
  8
0
 10
121.9978187994745
 20
93.759385923255437
 30
0.0
  0
VERTEX
  5
57FDB
  8
0
 10
121.46191719829589
 20
93.554374246034627
 30
0.0
  0
VERTEX
  5
57FDC
  8
0
 10
120.93691964537101
 20
93.327557638827344
 30
0.0
  0
VERTEX
  5
57FDD
  8
0
 10
120.42401890225391
 20
93.079738115235401
 30
0.0
  0
VERTEX
  5
57FDE
  8
0
 10
119.9243700682344
 20
92.811821694877963
 30
0.0
  0
VERTEX
  5
57FDF
  8
0
 10
119.67986354864409
 20
92.670638885464555
 30
0.0
  0
VERTEX
  5
57FE0
  8
0
 10
119.4387073148459
 20
92.524587048820209
 30
0.0
  0
VERTEX
  5
57FE1
  8
0
 10
118.9635797890049
 20
92.216023562691944
 30
0.0
  0
VERTEX
  5
57FE2
  8
0
 10
118.4990553692293
 20
91.885745403373676
 30
0.0
  0
VERTEX
  5
57FE3
  8
0
 10
118.2712201019109
 20
91.712622340432418
 30
0.0
  0
SEQEND
  5
57FE4
  8
0
  0
POLYLINE
  5
569B8
  8
0
 66
     1
 10
0.0
 20
0.0
 30
0.0
  0
VERTEX
  5
57FE5
  8
0
 10
130.023912546926
 20
94.260362831856014
 30
0.0
  0
VERTEX
  5
57FE6
  8
0
 10
129.68125022960299
 20
94.29637809267264
 30
0.0
  0
VERTEX
  5
57FE7
  8
0
 10
128.99501525607849
 20
94.368504294777495
 30
0.0
  0
VERTEX
  5
57FE8
  8
0
 10
128.30761147373721
 20
94.440753343639258
 30
0.0
  0
VERTEX
  5
57FE9
  8
0
 10
127.9634881669333
 20
94.476922160637969
 30
0.0
  0
SEQEND
  5
57FEA
  8
0
  0
POLYLINE
  5
569B9
  8
0
 66
     1
 10
0.0
 20
0.0
 30
0.0
  0
VERTEX
  5
57FEB
  8
0
 10
127.9634881669333
 20
99.610068287493064
 30
0.0
  0
VERTEX
  5
57FEC
  8
0
 10
128.30761147373721
 20
99.646237104491789
 30
0.0
  0
VERTEX
  5
57FED
  8
0
 10
128.9950152560786
 20
99.718486153353524
 30
0.0
  0
VERTEX
  5
57FEE
  8
0
 10
129.68125022960299
 20
99.790612355458421
 30
0.0
  0
VERTEX
  5
57FEF
  8
0
 10
130.023912546926
 20
99.826627616275005
 30
0.0
  0
SEQEND
  5
57FF0
  8
0
  0
POLYLINE
  5
569BA
  8
0
 66
     1
 10
0.0
 20
0.0
 30
0.0
  0
VERTEX
  5
57FF1
  8
0
 10
118.2712201019109
 20
102.3743681076986
 30
0.0
  0
VERTEX
  5
57FF2
  8
0
 10
118.49905539593119
 20
102.20124502491051
 30
0.0
  0
VERTEX
  5
57FF3
  8
0
 10
118.9635798809875
 20
101.87096682292
 30
0.0
  0
VERTEX
  5
57FF4
  8
0
 10
119.438707489899
 20
101.5624032907787
 30
0.0
  0
VERTEX
  5
57FF5
  8
0
 10
119.67986375483829
 20
101.4163514407131
 30
0.0
  0
VERTEX
  5
57FF6
  8
0
 10
119.9243702684348
 20
101.2751686404284
 30
0.0
  0
VERTEX
  5
57FF7
  8
0
 10
120.42401908751511
 20
101.0072522385108
 30
0.0
  0
VERTEX
  5
57FF8
  8
0
 10
120.93691981245919
 20
100.7594327328766
 30
0.0
  0
VERTEX
  5
57FF9
  8
0
 10
121.4619173446342
 20
100.532616142519
 30
0.0
  0
VERTEX
  5
57FFA
  8
0
 10
121.99781892343169
 20
100.3276044804513
 30
0.0
  0
VERTEX
  5
57FFB
  8
0
 10
122.54338578228111
 20
100.14510248996
 30
0.0
  0
VERTEX
  5
57FFC
  8
0
 10
122.8193975899282
 20
100.0624853504778
 30
0.0
  0
VERTEX
  5
57FFD
  8
0
 10
123.09735495624579
 20
99.98571226390041
 30
0.0
  0
VERTEX
  5
57FFE
  8
0
 10
123.65848342127011
 20
99.849927406613261
 30
0.0
  0
VERTEX
  5
57FFF
  8
0
 10
124.22547911369711
 20
99.738157127057775
 30
0.0
  0
VERTEX
  5
58000
  8
0
 10
124.79700608542601
 20
99.650720567151112
 30
0.0
  0
VERTEX
  5
58001
  8
0
 10
125.37170832313571
 20
99.587839785269935
 30
0.0
  0
VERTEX
  5
58002
  8
0
 10
125.9482317612101
 20
99.549637818339207
 30
0.0
  0
VERTEX
  5
58003
  8
0
 10
126.23675925427951
 20
99.539803267561766
 30
0.0
  0
VERTEX
  5
58004
  8
0
 10
126.5253068002735
 20
99.536140969299268
 30
0.0
  0
VERTEX
  5
58005
  8
0
 10
127.1019926625864
 20
99.547307506543817
 30
0.0
  0
VERTEX
  5
58006
  8
0
 10
127.6770161825286
 20
99.583042300818889
 30
0.0
  0
VERTEX
  5
58007
  8
0
 10
127.9634881669333
 20
99.610068287493064
 30
0.0
  0
SEQEND
  5
58008
  8
0
  0
POLYLINE
  5
569BB
  8
0
 66
     1
 10
0.0
 20
0.0
 30
0.0
  0
VERTEX
  5
58009
  8
0
 10
100.2978182259794
 20
99.610068287493064
 30
0.0
  0
VERTEX
  5
5800A
  8
0
 10
100.5842902044234
 20
99.583042301317178
 30
0.0
  0
VERTEX
  5
5800B
  8
0
 10
101.1593137200898
 20
99.547307506960934
 30
0.0
  0
VERTEX
  5
5800C
  8
0
 10
101.735999587316
 20
99.536140969288596
 30
0.0
  0
VERTEX
  5
5800D
  8
0
 10
102.024547138678
 20
99.539803267562803
 30
0.0
  0
VERTEX
  5
5800E
  8
0
 10
102.3130746323874
 20
99.549637818369902
 30
0.0
  0
VERTEX
  5
5800F
  8
0
 10
102.8895980762634
 20
99.587839785839392
 30
0.0
  0
VERTEX
  5
58010
  8
0
 10
103.4643003255206
 20
99.650720569516025
 30
0.0
  0
VERTEX
  5
58011
  8
0
 10
104.0358273138099
 20
99.738157133111045
 30
0.0
  0
VERTEX
  5
58012
  8
0
 10
104.60282302667019
 20
99.849927418689745
 30
0.0
  0
VERTEX
  5
58013
  8
0
 10
105.1639515145024
 20
99.985712284506818
 30
0.0
  0
VERTEX
  5
58014
  8
0
 10
105.44190889255999
 20
100.0624853762517
 30
0.0
  0
VERTEX
  5
58015
  8
0
 10
105.7179207116663
 20
100.14510252138059
 30
0.0
  0
VERTEX
  5
58016
  8
0
 10
106.2634875934383
 20
100.3276045248756
 30
0.0
  0
VERTEX
  5
58017
  8
0
 10
106.79938919461679
 20
100.53261620209641
 30
0.0
  0
VERTEX
  5
58018
  8
0
 10
107.32438674754169
 20
100.7594328093037
 30
0.0
  0
VERTEX
  5
58019
  8
0
 10
107.8372874906588
 20
101.0072523328956
 30
0.0
  0
VERTEX
  5
5801A
  8
0
 10
108.33693632467831
 20
101.2751687532531
 30
0.0
  0
VERTEX
  5
5801B
  8
0
 10
108.58144284426869
 20
101.41635156266651
 30
0.0
  0
VERTEX
  5
5801C
  8
0
 10
108.8225990780668
 20
101.5624033993108
 30
0.0
  0
VERTEX
  5
5801D
  8
0
 10
109.2977266039079
 20
101.8709668854391
 30
0.0
  0
VERTEX
  5
5801E
  8
0
 10
109.76225102368331
 20
102.2012450447573
 30
0.0
  0
VERTEX
  5
5801F
  8
0
 10
109.9900862910018
 20
102.3743681076986
 30
0.0
  0
SEQEND
  5
58020
  8
0
  0
POLYLINE
  5
569BC
  8
0
 66
     1
 10
0.0
 20
0.0
 30
0.0
  0
VERTEX
  5
58021
  8
0
 10
98.237393845987185
 20
99.826627616274905
 30
0.0
  0
VERTEX
  5
58022
  8
0
 10
98.580056163310246
 20
99.790612355458293
 30
0.0
  0
VERTEX
  5
58023
  8
0
 10
99.266291136834411
 20
99.718486153353524
 30
0.0
  0
VERTEX
  5
58024
  8
0
 10
99.953694919175646
 20
99.646237104491789
 30
0.0
  0
VERTEX
  5
58025
  8
0
 10
100.2978182259794
 20
99.610068287493064
 30
0.0
  0
SEQEND
  5
58026
  8
0
  0
POLYLINE
  5
569BD
  8
0
 66
     1
 10
0.0
 20
0.0
 30
0.0
  0
VERTEX
  5
58027
  8
0
 10
91.416854160040884
 20
93.543495224065524
 30
0.0
  0
VERTEX
  5
58028
  8
0
 10
91.509790676607963
 20
93.553263245567578
 30
0.0
  0
VERTEX
  5
58029
  8
0
 10
91.705238923040838
 20
93.57380568404291
 30
0.0
  0
VERTEX
  5
5802A
  8
0
 10
91.910449521189193
 20
93.595374187029748
 30
0.0
  0
VERTEX
  5
5802B
  8
0
 10
92.015427275910838
 20
93.606407793659628
 30
0.0
  0
VERTEX
  5
5802C
  8
0
 10
92.121213366132679
 20
93.617526359774175
 30
0.0
  0
VERTEX
  5
5802D
  8
0
 10
92.340801804688226
 20
93.64060603468171
 30
0.0
  0
VERTEX
  5
5802E
  8
0
 10
92.579443873052242
 20
93.665688326779346
 30
0.0
  0
VERTEX
  5
5802F
  8
0
 10
92.834535693996585
 20
93.692499557542206
 30
0.0
  0
VERTEX
  5
58030
  8
0
 10
93.10268883587662
 20
93.720683588453554
 30
0.0
  0
VERTEX
  5
58031
  8
0
 10
93.380061870584868
 20
93.749836669149914
 30
0.0
  0
VERTEX
  5
58032
  8
0
 10
93.520859252202399
 20
93.764635070272234
 30
0.0
  0
VERTEX
  5
58033
  8
0
 10
93.662278390042957
 20
93.779498820606946
 30
0.0
  0
VERTEX
  5
58034
  8
0
 10
93.944474016493345
 20
93.809158776120299
 30
0.0
  0
VERTEX
  5
58035
  8
0
 10
94.22457954997526
 20
93.838599054010629
 30
0.0
  0
VERTEX
  5
58036
  8
0
 10
94.518656299232134
 20
93.869507765850585
 30
0.0
  0
VERTEX
  5
58037
  8
0
 10
94.826273774304923
 20
93.901839665322555
 30
0.0
  0
VERTEX
  5
58038
  8
0
 10
95.142994995239292
 20
93.935128407041262
 30
0.0
  0
VERTEX
  5
58039
  8
0
 10
95.303319196738116
 20
93.951979159634334
 30
0.0
  0
VERTEX
  5
5803A
  8
0
 10
95.464185117976953
 20
93.968886849266497
 30
0.0
  0
VERTEX
  5
5803B
  8
0
 10
95.785087145284805
 20
94.002615011441904
 30
0.0
  0
VERTEX
  5
5803C
  8
0
 10
96.100704551660328
 20
94.035787737575461
 30
0.0
  0
VERTEX
  5
5803D
  8
0
 10
96.254945535280072
 20
94.051999118205472
 30
0.0
  0
SEQEND
  5
5803E
  8
0
  0
POLYLINE
  5
569BE
  8
0
 66
     1
 10
0.0
 20
0.0
 30
0.0
  0
VERTEX
  5
5803F
  8
0
 10
96.254945535280072
 20
100.0349913299255
 30
0.0
  0
VERTEX
  5
58040
  8
0
 10
96.100704551660328
 20
100.0512027105556
 30
0.0
  0
VERTEX
  5
58041
  8
0
 10
95.785087145284805
 20
100.0843754366891
 30
0.0
  0
VERTEX
  5
58042
  8
0
 10
95.464185117976953
 20
100.11810359886449
 30
0.0
  0
VERTEX
  5
58043
  8
0
 10
95.303319196738116
 20
100.1350112884967
 30
0.0
  0
VERTEX
  5
58044
  8
0
 10
95.142994995239292
 20
100.1518620410898
 30
0.0
  0
VERTEX
  5
58045
  8
0
 10
94.826273774304795
 20
100.18515078280851
 30
0.0
  0
VERTEX
  5
58046
  8
0
 10
94.518656299232134
 20
100.21748268228041
 30
0.0
  0
VERTEX
  5
58047
  8
0
 10
94.22457954997526
 20
100.2483913941204
 30
0.0
  0
VERTEX
  5
58048
  8
0
 10
93.944474016493345
 20
100.27783167201071
 30
0.0
  0
VERTEX
  5
58049
  8
0
 10
93.662278390042957
 20
100.3074916275241
 30
0.0
  0
VERTEX
  5
5804A
  8
0
 10
93.520859252202399
 20
100.3223553778588
 30
0.0
  0
VERTEX
  5
5804B
  8
0
 10
93.380061870584868
 20
100.3371537789811
 30
0.0
  0
VERTEX
  5
5804C
  8
0
 10
93.10268883587662
 20
100.36630685967749
 30
0.0
  0
VERTEX
  5
5804D
  8
0
 10
92.834535693996585
 20
100.3944908905888
 30
0.0
  0
VERTEX
  5
5804E
  8
0
 10
92.579443873052242
 20
100.4213021213517
 30
0.0
  0
VERTEX
  5
5804F
  8
0
 10
92.340801804688226
 20
100.44638441344929
 30
0.0
  0
VERTEX
  5
58050
  8
0
 10
92.121213366132679
 20
100.4694640883568
 30
0.0
  0
VERTEX
  5
58051
  8
0
 10
92.015427275910838
 20
100.48058265447141
 30
0.0
  0
VERTEX
  5
58052
  8
0
 10
91.910449521189193
 20
100.4916162611014
 30
0.0
  0
VERTEX
  5
58053
  8
0
 10
91.705238923040838
 20
100.51318476408809
 30
0.0
  0
VERTEX
  5
58054
  8
0
 10
91.509790676607963
 20
100.5337272025634
 30
0.0
  0
VERTEX
  5
58055
  8
0
 10
91.416854160040884
 20
100.5434952240655
 30
0.0
  0
SEQEND
  5
58056
  8
0
  0
POLYLINE
  5
569BF
  8
0
 66
     1
 10
0.0
 20
0.0
 30
0.0
  0
VERTEX
  5
58057
  8
0
 10
91.416854160040884
 20
100.5434952240655
 30
0.0
  0
VERTEX
  5
58058
  8
0
 10
91.359086329937455
 20
100.54206415113789
 30
0.0
  0
VERTEX
  5
58059
  8
0
 10
91.247255747120107
 20
100.53110213391609
 30
0.0
  0
VERTEX
  5
5805A
  8
0
 10
91.140806295330904
 20
100.51036668534159
 30
0.0
  0
VERTEX
  5
5805B
  8
0
 10
91.089624957621695
 20
100.49666433116001
 30
0.0
  0
VERTEX
  5
5805C
  8
0
 10
91.039838918992018
 20
100.48089858195701
 30
0.0
  0
VERTEX
  5
5805D
  8
0
 10
90.944592420630784
 20
100.44363686285971
 30
0.0
  0
VERTEX
  5
5805E
  8
0
 10
90.855321105878716
 20
100.3994681518769
 30
0.0
  0
VERTEX
  5
5805F
  8
0
 10
90.772093653394791
 20
100.3491428071044
 30
0.0
  0
VERTEX
  5
58060
  8
0
 10
90.694827258521059
 20
100.29322817797539
 30
0.0
  0
VERTEX
  5
58061
  8
0
 10
90.623594335193175
 20
100.23231085493261
 30
0.0
  0
VERTEX
  5
58062
  8
0
 10
90.590262117901815
 20
100.2001490946037
 30
0.0
  0
VERTEX
  5
58063
  8
0
 10
90.558463525168804
 20
100.16694034004411
 30
0.0
  0
VERTEX
  5
58064
  8
0
 10
90.499496622833377
 20
100.0976380052001
 30
0.0
  0
VERTEX
  5
58065
  8
0
 10
90.446746263606201
 20
100.0249040008359
 30
0.0
  0
VERTEX
  5
58066
  8
0
 10
90.400247052864074
 20
99.949210510947992
 30
0.0
  0
VERTEX
  5
58067
  8
0
 10
90.359969995839833
 20
99.870900388787859
 30
0.0
  0
VERTEX
  5
58068
  8
0
 10
90.325928559458362
 20
99.790340885032165
 30
0.0
  0
VERTEX
  5
58069
  8
0
 10
90.311255051077637
 20
99.749335901448291
 30
0.0
  0
VERTEX
  5
5806A
  8
0
 10
90.298151081255696
 20
99.707909412519825
 30
0.0
  0
VERTEX
  5
5806B
  8
0
 10
90.27666576847696
 20
99.623975361654644
 30
0.0
  0
VERTEX
  5
5806C
  8
0
 10
90.261500047554023
 20
99.538902570956935
 30
0.0
  0
VERTEX
  5
5806D
  8
0
 10
90.256295085187617
 20
99.496049968591038
 30
0.0
  0
SEQEND
  5
5806E
  8
0
  0
POLYLINE
  5
569C0
  8
0
 66
     1
 10
0.0
 20
0.0
 30
0.0
  0
VERTEX
  5
5806F
  8
0
 10
90.256295085187617
 20
94.590940479540009
 30
0.0
  0
VERTEX
  5
58070
  8
0
 10
90.261500047553682
 20
94.548087877177068
 30
0.0
  0
VERTEX
  5
58071
  8
0
 10
90.276665768475127
 20
94.463015086484944
 30
0.0
  0
VERTEX
  5
58072
  8
0
 10
90.298151081251604
 20
94.379081035625404
 30
0.0
  0
VERTEX
  5
58073
  8
0
 10
90.311255051072067
 20
94.337654546699483
 30
0.0
  0
VERTEX
  5
58074
  8
0
 10
90.325928559451086
 20
94.296649563118208
 30
0.0
  0
VERTEX
  5
58075
  8
0
 10
90.359969995828578
 20
94.216090059367275
 30
0.0
  0
VERTEX
  5
58076
  8
0
 10
90.400247052848044
 20
94.137779937211704
 30
0.0
  0
VERTEX
  5
58077
  8
0
 10
90.446746263586306
 20
94.062086447324887
 30
0.0
  0
VERTEX
  5
58078
  8
0
 10
90.499496622809261
 20
93.989352442961604
 30
0.0
  0
VERTEX
  5
58079
  8
0
 10
90.558463525138563
 20
93.920050108119781
 30
0.0
  0
VERTEX
  5
5807A
  8
0
 10
90.590262117868065
 20
93.886841353561195
 30
0.0
  0
VERTEX
  5
5807B
  8
0
 10
90.623594335155644
 20
93.854679593233186
 30
0.0
  0
VERTEX
  5
5807C
  8
0
 10
90.694827258475925
 20
93.793762270191237
 30
0.0
  0
VERTEX
  5
5807D
  8
0
 10
90.772093653342836
 20
93.737847641061094
 30
0.0
  0
VERTEX
  5
5807E
  8
0
 10
90.855321105825624
 20
93.687522296283205
 30
0.0
  0
VERTEX
  5
5807F
  8
0
 10
90.944592420604749
 20
93.643353585282753
 30
0.0
  0
VERTEX
  5
58080
  8
0
 10
91.039838918983605
 20
93.606091866176854
 30
0.0
  0
VERTEX
  5
58081
  8
0
 10
91.089624957618994
 20
93.590326116971838
 30
0.0
  0
VERTEX
  5
58082
  8
0
 10
91.140806295332368
 20
93.576623762789055
 30
0.0
  0
VERTEX
  5
58083
  8
0
 10
91.247255747121812
 20
93.555888314214727
 30
0.0
  0
VERTEX
  5
58084
  8
0
 10
91.359086329937327
 20
93.544926296993268
 30
0.0
  0
VERTEX
  5
58085
  8
0
 10
91.416854160040884
 20
93.543495224065524
 30
0.0
  0
SEQEND
  5
58086
  8
0
  0
POLYLINE
  5
569C1
  8
0
 66
     1
 10
0.0
 20
0.0
 30
0.0
  0
VERTEX
  5
58087
  8
0
 10
132.00636085763259
 20
94.051999118205472
 30
0.0
  0
VERTEX
  5
58088
  8
0
 10
132.16060184125229
 20
94.035787737575575
 30
0.0
  0
VERTEX
  5
58089
  8
0
 10
132.4762192476278
 20
94.002615011441904
 30
0.0
  0
VERTEX
  5
5808A
  8
0
 10
132.79712127493571
 20
93.968886849266497
 30
0.0
  0
VERTEX
  5
5808B
  8
0
 10
132.9579871961746
 20
93.951979159634334
 30
0.0
  0
VERTEX
  5
5808C
  8
0
 10
133.11831139767341
 20
93.935128407041262
 30
0.0
  0
VERTEX
  5
5808D
  8
0
 10
133.43503261860781
 20
93.901839665322555
 30
0.0
  0
VERTEX
  5
5808E
  8
0
 10
133.7426500936806
 20
93.869507765850585
 30
0.0
  0
VERTEX
  5
5808F
  8
0
 10
134.0367268429375
 20
93.838599054010629
 30
0.0
  0
VERTEX
  5
58090
  8
0
 10
134.3168323764194
 20
93.809158776120299
 30
0.0
  0
VERTEX
  5
58091
  8
0
 10
134.5990280028698
 20
93.779498820606946
 30
0.0
  0
VERTEX
  5
58092
  8
0
 10
134.7404471407103
 20
93.764635070272234
 30
0.0
  0
VERTEX
  5
58093
  8
0
 10
134.88124452232771
 20
93.749836669149914
 30
0.0
  0
VERTEX
  5
58094
  8
0
 10
135.15861755703611
 20
93.720683588453554
 30
0.0
  0
VERTEX
  5
58095
  8
0
 10
135.42677069891599
 20
93.692499557542206
 30
0.0
  0
VERTEX
  5
58096
  8
0
 10
135.68186251986049
 20
93.665688326779346
 30
0.0
  0
VERTEX
  5
58097
  8
0
 10
135.9205045882245
 20
93.64060603468171
 30
0.0
  0
VERTEX
  5
58098
  8
0
 10
136.14009302677999
 20
93.617526359774175
 30
0.0
  0
VERTEX
  5
58099
  8
0
 10
136.24587911700189
 20
93.606407793659628
 30
0.0
  0
VERTEX
  5
5809A
  8
0
 10
136.35085687172349
 20
93.595374187029634
 30
0.0
  0
VERTEX
  5
5809B
  8
0
 10
136.55606746987189
 20
93.57380568404291
 30
0.0
  0
VERTEX
  5
5809C
  8
0
 10
136.75151571630471
 20
93.553263245567578
 30
0.0
  0
VERTEX
  5
5809D
  8
0
 10
136.84445223287179
 20
93.543495224065524
 30
0.0
  0
SEQEND
  5
5809E
  8
0
  0
POLYLINE
  5
569C2
  8
0
 66
     1
 10
0.0
 20
0.0
 30
0.0
  0
VERTEX
  5
5809F
  8
0
 10
136.8444522328717
 20
93.543495224065524
 30
0.0
  0
VERTEX
  5
580A0
  8
0
 10
136.9022200629752
 20
93.544926296993154
 30
0.0
  0
VERTEX
  5
580A1
  8
0
 10
137.01405064579151
 20
93.555888314214826
 30
0.0
  0
VERTEX
  5
580A2
  8
0
 10
137.1205000975807
 20
93.576623762789055
 30
0.0
  0
VERTEX
  5
580A3
  8
0
 10
137.17168143529199
 20
93.590326116971383
 30
0.0
  0
VERTEX
  5
580A4
  8
0
 10
137.2214674739246
 20
93.606091866175348
 30
0.0
  0
VERTEX
  5
580A5
  8
0
 10
137.31671397229479
 20
93.643353585276955
 30
0.0
  0
VERTEX
  5
580A6
  8
0
 10
137.4059852870605
 20
93.687522296268654
 30
0.0
  0
VERTEX
  5
580A7
  8
0
 10
137.4892127395438
 20
93.737847641043814
 30
0.0
  0
VERTEX
  5
580A8
  8
0
 10
137.56647913441401
 20
93.793762270173275
 30
0.0
  0
VERTEX
  5
580A9
  8
0
 10
137.6377120577381
 20
93.854679593215565
 30
0.0
  0
VERTEX
  5
580AA
  8
0
 10
137.67104427502761
 20
93.886841353544014
 30
0.0
  0
VERTEX
  5
580AB
  8
0
 10
137.70284286775879
 20
93.920050108102956
 30
0.0
  0
VERTEX
  5
580AC
  8
0
 10
137.76180977009119
 20
93.989352442945929
 30
0.0
  0
VERTEX
  5
580AD
  8
0
 10
137.81456012931619
 20
94.062086447309539
 30
0.0
  0
VERTEX
  5
580AE
  8
0
 10
137.86105934005641
 20
94.137779937196825
 30
0.0
  0
VERTEX
  5
580AF
  8
0
 10
137.9013363970783
 20
94.216090059354784
 30
0.0
  0
VERTEX
  5
580B0
  8
0
 10
137.93537783345789
 20
94.29664956310809
 30
0.0
  0
VERTEX
  5
580B1
  8
0
 10
137.95005134183779
 20
94.337654546690729
 30
0.0
  0
VERTEX
  5
580B2
  8
0
 10
137.96315531165911
 20
94.379081035618015
 30
0.0
  0
VERTEX
  5
580B3
  8
0
 10
137.98464062443659
 20
94.463015086480496
 30
0.0
  0
VERTEX
  5
580B4
  8
0
 10
137.99980634535879
 20
94.54808787717549
 30
0.0
  0
VERTEX
  5
580B5
  8
0
 10
138.00501130772511
 20
94.590940479540009
 30
0.0
  0
SEQEND
  5
580B6
  8
0
  0
POLYLINE
  5
569C3
  8
0
 66
     1
 10
0.0
 20
0.0
 30
0.0
  0
VERTEX
  5
580B7
  8
0
 10
138.00501130772511
 20
99.496049968591038
 30
0.0
  0
VERTEX
  5
580B8
  8
0
 10
137.99980634535899
 20
99.538902570954306
 30
0.0
  0
VERTEX
  5
580B9
  8
0
 10
137.98464062443759
 20
99.623975361646231
 30
0.0
  0
VERTEX
  5
580BA
  8
0
 10
137.96315531166121
 20
99.707909412505757
 30
0.0
  0
VERTEX
  5
580BB
  8
0
 10
137.95005134184069
 20
99.749335901431451
 30
0.0
  0
VERTEX
  5
580BC
  8
0
 10
137.9353778334617
 20
99.790340885012725
 30
0.0
  0
VERTEX
  5
580BD
  8
0
 10
137.90133639708421
 20
99.870900388763417
 30
0.0
  0
VERTEX
  5
580BE
  8
0
 10
137.86105934006491
 20
99.949210510919002
 30
0.0
  0
VERTEX
  5
580BF
  8
0
 10
137.81456012932659
 20
100.0249040008058
 30
0.0
  0
VERTEX
  5
580C0
  8
0
 10
137.7618097701037
 20
100.0976380051691
 30
0.0
  0
VERTEX
  5
580C1
  8
0
 10
137.70284286777439
 20
100.166940340011
 30
0.0
  0
VERTEX
  5
580C2
  8
0
 10
137.67104427504489
 20
100.2001490945696
 30
0.0
  0
VERTEX
  5
580C3
  8
0
 10
137.63771205775731
 20
100.23231085489761
 30
0.0
  0
VERTEX
  5
580C4
  8
0
 10
137.56647913443689
 20
100.2932281779397
 30
0.0
  0
VERTEX
  5
580C5
  8
0
 10
137.48921273957001
 20
100.3491428070698
 30
0.0
  0
VERTEX
  5
580C6
  8
0
 10
137.40598528708719
 20
100.3994681518477
 30
0.0
  0
VERTEX
  5
580C7
  8
0
 10
137.31671397230809
 20
100.44363686284819
 30
0.0
  0
VERTEX
  5
580C8
  8
0
 10
137.22146747392921
 20
100.48089858195419
 30
0.0
  0
VERTEX
  5
580C9
  8
0
 10
137.17168143529369
 20
100.4966643311592
 30
0.0
  0
VERTEX
  5
580CA
  8
0
 10
137.1205000975803
 20
100.51036668534201
 30
0.0
  0
VERTEX
  5
580CB
  8
0
 10
137.0140506457908
 20
100.53110213391631
 30
0.0
  0
VERTEX
  5
580CC
  8
0
 10
136.9022200629754
 20
100.54206415113769
 30
0.0
  0
VERTEX
  5
580CD
  8
0
 10
136.84445223287179
 20
100.5434952240655
 30
0.0
  0
SEQEND
  5
580CE
  8
0
  0
POLYLINE
  5
569C4
  8
0
 66
     1
 10
0.0
 20
0.0
 30
0.0
  0
VERTEX
  5
580CF
  8
0
 10
136.84445223287179
 20
100.5434952240655
 30
0.0
  0
VERTEX
  5
580D0
  8
0
 10
136.75151571630471
 20
100.5337272025634
 30
0.0
  0
VERTEX
  5
580D1
  8
0
 10
136.55606746987189
 20
100.51318476408809
 30
0.0
  0
VERTEX
  5
580D2
  8
0
 10
136.35085687172349
 20
100.4916162611013
 30
0.0
  0
VERTEX
  5
580D3
  8
0
 10
136.24587911700189
 20
100.48058265447141
 30
0.0
  0
VERTEX
  5
580D4
  8
0
 10
136.14009302677999
 20
100.4694640883568
 30
0.0
  0
VERTEX
  5
580D5
  8
0
 10
135.9205045882245
 20
100.44638441344929
 30
0.0
  0
VERTEX
  5
580D6
  8
0
 10
135.68186251986049
 20
100.4213021213517
 30
0.0
  0
VERTEX
  5
580D7
  8
0
 10
135.42677069891599
 20
100.3944908905888
 30
0.0
  0
VERTEX
  5
580D8
  8
0
 10
135.15861755703611
 20
100.36630685967749
 30
0.0
  0
VERTEX
  5
580D9
  8
0
 10
134.88124452232771
 20
100.3371537789811
 30
0.0
  0
VERTEX
  5
580DA
  8
0
 10
134.7404471407103
 20
100.3223553778588
 30
0.0
  0
VERTEX
  5
580DB
  8
0
 10
134.5990280028698
 20
100.3074916275241
 30
0.0
  0
VERTEX
  5
580DC
  8
0
 10
134.3168323764194
 20
100.27783167201071
 30
0.0
  0
VERTEX
  5
580DD
  8
0
 10
134.0367268429375
 20
100.2483913941204
 30
0.0
  0
VERTEX
  5
580DE
  8
0
 10
133.7426500936806
 20
100.21748268228041
 30
0.0
  0
VERTEX
  5
580DF
  8
0
 10
133.43503261860781
 20
100.18515078280851
 30
0.0
  0
VERTEX
  5
580E0
  8
0
 10
133.11831139767341
 20
100.1518620410898
 30
0.0
  0
VERTEX
  5
580E1
  8
0
 10
132.9579871961746
 20
100.1350112884967
 30
0.0
  0
VERTEX
  5
580E2
  8
0
 10
132.79712127493571
 20
100.11810359886449
 30
0.0
  0
VERTEX
  5
580E3
  8
0
 10
132.4762192476278
 20
100.0843754366891
 30
0.0
  0
VERTEX
  5
580E4
  8
0
 10
132.16060184125229
 20
100.0512027105554
 30
0.0
  0
VERTEX
  5
580E5
  8
0
 10
132.00636085763259
 20
100.0349913299255
 30
0.0
  0
SEQEND
  5
580E6
  8
0
  0
ARC
  5
569C5
  8
0
 10
114.13065319645619
 20
97.043495224065538
 30
0.0
 40
23.99999999999984
 50
174.13471848854229
 51
185.86528180909301
  0
ARC
  5
569C6
  8
0
 10
114.13065319645639
 20
97.043495224065538
 30
0.0
 40
23.999999999999929
 50
354.13471833758342
 51
5.865281809092969
  0
LINE
  5
56A4F
  8
2
 10
118.13065319645629
 20
30.739236260468729
 30
0.0
 11
118.13065319645629
 21
43.739236260468729
 31
0.0
  0
LINE
  5
56A50
  8
2
 10
110.13065319645629
 20
30.739236260468729
 30
0.0
 11
110.13065319645629
 21
43.739236260468729
 31
0.0
  0
LINE
  5
56A81
  8
2
 10
109.9306531964564
 20
43.939236260468768
 30
0.0
 11
118.3306531964564
 21
43.939236260468768
 31
0.0
  0
LINE
  5
56A82
  8
2
 10
110.8071531964564
 20
43.062736260468689
 30
0.0
 11
117.4541531964564
 21
43.062736260468689
 31
0.0
  0
LINE
  5
56A83
  8
2
 10
110.8071531964564
 20
31.415736260468758
 30
0.0
 11
117.4541531964564
 21
31.415736260468758
 31
0.0
  0
LINE
  5
56A96
  8
2
 10
118.3306531964564
 20
43.939236260468768
 30
0.0
 11
118.3306531964564
 21
52.85114781668382
 31
0.0
  0
LINE
  5
56A97
  8
2
 10
109.9306531964564
 20
52.85114781668382
 30
0.0
 11
109.9306531964564
 21
43.939236260468768
 31
0.0
  0
LINE
  5
56A98
  8
2
 10
117.4541531964564
 20
43.062736260468689
 30
0.0
 11
118.3306531964564
 21
43.939236260468768
 31
0.0
  0
LINE
  5
56A99
  8
2
 10
109.9306531964564
 20
43.939236260468768
 30
0.0
 11
110.8071531964564
 21
43.062736260468689
 31
0.0
  0
LINE
  5
56A9A
  8
2
 10
117.4541531964564
 20
31.415736260468758
 30
0.0
 11
117.4541531964564
 21
43.062736260468689
 31
0.0
  0
LINE
  5
56A9B
  8
2
 10
110.8071531964564
 20
43.062736260468689
 30
0.0
 11
110.8071531964564
 21
31.415736260468758
 31
0.0
  0
LINE
  5
56A9C
  8
2
 10
118.13065319645629
 20
30.739236260468729
 30
0.0
 11
117.4541531964564
 21
31.415736260468758
 31
0.0
  0
LINE
  5
56A9D
  8
2
 10
110.8071531964564
 20
31.415736260468758
 30
0.0
 11
110.13065319645629
 21
30.739236260468729
 31
0.0
  0
TEXT
  5
57B3B
  8
0
 62
     3
 10
0.0
 20
0.0
 30
0.0
 40
10.0
  1
WN48ANT-SUS
  7
STANDARD1
  0
VIEWPORT
  5
1EC2F
 67
     1
  8
0
 10
261.51769911504419
 20
148.5
 30
0.0
 40
523.0353982300885
 41
297.0
 68
     1
 69
     1
1001
ACAD
1000
MVIEW
1002
{
1070
    16
1010
0.0
1020
0.0
1030
0.0
1010
0.0
1020
0.0
1030
1.0
1040
0.0
1040
297.0
1040
261.51769911504419
1040
148.5
1040
50.0
1040
0.0
1040
0.0
1070
     0
1070
   100
1070
     1
1070
     1
1070
     0
1070
     0
1070
     0
1070
     0
1040
0.0
1040
0.0
1040
0.0
1040
1.0
1040
1.0
1040
10.0
1040
10.0
1070
     0
1002
{
1002
}
1002
}
  0
ENDSEC
  0
EOF
