  0
SECTION
  2
HEADER
  9
$ACADVER
  1
AC1009
  9
$INSBASE
 10
0.0
 20
0.0
 30
0.0
  9
$EXTMIN
 10
0.0
 20
-2.960436562073669
 30
0.0
  9
$EXTMAX
 10
297.32687244463801
 20
152.00000796594401
 30
0.0
  9
$LIMMIN
 10
0.0
 20
0.0
  9
$LIMMAX
 10
375.0
 20
270.0
  9
$ORTHOMODE
 70
     1
  9
$REGENMODE
 70
     1
  9
$FILLMODE
 70
     1
  9
$QTEXTMODE
 70
     0
  9
$MIRRTEXT
 70
     0
  9
$DRAGMODE
 70
     2
  9
$LTSCALE
 40
10.0
  9
$OSMODE
 70
    55
  9
$ATTMODE
 70
     1
  9
$TEXTSIZE
 40
0.2
  9
$TRACEWID
 40
0.05
  9
$TEXTSTYLE
  7
STANDARD
  9
$CLAYER
  8
0
  9
$CELTYPE
  6
BYLAYER
  9
$CECOLOR
 62
   256
  9
$DIMSCALE
 40
1.0
  9
$DIMASZ
 40
3.0
  9
$DIMEXO
 40
2.0
  9
$DIMDLI
 40
0.38
  9
$DIMRND
 40
0.0
  9
$DIMDLE
 40
0.0
  9
$DIMEXE
 40
2.0
  9
$DIMTP
 40
0.0
  9
$DIMTM
 40
0.0
  9
$DIMTXT
 40
3.2000000000000002
  9
$DIMCEN
 40
0.0
  9
$DIMTSZ
 40
0.0
  9
$DIMTOL
 70
     0
  9
$DIMLIM
 70
     0
  9
$DIMTIH
 70
     0
  9
$DIMTOH
 70
     0
  9
$DIMSE1
 70
     0
  9
$DIMSE2
 70
     0
  9
$DIMTAD
 70
     1
  9
$DIMZIN
 70
     0
  9
$DIMBLK
  1

  9
$DIMASO
 70
     0
  9
$DIMSHO
 70
     0
  9
$DIMPOST
  1

  9
$DIMAPOST
  1

  9
$DIMALT
 70
     0
  9
$DIMALTD
 70
     2
  9
$DIMALTF
 40
25.399999999999999
  9
$DIMLFAC
 40
1.0
  9
$DIMTOFL
 70
     1
  9
$DIMTVP
 40
1.6000000000000001
  9
$DIMTIX
 70
     1
  9
$DIMSOXD
 70
     0
  9
$DIMSAH
 70
     0
  9
$DIMBLK1
  1

  9
$DIMBLK2
  1

  9
$DIMSTYLE
  2
STANDARD
  9
$DIMCLRD
 70
     0
  9
$DIMCLRE
 70
     0
  9
$DIMCLRT
 70
     0
  9
$DIMTFAC
 40
1.0
  9
$DIMGAP
 40
0.09
  9
$LUNITS
 70
     2
  9
$LUPREC
 70
     4
  9
$SKETCHINC
 40
0.1
  9
$FILLETRAD
 40
0.0
  9
$AUNITS
 70
     0
  9
$AUPREC
 70
     4
  9
$MENU
  1
E:\r13\win\SUPPORT\ACAD
  9
$ELEVATION
 40
0.0
  9
$PELEVATION
 40
0.0
  9
$THICKNESS
 40
0.0
  9
$LIMCHECK
 70
     0
  9
$BLIPMODE
 70
     0
  9
$CHAMFERA
 40
0.0
  9
$CHAMFERB
 40
0.0
  9
$SKPOLY
 70
     0
  9
$TDCREATE
 40
2449840.6498611118
  9
$TDUPDATE
 40
2456598.393298137
  9
$TDINDWG
 40
0.0001081019
  9
$TDUSRTIMER
 40
0.0001081019
  9
$USRTIMER
 70
     1
  9
$ANGBASE
 50
0.0
  9
$ANGDIR
 70
     0
  9
$PDMODE
 70
     0
  9
$PDSIZE
 40
0.0
  9
$PLINEWID
 40
0.0
  9
$COORDS
 70
     1
  9
$SPLFRAME
 70
     0
  9
$SPLINETYPE
 70
     6
  9
$SPLINESEGS
 70
     8
  9
$ATTDIA
 70
     0
  9
$ATTREQ
 70
     1
  9
$HANDLING
 70
     1
  9
$HANDSEED
  5
223
  9
$SURFTAB1
 70
     6
  9
$SURFTAB2
 70
     6
  9
$SURFTYPE
 70
     6
  9
$SURFU
 70
     6
  9
$SURFV
 70
     6
  9
$UCSNAME
  2

  9
$UCSORG
 10
0.0
 20
0.0
 30
0.0
  9
$UCSXDIR
 10
1.0
 20
0.0
 30
0.0
  9
$UCSYDIR
 10
0.0
 20
1.0
 30
0.0
  9
$PUCSNAME
  2

  9
$PUCSORG
 10
0.0
 20
0.0
 30
0.0
  9
$PUCSXDIR
 10
1.0
 20
0.0
 30
0.0
  9
$PUCSYDIR
 10
0.0
 20
1.0
 30
0.0
  9
$USERI1
 70
     0
  9
$USERI2
 70
     1
  9
$USERI3
 70
     0
  9
$USERI4
 70
     0
  9
$USERI5
 70
     0
  9
$USERR1
 40
0.0
  9
$USERR2
 40
0.0
  9
$USERR3
 40
0.0
  9
$USERR4
 40
0.0
  9
$USERR5
 40
0.0
  9
$WORLDVIEW
 70
     1
  9
$SHADEDGE
 70
     3
  9
$SHADEDIF
 70
    70
  9
$TILEMODE
 70
     1
  9
$MAXACTVP
 70
    16
  9
$PLIMCHECK
 70
     0
  9
$PEXTMIN
 10
1.0000000000000000E+020
 20
1.0000000000000000E+020
 30
1.0000000000000000E+020
  9
$PEXTMAX
 10
-1.0000000000000000E+020
 20
-1.0000000000000000E+020
 30
-1.0000000000000000E+020
  9
$PLIMMIN
 10
0.0
 20
0.0
  9
$PLIMMAX
 10
12.0
 20
9.0
  9
$UNITMODE
 70
     0
  9
$VISRETAIN
 70
     0
  9
$PLINEGEN
 70
     0
  9
$PSLTSCALE
 70
     0
  0
ENDSEC
  0
SECTION
  2
TABLES
  0
TABLE
  2
VPORT
 70
     1
  0
VPORT
  2
*ACTIVE
 70
     0
 10
0.0
 20
0.0
 11
1.0
 21
1.0
 12
187.4942783906524
 22
197.0509055860143
 13
0.0
 23
0.0
 14
10.0
 24
10.0
 15
10.0
 25
10.0
 16
0.0
 26
0.0
 36
1.0
 17
0.0
 27
0.0
 37
0.0
 40
403.57315882993248
 41
1.7807262569832401
 42
50.0
 43
0.0
 44
0.0
 50
0.0
 51
0.0
 71
     0
 72
   500
 73
     1
 74
     0
 75
     0
 76
     0
 77
     0
 78
     2
  0
ENDTAB
  0
TABLE
  2
LTYPE
 70
     3
  0
LTYPE
  2
CONTINUOUS
 70
     0
  3
Solid Line
 72
    65
 73
     0
 40
0.0
  0
LTYPE
  2
CENTER
 70
     0
  3
____ _ ____ _ ____ _ ____ _ ____ _ ____ _ ____
 72
    65
 73
     4
 40
2.0
 49
1.25
 49
-0.25
 49
0.25
 49
-0.25
  0
LTYPE
  2
PHANTOM2
 70
     0
  3
___ _ _ ___ _ _ ___ _ _ ___ _ _
 72
    65
 73
     6
 40
1.25
 49
0.625
 49
-0.125
 49
0.125
 49
-0.125
 49
0.125
 49
-0.125
  0
ENDTAB
  0
TABLE
  2
LAYER
 70
     2
  0
LAYER
  2
0
 70
     0
 62
     7
  6
CONTINUOUS
  0
LAYER
  2
1
 70
     0
 62
     1
  6
CENTER
  0
ENDTAB
  0
TABLE
  2
STYLE
 70
     2
  0
STYLE
  2
STANDARD
 70
     0
 40
0.0
 41
1.0
 50
0.0
 71
     0
 42
0.2
  3
TXT
  4
BIGFONT
  0
STYLE
  2
STANDARD1
 70
     0
 40
0.0
 41
1.0
 50
0.0
 71
     0
 42
3.0
  3
txt
  4

  0
ENDTAB
  0
TABLE
  2
VIEW
 70
     1
  0
VIEW
  2
ALL
 70
     0
 40
270.0
 10
220.99159663865549
 20
135.0
 41
0.0
 11
0.0
 21
0.0
 31
1.0
 12
0.0
 22
0.0
 32
0.0
 42
0.0
 43
0.0
 44
0.0
 50
0.0
 71
     0
  0
ENDTAB
  0
TABLE
  2
UCS
 70
     0
  0
ENDTAB
  0
TABLE
  2
APPID
 70
     3
  0
APPID
  2
ACAD
 70
     0
  0
APPID
  2
ACAD_MLEADERVER
 70
     0
  0
APPID
  2
ACAD_NAV_VCDISPLAY
 70
     0
  0
ENDTAB
  0
TABLE
  2
DIMSTYLE
 70
     1
  0
DIMSTYLE
  2
STANDARD
 70
     0
  3

  4

  5

  6

  7

 40
1.0
 41
0.18
 42
0.0625
 43
0.38
 44
0.18
 45
0.0
 46
0.0
 47
0.0
 48
0.0
140
0.18
141
0.09
142
0.0
143
25.399999999999999
144
1.0
145
0.0
146
1.0
147
0.09
 71
     0
 72
     0
 73
     1
 74
     1
 75
     0
 76
     0
 77
     0
 78
     0
170
     0
171
     2
172
     0
173
     0
174
     0
175
     0
176
     0
177
     0
178
     0
  0
ENDTAB
  0
ENDSEC
  0
SECTION
  2
BLOCKS
  0
BLOCK
  8
0
  2
$MODEL_SPACE
 70
     0
 10
0.0
 20
0.0
 30
0.0
  3
$MODEL_SPACE
  1

  0
ENDBLK
  5
DB
  8
0
  0
BLOCK
 67
     1
  8
0
  2
$PAPER_SPACE
 70
     0
 10
0.0
 20
0.0
 30
0.0
  3
$PAPER_SPACE
  1

  0
ENDBLK
  5
D9
 67
     1
  8
0
  0
ENDSEC
  0
SECTION
  2
ENTITIES
  0
LINE
  5
3C
  8
0
 10
126.5950152263799
 20
118.0000106212587
 30
0.0
 11
126.5950152263799
 21
151.99999203405591
 31
0.0
  0
LINE
  5
3D
  8
0
 10
126.5950152263799
 20
151.99999203405591
 30
0.0
 11
76.595015226379914
 21
151.99999203405599
 31
0.0
  0
LINE
  5
3E
  8
0
 10
76.595015226379914
 20
151.99999203405599
 30
0.0
 11
76.5950152263799
 21
117.99999203405601
 31
0.0
  0
LINE
  5
3F
  8
0
 10
76.5950152263799
 20
117.99999203405601
 30
0.0
 11
126.5950152263799
 21
118.0000106212587
 31
0.0
  0
LINE
  5
40
  8
1
 10
136.59501522637979
 20
135.00000132765729
 30
0.0
 11
66.595015226379914
 21
134.99999203405599
 31
0.0
  0
LINE
  5
41
  8
0
 10
187.5
 20
135.2499999999998
 30
0.0
 11
187.5
 21
142.4499999999999
 31
0.0
  0
LINE
  5
42
  8
0
 10
187.25
 20
134.99999999999989
 30
0.0
 11
187.5
 21
135.2499999999998
 31
0.0
  0
LINE
  5
43
  8
0
 10
187.25
 20
135.0
 30
0.0
 11
187.5
 21
134.75
 31
0.0
  0
ARC
  5
44
  8
0
 10
185.74999999999989
 20
122.4499999999999
 30
0.0
 40
1.75
 50
89.999999999999531
 51
229.87592094746299
  0
LINE
  5
45
  8
0
 10
187.5
 20
125.9499999999999
 30
0.0
 11
187.5
 21
134.75
 31
0.0
  0
ARC
  5
46
  8
0
 10
185.75
 20
125.9499999999999
 30
0.0
 40
1.75
 50
270.00000000000011
 51
360.0
  0
LINE
  5
47
  8
0
 10
185.09999999999999
 20
127.39999999999981
 30
0.0
 11
178.38185165257809
 21
127.39999999999981
 31
0.0
  0
LINE
  5
48
  8
0
 10
181.4999999999998
 20
125.5
 30
0.0
 11
178.38185165257809
 21
125.5
 31
0.0
  0
ARC
  5
49
  8
0
 10
177.15710678118651
 20
126.4499999999999
 30
0.0
 40
1.45
 50
45.58469140280733
 51
314.41530859719308
  0
LINE
  5
4A
  8
0
 10
186.09999999999999
 20
128.39999999999981
 30
0.0
 11
186.09999999999999
 21
142.5
 31
0.0
  0
ARC
  5
4B
  8
0
 10
185.09999999999999
 20
128.39999999999981
 30
0.0
 40
1.0
 50
270.00000000000011
 51
360.0
  0
LINE
  5
4C
  8
0
 10
182.49999999999989
 20
124.5
 30
0.0
 11
182.4999999999998
 21
122.88094010766279
 31
0.0
  0
ARC
  5
4D
  8
0
 10
181.4999999999998
 20
124.5
 30
0.0
 40
1.0
 50
360.0
 51
89.999999999999986
  0
ARC
  5
4E
  8
0
 10
182.7999999999999
 20
118.2999999999999
 30
0.0
 40
0.3
 50
179.99999999967159
 51
324.2921241306413
  0
ARC
  5
4F
  8
0
 10
184.2999999999999
 20
120.7295349465945
 30
0.0
 40
0.5
 50
324.29212413157512
 51
49.876121012818849
  0
LINE
  5
50
  8
0
 10
183.043600991722
 20
118.1249041495864
 30
0.0
 11
184.70600165286999
 21
120.43770852923871
 31
0.0
  0
ARC
  5
51
  8
0
 10
185.74999999999989
 20
147.5499999999999
 30
0.0
 40
1.75
 50
130.1240790526723
 51
248.53987225044011
  0
ARC
  5
52
  8
0
 10
182.71339745964411
 20
119.0
 30
0.0
 40
0.0866025403558079
 50
300.00000000000432
 51
59.999999999991168
  0
LINE
  5
53
  8
0
 10
182.75669872982201
 20
119.07499999998041
 30
0.0
 11
182.54999999999981
 21
119.19433756728441
 31
0.0
  0
LINE
  5
54
  8
0
 10
182.75669872982201
 20
118.92500000001949
 30
0.0
 11
182.5499999999999
 21
118.80566243271549
 31
0.0
  0
LINE
  5
55
  8
0
 10
182.49999999999989
 20
118.7190598923371
 30
0.0
 11
182.49999999999989
 21
118.2999999999999
 31
0.0
  0
LINE
  5
56
  8
0
 10
182.75669872982201
 20
120.1250000000195
 30
0.0
 11
182.54999999999981
 21
120.0056624327155
 31
0.0
  0
LINE
  5
57
  8
0
 10
182.75669872982201
 20
120.2749999999803
 30
0.0
 11
182.5499999999999
 21
120.3943375672843
 31
0.0
  0
ARC
  5
58
  8
0
 10
182.71339745964411
 20
120.1999999999999
 30
0.0
 40
0.0866025403558079
 50
300.00000000000432
 51
59.999999999991168
  0
LINE
  5
59
  8
0
 10
182.75669872982201
 20
121.3250000000195
 30
0.0
 11
182.54999999999981
 21
121.2056624327156
 31
0.0
  0
LINE
  5
5A
  8
0
 10
182.75669872982201
 20
121.4749999999803
 30
0.0
 11
182.54999999999981
 21
121.5943375672843
 31
0.0
  0
ARC
  5
5B
  8
0
 10
182.71339745964411
 20
121.39999999999991
 30
0.0
 40
0.0866025403558079
 50
300.00000000000432
 51
59.999999999991168
  0
LINE
  5
5C
  8
0
 10
182.75669872982201
 20
122.5250000000195
 30
0.0
 11
182.5499999999999
 21
122.4056624327155
 31
0.0
  0
LINE
  5
5D
  8
0
 10
182.75669872982201
 20
122.6749999999804
 30
0.0
 11
182.54999999999981
 21
122.7943375672844
 31
0.0
  0
ARC
  5
5E
  8
0
 10
182.71339745964411
 20
122.59999999999989
 30
0.0
 40
0.0866025403558079
 50
300.00000000000432
 51
59.999999999991168
  0
LINE
  5
5F
  8
0
 10
182.4999999999998
 20
119.9190598923371
 30
0.0
 11
182.4999999999998
 21
119.2809401076628
 31
0.0
  0
LINE
  5
60
  8
0
 10
182.4999999999998
 20
121.11905989233711
 30
0.0
 11
182.49999999999989
 21
120.4809401076627
 31
0.0
  0
LINE
  5
61
  8
0
 10
182.4999999999998
 20
122.31905989233709
 30
0.0
 11
182.4999999999998
 21
121.68094010766271
 31
0.0
  0
ARC
  5
62
  8
0
 10
182.5999999999998
 20
118.7190598923371
 30
0.0
 40
0.1
 50
119.99999999999839
 51
180.0
  0
ARC
  5
63
  8
0
 10
182.5999999999998
 20
119.2809401076628
 30
0.0
 40
0.1
 50
180.00000000000219
 51
239.99999999999949
  0
ARC
  5
64
  8
0
 10
182.5999999999998
 20
119.9190598923371
 30
0.0
 40
0.1
 50
119.99999999999839
 51
179.9999999999977
  0
ARC
  5
65
  8
0
 10
182.5999999999998
 20
120.4809401076628
 30
0.0
 40
0.1
 50
180.00000000000219
 51
239.99999999999949
  0
ARC
  5
66
  8
0
 10
182.5999999999998
 20
121.11905989233711
 30
0.0
 40
0.1
 50
119.99999999999839
 51
180.00000000000239
  0
ARC
  5
67
  8
0
 10
182.5999999999998
 20
121.68094010766271
 30
0.0
 40
0.1
 50
180.00000000000219
 51
239.99999999999949
  0
ARC
  5
68
  8
0
 10
182.5999999999998
 20
122.31905989233709
 30
0.0
 40
0.1
 50
119.9999999999972
 51
179.9999999999977
  0
ARC
  5
69
  8
0
 10
182.5999999999998
 20
122.88094010766279
 30
0.0
 40
0.1
 50
179.99999999999909
 51
240.00000000000051
  0
ARC
  5
6A
  8
0
 10
182.5999999999998
 20
147.68094010766271
 30
0.0
 40
0.1
 50
180.00000000000219
 51
240.0000000000029
  0
ARC
  5
6B
  8
0
 10
182.5999999999998
 20
148.31905989233709
 30
0.0
 40
0.1
 50
120.0000000000006
 51
179.9999999999977
  0
ARC
  5
6C
  8
0
 10
182.5999999999998
 20
148.88094010766281
 30
0.0
 40
0.1
 50
179.99999999999761
 51
240.00000000000159
  0
ARC
  5
6D
  8
0
 10
182.5999999999998
 20
149.519059892337
 30
0.0
 40
0.1
 50
120.0000000000006
 51
179.9999999999977
  0
ARC
  5
6E
  8
0
 10
182.5999999999998
 20
150.0809401076628
 30
0.0
 40
0.1
 50
180.00000000000219
 51
240.00000000000159
  0
ARC
  5
6F
  8
0
 10
182.5999999999998
 20
150.7190598923371
 30
0.0
 40
0.1
 50
120.0000000000006
 51
179.9999999999977
  0
ARC
  5
70
  8
0
 10
182.5999999999998
 20
151.28094010766279
 30
0.0
 40
0.1
 50
180.0
 51
240.00000000000159
  0
LINE
  5
71
  8
0
 10
182.4999999999998
 20
147.68094010766271
 30
0.0
 11
182.4999999999998
 21
148.31905989233709
 31
0.0
  0
LINE
  5
72
  8
0
 10
182.4999999999998
 20
148.88094010766281
 30
0.0
 11
182.49999999999989
 21
149.519059892337
 31
0.0
  0
LINE
  5
73
  8
0
 10
182.4999999999998
 20
150.0809401076628
 30
0.0
 11
182.4999999999998
 21
150.7190598923371
 31
0.0
  0
LINE
  5
74
  8
0
 10
182.8499999999998
 20
147.42113248652751
 30
0.0
 11
182.5499999999999
 21
147.5943375672843
 31
0.0
  0
ARC
  5
75
  8
0
 10
182.71339745964411
 20
148.59999999999991
 30
0.0
 40
0.0866025403558079
 50
300.00000000000892
 51
59.999999999995801
  0
LINE
  5
76
  8
0
 10
182.75669872982201
 20
148.5250000000195
 30
0.0
 11
182.54999999999981
 21
148.4056624327155
 31
0.0
  0
LINE
  5
77
  8
0
 10
182.75669872982201
 20
148.6749999999804
 30
0.0
 11
182.54999999999981
 21
148.7943375672844
 31
0.0
  0
ARC
  5
78
  8
0
 10
182.71339745964411
 20
149.7999999999999
 30
0.0
 40
0.0866025403558079
 50
300.00000000000892
 51
59.999999999995801
  0
LINE
  5
79
  8
0
 10
182.75669872982201
 20
149.72500000001941
 30
0.0
 11
182.5499999999999
 21
149.6056624327156
 31
0.0
  0
LINE
  5
7A
  8
0
 10
182.75669872982201
 20
149.87499999998039
 30
0.0
 11
182.54999999999981
 21
149.9943375672843
 31
0.0
  0
LINE
  5
7B
  8
0
 10
182.49999999999989
 20
151.28094010766279
 30
0.0
 11
182.49999999999989
 21
151.69999999999999
 31
0.0
  0
LINE
  5
7C
  8
0
 10
182.75669872982201
 20
151.07499999998029
 30
0.0
 11
182.5499999999999
 21
151.19433756728429
 31
0.0
  0
LINE
  5
7D
  8
0
 10
182.75669872982201
 20
150.92500000001951
 30
0.0
 11
182.54999999999981
 21
150.80566243271551
 31
0.0
  0
ARC
  5
7E
  8
0
 10
182.71339745964411
 20
151.0
 30
0.0
 40
0.0866025403558079
 50
300.00000000000892
 51
59.999999999995801
  0
LINE
  5
7F
  8
0
 10
183.043600991722
 20
151.87509585041329
 30
0.0
 11
184.70600165286999
 21
149.5622914707611
 31
0.0
  0
ARC
  5
80
  8
0
 10
184.2999999999999
 20
149.2704650534053
 30
0.0
 40
0.5
 50
310.12387898718117
 51
35.707875868424942
  0
ARC
  5
81
  8
0
 10
182.7999999999999
 20
151.6999999999999
 30
0.0
 40
0.3
 50
35.707875869358752
 51
180.00000000032841
  0
LINE
  5
82
  8
0
 10
185.5999999999998
 20
144.1999999999999
 30
0.0
 11
185.75
 21
144.1999999999999
 31
0.0
  0
ARC
  5
83
  8
0
 10
185.75
 20
142.4499999999999
 30
0.0
 40
1.75
 50
360.0
 51
89.999999999999787
  0
LINE
  5
84
  8
0
 10
185.29999999999981
 20
144.49999999999989
 30
0.0
 11
185.29999999999981
 21
145.64212159716649
 31
0.0
  0
ARC
  5
85
  8
0
 10
185.5999999999998
 20
144.49999999999989
 30
0.0
 40
0.3
 50
180.00000000000011
 51
270.00000000000188
  0
ARC
  5
86
  8
0
 10
184.9999999999998
 20
145.64212159716649
 30
0.0
 40
0.3
 50
360.0
 51
68.539872250565722
  0
ARC
  5
87
  8
0
 10
178.38185165257809
 20
125.1999999999999
 30
0.0
 40
0.3
 50
89.999999999999986
 51
134.41530859719299
  0
ARC
  5
88
  8
0
 10
178.38185165257809
 20
127.6999999999999
 30
0.0
 40
0.3
 50
225.58469140280889
 51
270.00000000000011
  0
LINE
  5
89
  8
0
 10
182.99999999999989
 20
144.5499999999999
 30
0.0
 11
182.99999999999989
 21
147.16132486539209
 31
0.0
  0
ARC
  5
8A
  8
0
 10
182.6999999999999
 20
147.16132486539209
 30
0.0
 40
0.3
 50
360.0
 51
60.000000000004192
  0
LINE
  5
8B
  8
0
 10
184.7499999999998
 20
142.7999999999999
 30
0.0
 11
185.80000000000001
 21
142.7999999999999
 31
0.0
  0
ARC
  5
8C
  8
0
 10
184.7499999999998
 20
144.5499999999999
 30
0.0
 40
1.75
 50
179.9999999999996
 51
270.00000000000011
  0
ARC
  5
8D
  8
0
 10
185.80000000000001
 20
142.5
 30
0.0
 40
0.3
 50
360.0
 51
89.999999999999986
  0
LINE
  5
8E
  8
1
 10
192.5
 20
135.0
 30
0.0
 11
179.99999999999989
 21
135.0
 31
0.0
  0
LINE
  5
8F
  8
0
 10
237.3268724446381
 20
144.200012519864
 30
0.0
 11
287.32687244463801
 21
144.200012519864
 31
0.0
  0
LINE
  5
90
  8
0
 10
237.3268724446381
 20
135.0
 30
0.0
 11
287.32687244463801
 21
135.00000663828661
 31
0.0
  0
LINE
  5
91
  8
0
 10
237.32687244463801
 20
124.200012519864
 30
0.0
 11
287.32687244463813
 21
124.200012519864
 31
0.0
  0
LINE
  5
92
  8
0
 10
237.32687244463801
 20
120.7295474664586
 30
0.0
 11
287.32687244463813
 21
120.7295474664586
 31
0.0
  0
LINE
  5
93
  8
0
 10
237.32687244463801
 20
145.64213411703051
 30
0.0
 11
287.32687244463801
 21
145.64213411703051
 31
0.0
  0
LINE
  5
94
  8
0
 10
237.32687244463801
 20
149.2704775732694
 30
0.0
 11
287.32687244463801
 21
149.27047757326929
 31
0.0
  0
LINE
  5
95
  8
0
 10
237.3268724446381
 20
151.9999893787413
 30
0.0
 11
237.32687244463801
 21
118.00000796594399
 31
0.0
  0
LINE
  5
96
  8
0
 10
237.32687244463801
 20
118.00000796594399
 30
0.0
 11
287.32687244463801
 21
118.00000796594399
 31
0.0
  0
LINE
  5
97
  8
0
 10
287.32687244463801
 20
118.00000796594399
 30
0.0
 11
287.32687244463801
 21
152.00000796594401
 31
0.0
  0
LINE
  5
98
  8
0
 10
287.32687244463801
 20
152.00000796594401
 30
0.0
 11
237.3268724446381
 21
151.9999893787413
 31
0.0
  0
LINE
  5
99
  8
1
 10
227.32687244463801
 20
134.99999867234271
 30
0.0
 11
297.32687244463801
 21
135.00000796594401
 31
0.0
  0
LINE
  5
9A
  8
0
 10
187.5
 20
86.668165467625911
 30
0.0
 11
187.5
 21
36.668165467625911
 31
0.0
  0
LINE
  5
9B
  8
0
 10
175.7071067811865
 20
86.668165467625954
 30
0.0
 11
175.7071067811865
 21
36.66816546762594
 31
0.0
  0
LINE
  5
9C
  8
0
 10
187.5
 20
86.668165467625911
 30
0.0
 11
175.7071067811865
 21
86.668165467625954
 31
0.0
  0
LINE
  5
9D
  8
0
 10
187.49999999999989
 20
36.668165467625911
 30
0.0
 11
175.70710678118641
 21
36.66816546762594
 31
0.0
  0
LINE
  5
9E
  8
0
 10
184.7999999999999
 20
86.668165467625954
 30
0.0
 11
184.7999999999997
 21
36.668165467625911
 31
0.0
  0
LINE
  5
9F
  8
0
 10
182.49999999999989
 20
86.668165467625911
 30
0.0
 11
182.49999999999969
 21
36.668165467625911
 31
0.0
  0
LINE
  5
A0
  8
0
 10
126.5950152263799
 20
127.89999999999991
 30
0.0
 11
76.5950152263799
 21
127.89999999999991
 31
0.0
  0
LINE
  5
A1
  8
0
 10
126.5950152263799
 20
124.9999999999999
 30
0.0
 11
76.5950152263799
 21
124.9999999999999
 31
0.0
  0
LINE
  5
A2
  8
0
 10
126.5950152263799
 20
142.7999999999999
 30
0.0
 11
76.595015226379914
 21
142.80000000000001
 31
0.0
  0
LINE
  5
A3
  8
0
 10
126.5950152263799
 20
122.59999999999989
 30
0.0
 11
76.5950152263799
 21
122.59999999999989
 31
0.0
  0
LINE
  5
A4
  8
0
 10
126.5950152263799
 20
121.39999999999991
 30
0.0
 11
76.5950152263799
 21
121.39999999999991
 31
0.0
  0
LINE
  5
A5
  8
0
 10
126.5950152263799
 20
120.1999999999999
 30
0.0
 11
76.5950152263799
 21
120.1999999999999
 31
0.0
  0
LINE
  5
A6
  8
0
 10
126.5950152263799
 20
119.0
 30
0.0
 11
76.5950152263799
 21
119.0
 31
0.0
  0
LINE
  5
A7
  8
0
 10
126.5950152263799
 20
151.0
 30
0.0
 11
76.595015226379957
 21
150.99999999999989
 31
0.0
  0
LINE
  5
A8
  8
0
 10
126.5950152263799
 20
149.7999999999999
 30
0.0
 11
76.595015226379957
 21
149.80000000000001
 31
0.0
  0
LINE
  5
A9
  8
0
 10
126.5950152263799
 20
148.59999999999991
 30
0.0
 11
76.595015226379957
 21
148.59999999999991
 31
0.0
  0
LINE
  5
AA
  8
0
 10
126.5950152263799
 20
147.16132486539209
 30
0.0
 11
76.595015226379957
 21
147.16132486539209
 31
0.0
  0
TEXT
  5
18E
  8
0
 62
     3
 10
0.0
 20
0.0
 30
0.0
 40
10.0
  1
WSP40N
  7
STANDARD1
  0
ENDSEC
  0
EOF
