  0
SECTION
  2
HEADER
  9
$ACADVER
  1
AC1009
  9
$INSBASE
 10
0.0
 20
0.0
 30
0.0
  9
$EXTMIN
 10
0.0
 20
-2.960436562073669
 30
0.0
  9
$EXTMAX
 10
156.000000372529
 20
100.9856847673654
 30
0.0
  9
$LIMMIN
 10
0.0
 20
0.0
  9
$LIMMAX
 10
275.0
 20
175.0
  9
$ORTHOMODE
 70
     1
  9
$REGENMODE
 70
     1
  9
$FILLMODE
 70
     1
  9
$QTEXTMODE
 70
     0
  9
$MIRRTEXT
 70
     0
  9
$DRAGMODE
 70
     2
  9
$LTSCALE
 40
5.0
  9
$OSMODE
 70
    37
  9
$ATTMODE
 70
     1
  9
$TEXTSIZE
 40
0.2
  9
$TRACEWID
 40
0.05
  9
$TEXTSTYLE
  7
STANDARD
  9
$CLAYER
  8
0
  9
$CELTYPE
  6
BYLAYER
  9
$CECOLOR
 62
   256
  9
$DIMSCALE
 40
1.0
  9
$DIMASZ
 40
3.0
  9
$DIMEXO
 40
1.0
  9
$DIMDLI
 40
6.0
  9
$DIMRND
 40
0.0
  9
$DIMDLE
 40
0.0
  9
$DIMEXE
 40
1.0
  9
$DIMTP
 40
495.0
  9
$DIMTM
 40
0.0
  9
$DIMTXT
 40
3.0
  9
$DIMCEN
 40
0.0
  9
$DIMTSZ
 40
0.0
  9
$DIMTOL
 70
     0
  9
$DIMLIM
 70
     0
  9
$DIMTIH
 70
     0
  9
$DIMTOH
 70
     0
  9
$DIMSE1
 70
     0
  9
$DIMSE2
 70
     0
  9
$DIMTAD
 70
     1
  9
$DIMZIN
 70
     8
  9
$DIMBLK
  1

  9
$DIMASO
 70
     0
  9
$DIMSHO
 70
     0
  9
$DIMPOST
  1

  9
$DIMAPOST
  1

  9
$DIMALT
 70
     0
  9
$DIMALTD
 70
     2
  9
$DIMALTF
 40
25.399999999999999
  9
$DIMLFAC
 40
1.0
  9
$DIMTOFL
 70
     1
  9
$DIMTVP
 40
0.0
  9
$DIMTIX
 70
     1
  9
$DIMSOXD
 70
     0
  9
$DIMSAH
 70
     0
  9
$DIMBLK1
  1

  9
$DIMBLK2
  1

  9
$DIMSTYLE
  2
STANDARD
  9
$DIMCLRD
 70
     0
  9
$DIMCLRE
 70
     0
  9
$DIMCLRT
 70
     0
  9
$DIMTFAC
 40
1.0
  9
$DIMGAP
 40
1.0
  9
$LUNITS
 70
     2
  9
$LUPREC
 70
     1
  9
$SKETCHINC
 40
0.1
  9
$FILLETRAD
 40
0.0
  9
$AUNITS
 70
     0
  9
$AUPREC
 70
     0
  9
$MENU
  1
E:\r13\win\SUPPORT\ACAD
  9
$ELEVATION
 40
0.0
  9
$PELEVATION
 40
0.0
  9
$THICKNESS
 40
0.0
  9
$LIMCHECK
 70
     0
  9
$BLIPMODE
 70
     0
  9
$CHAMFERA
 40
0.0
  9
$CHAMFERB
 40
0.0
  9
$SKPOLY
 70
     0
  9
$TDCREATE
 40
2450653.5278402781
  9
$TDUPDATE
 40
2459439.612747523
  9
$TDINDWG
 40
0.7995849074
  9
$TDUSRTIMER
 40
0.7995849074
  9
$USRTIMER
 70
     1
  9
$ANGBASE
 50
0.0
  9
$ANGDIR
 70
     0
  9
$PDMODE
 70
     0
  9
$PDSIZE
 40
0.0
  9
$PLINEWID
 40
0.0
  9
$COORDS
 70
     1
  9
$SPLFRAME
 70
     0
  9
$SPLINETYPE
 70
     6
  9
$SPLINESEGS
 70
     8
  9
$ATTDIA
 70
     0
  9
$ATTREQ
 70
     1
  9
$HANDLING
 70
     1
  9
$HANDSEED
  5
AF5A
  9
$SURFTAB1
 70
     6
  9
$SURFTAB2
 70
     6
  9
$SURFTYPE
 70
     6
  9
$SURFU
 70
     6
  9
$SURFV
 70
     6
  9
$UCSNAME
  2

  9
$UCSORG
 10
0.0
 20
0.0
 30
0.0
  9
$UCSXDIR
 10
1.0
 20
0.0
 30
0.0
  9
$UCSYDIR
 10
0.0
 20
1.0
 30
0.0
  9
$PUCSNAME
  2

  9
$PUCSORG
 10
0.0
 20
0.0
 30
0.0
  9
$PUCSXDIR
 10
1.0
 20
0.0
 30
0.0
  9
$PUCSYDIR
 10
0.0
 20
1.0
 30
0.0
  9
$USERI1
 70
     4
  9
$USERI2
 70
     1
  9
$USERI3
 70
     1
  9
$USERI4
 70
     0
  9
$USERI5
 70
     0
  9
$USERR1
 40
1.0
  9
$USERR2
 40
3.0
  9
$USERR3
 40
3.0
  9
$USERR4
 40
3.0
  9
$USERR5
 40
10.0
  9
$WORLDVIEW
 70
     1
  9
$SHADEDGE
 70
     3
  9
$SHADEDIF
 70
    70
  9
$TILEMODE
 70
     1
  9
$MAXACTVP
 70
    16
  9
$PLIMCHECK
 70
     0
  9
$PEXTMIN
 10
1.0000000000000000E+020
 20
1.0000000000000000E+020
 30
1.0000000000000000E+020
  9
$PEXTMAX
 10
-1.0000000000000000E+020
 20
-1.0000000000000000E+020
 30
-1.0000000000000000E+020
  9
$PLIMMIN
 10
0.0
 20
0.0
  9
$PLIMMAX
 10
12.0
 20
9.0
  9
$UNITMODE
 70
     0
  9
$VISRETAIN
 70
     0
  9
$PLINEGEN
 70
     0
  9
$PSLTSCALE
 70
     0
  0
ENDSEC
  0
SECTION
  2
TABLES
  0
TABLE
  2
VPORT
 70
     1
  0
VPORT
  2
*ACTIVE
 70
     0
 10
0.0
 20
0.0
 11
1.0
 21
1.0
 12
260.1957585644372
 22
100.0
 13
0.0
 23
0.0
 14
5.0
 24
5.0
 15
10.0
 25
10.0
 16
0.0
 26
0.0
 36
1.0
 17
0.0
 27
0.0
 37
0.0
 40
200.0
 41
2.6019575856443722
 42
50.0
 43
0.0
 44
0.0
 50
0.0
 51
0.0
 71
     0
 72
   100
 73
     1
 74
     0
 75
     0
 76
     0
 77
     0
 78
     0
  0
ENDTAB
  0
TABLE
  2
LTYPE
 70
     5
  0
LTYPE
  2
CONTINUOUS
 70
     0
  3
Solid Line
 72
    65
 73
     0
 40
0.0
  0
LTYPE
  2
CENTER
 70
     0
  3
____ _ ____ _ ____ _ ____ _ ____ _ ____ _ ____ 
 72
    65
 73
     4
 40
2.0
 49
1.25
 49
-0.25
 49
0.25
 49
-0.25
  0
LTYPE
  2
HIDDEN
 70
     0
  3
__ __ __ __ __ __ __ __ __ __ __ __ __ __ __ __
 72
    65
 73
     2
 40
0.375
 49
0.25
 49
-0.125
  0
LTYPE
  2
PHANTOM
 70
     0
  3
_____ _ _ _____ _ _ _____ _ _ _____ _ _ ____
 72
    65
 73
     6
 40
2.5
 49
1.25
 49
-0.25
 49
0.25
 49
-0.25
 49
0.25
 49
-0.25
  0
LTYPE
  2
PHANTOM2
 70
     0
  3
___ _ _ ___ _ _ ___ _ _ ___ _ _
 72
    65
 73
     6
 40
1.25
 49
0.625
 49
-0.125
 49
0.125
 49
-0.125
 49
0.125
 49
-0.125
  0
ENDTAB
  0
TABLE
  2
LAYER
 70
     6
  0
LAYER
  2
0
 70
     0
 62
     7
  6
CONTINUOUS
  0
LAYER
  2
1
 70
     0
 62
     1
  6
CENTER
  0
LAYER
  2
2
 70
     0
 62
     2
  6
HIDDEN
  0
LAYER
  2
5
 70
     0
 62
     3
  6
PHANTOM
  0
LAYER
  2
DEFPOINTS
 70
     0
 62
     7
  6
CONTINUOUS
  0
LAYER
  2
3
 70
     0
 62
     3
  6
CONTINUOUS
  0
ENDTAB
  0
TABLE
  2
STYLE
 70
     2
  0
STYLE
  2
STANDARD
 70
     0
 40
0.0
 41
1.0
 50
0.0
 71
     0
 42
0.2
  3
simplex
  4
bigfont
  0
STYLE
  2
STANDARD1
 70
     0
 40
0.0
 41
1.0
 50
0.0
 71
     0
 42
3.0
  3
txt
  4

  0
ENDTAB
  0
TABLE
  2
VIEW
 70
     0
  0
ENDTAB
  0
TABLE
  2
UCS
 70
     0
  0
ENDTAB
  0
TABLE
  2
APPID
 70
    10
  0
APPID
  2
ACAD
 70
     0
  0
APPID
  2
_CALL_MAC$
 70
     0
  0
APPID
  2
ACAD_MLEADERVER
 70
     0
  0
APPID
  2
ACAD_EXEMPT_FROM_CAD_STANDARDS
 70
     0
  0
APPID
  2
ACAD_NAV_VCDISPLAY
 70
     0
  0
APPID
  2
ACAECLAYERSTANDARD
 70
     0
  0
APPID
  2
ACCMTRANSPARENCY
 70
     0
  0
APPID
  2
ACAD_DSTYLE_DIMJAG
 70
     0
  0
APPID
  2
ACAD_DSTYLE_DIMTALN
 70
     0
  0
APPID
  2
ACAD_DSTYLE_DIMRADIAL_EXTENSION
 70
     0
  0
ENDTAB
  0
TABLE
  2
DIMSTYLE
 70
     1
  0
DIMSTYLE
  2
STANDARD
 70
     0
  3

  4

  5

  6

  7

 40
1.0
 41
0.18
 42
0.0625
 43
0.38
 44
0.18
 45
0.0
 46
0.0
 47
0.0
 48
0.0
140
0.18
141
0.09
142
0.0
143
25.399999999999999
144
1.0
145
0.0
146
1.0
147
0.09
 71
     0
 72
     0
 73
     1
 74
     1
 75
     0
 76
     0
 77
     0
 78
     0
170
     0
171
     2
172
     0
173
     0
174
     0
175
     0
176
     0
177
     0
178
     0
  0
ENDTAB
  0
ENDSEC
  0
SECTION
  2
BLOCKS
  0
BLOCK
  8
0
  2
$MODEL_SPACE
 70
     2
 10
0.0
 20
0.0
 30
0.0
  3
$MODEL_SPACE
  1

  0
ENDBLK
  5
7
  8
0
  0
BLOCK
 67
     1
  8
0
  2
$PAPER_SPACE
 70
     0
 10
0.0
 20
0.0
 30
0.0
  3
$PAPER_SPACE
  1

  0
ENDBLK
  5
A
 67
     1
  8
0
  0
ENDSEC
  0
SECTION
  2
ENTITIES
  0
TEXT
  5
2BF
  8
0
 62
     3
 10
0.0
 20
0.0
 30
0.0
 40
10.0
  1
ZCL-1.0-45-A15-K
  7
STANDARD1
  0
ARC
  5
AAED
  8
0
 10
128.500000372529
 20
73.485684767365441
 30
0.0
 40
7.5
 50
109.4712206344895
 51
70.528779365510459
  0
LINE
  5
AAEE
  8
0
 10
131.00000031664959
 20
80.556752346456037
 30
0.0
 11
131.00000031664959
 21
83.285684883594485
 31
0.0
  0
LINE
  5
AAEF
  8
0
 10
131.00000031664959
 20
83.285684883594485
 30
0.0
 11
126.0000004284083
 21
83.285684883594485
 31
0.0
  0
LINE
  5
AAF0
  8
0
 10
126.0000004284083
 20
83.285684883594485
 30
0.0
 11
126.0000004284083
 21
80.556752346456037
 31
0.0
  0
CIRCLE
  5
AAF1
  8
0
 10
128.500000372529
 20
73.485684767365441
 30
0.0
 40
17.5
  0
LINE
  5
AAF2
  8
0
 10
149.6492836475372
 20
73.001992492936537
 30
0.0
 11
149.65505039691919
 21
73.341675070696496
 31
0.0
  0
ARC
  5
AAF3
  8
0
 10
149.9331100541406
 20
72.992062351776184
 30
0.0
 40
0.2840000000000381
 50
177.99622991522071
 51
235.44141208052019
  0
ARC
  5
AAF4
  8
0
 10
150.1884639730423
 20
73.377112345854229
 30
0.0
 40
0.7459999999999752
 50
236.0653220128938
 51
260.2128872732564
  0
ARC
  5
AAF5
  8
0
 10
148.0541561710769
 20
65.273541909143447
 30
0.0
 40
7.637000000000004
 50
59.390846776447667
 51
74.759895157442614
  0
ARC
  5
AAF6
  8
0
 10
149.15648324742361
 20
78.285806373515214
 30
0.0
 40
7.6369999999999889
 50
275.55516874861593
 51
290.92401921297858
  0
ARC
  5
AAF7
  8
0
 10
149.8975238203015
 20
69.938675977075206
 30
0.0
 40
0.7460000000000486
 50
90.134197357514722
 51
114.30968259996899
  0
ARC
  5
AAF8
  8
0
 10
149.71062262486669
 20
70.361223451320413
 30
0.0
 40
0.28400000000002
 50
115.0400358934844
 51
172.38402560388531
  0
LINE
  5
AAF9
  8
0
 10
149.3761435002088
 20
70.063288509845719
 30
0.0
 11
149.42912830412391
 21
70.398862659931169
 31
0.0
  0
ARC
  5
AAFA
  8
0
 10
149.6558255417838
 20
70.013953913585226
 30
0.0
 40
0.2840000000000032
 50
169.9962299152152
 51
227.44141208055731
  0
ARC
  5
AAFB
  8
0
 10
149.9622829756006
 20
70.359718230853986
 30
0.0
 40
0.7459999999999598
 50
228.0653220129083
 51
252.2128872732589
  0
ARC
  5
AAFC
  8
0
 10
146.72094708392311
 20
62.632049419784039
 30
0.0
 40
7.6369999999998406
 50
51.390846776449131
 51
66.759895157442145
  0
ARC
  5
AAFD
  8
0
 10
149.6235035849574
 20
75.364265143384586
 30
0.0
 40
7.6370000000000688
 50
267.55516874861752
 51
282.92401921297937
  0
ARC
  5
AAFE
  8
0
 10
149.19563638052989
 20
66.995235531703173
 30
0.0
 40
0.7460000000000133
 50
82.134197357519255
 51
106.3096825999806
  0
ARC
  5
AAFF
  8
0
 10
149.06936133697451
 20
67.439682421917411
 30
0.0
 40
0.2840000000000049
 50
107.0400358935087
 51
164.38402560388809
  0
LINE
  5
AB00
  8
0
 10
148.69667290151119
 20
67.191197257488952
 30
0.0
 11
148.79584385454649
 21
67.516131978481994
 31
0.0
  0
ARC
  5
AB01
  8
0
 10
148.96676695690189
 20
67.103418767427797
 30
0.0
 40
0.2840000000000279
 50
161.9962299152219
 51
219.44141208053739
  0
ARC
  5
AB02
  8
0
 10
149.31836306027489
 20
67.403167498752765
 30
0.0
 40
0.7460000000000429
 50
220.06532201289991
 51
244.21288727325791
  0
ARC
  5
AB03
  8
0
 10
145.0330879950514
 20
60.201810596637714
 30
0.0
 40
7.6370000000001443
 50
43.390846776448917
 51
58.759895157444639
  0
ARC
  5
AB04
  8
0
 10
149.67937896009011
 20
72.406159483087691
 30
0.0
 40
7.6369999999996088
 50
259.55516874861598
 51
274.92401921297642
  0
ARC
  5
AB05
  8
0
 10
148.09093192679961
 20
64.178124297926729
 30
0.0
 40
0.745999999999966
 50
74.134197357516285
 51
98.309682599991007
  0
ARC
  5
AB06
  8
0
 10
148.02774083521089
 20
64.635819950942803
 30
0.0
 40
0.2839999999999997
 50
99.040035893523054
 51
156.38402560388931
  0
LINE
  5
AB07
  8
0
 10
147.6240966320037
 20
64.44162148982285
 30
0.0
 11
147.76752589642999
 21
64.749591238796697
 31
0.0
  0
ARC
  5
AB08
  8
0
 10
147.87934604105709
 20
64.317107169239179
 30
0.0
 40
0.2840000000000463
 50
153.9962299152223
 51
211.44141208053679
  0
ARC
  5
AB09
  8
0
 10
148.2692373957687
 20
64.565006046524275
 30
0.0
 40
0.7460000000001197
 50
212.0653220129052
 51
236.21288727325401
  0
ARC
  5
AB0A
  8
0
 10
143.02343116171591
 20
58.03012727404198
 30
0.0
 40
7.6370000000001408
 50
35.390846776448988
 51
50.759895157444419
  0
ARC
  5
AB0B
  8
0
 10
146.60491227471971
 20
61.542174141494797
 30
0.0
 40
0.7459999999999206
 50
66.134197357514722
 51
90.309682599973755
  0
ARC
  5
AB0C
  8
0
 10
146.6060350778167
 20
62.004210032047823
 30
0.0
 40
0.2840000000000085
 50
91.040035893477807
 51
148.3840256038873
  0
LINE
  5
AB0D
  8
0
 10
146.17929121851921
 20
61.868077330291257
 30
0.0
 11
146.36418668925759
 21
62.153089046478257
 31
0.0
  0
ARC
  5
AB0E
  8
0
 10
146.4147282054534
 20
61.709251504895633
 30
0.0
 40
0.2840000000000511
 50
145.99622991521829
 51
203.44141208054421
  0
ARC
  5
AB0F
  8
0
 10
146.83532601977899
 20
61.900475458475093
 30
0.0
 40
0.7460000000000074
 50
204.06532201289929
 51
228.21288727328081
  0
ARC
  5
AB10
  8
0
 10
140.7310922682268
 20
56.159268797617877
 30
0.0
 40
7.6369999999998051
 50
27.390846776449361
 51
42.759895157439601
  0
ARC
  5
AB11
  8
0
 10
148.5613682576321
 20
66.610150550070529
 30
0.0
 40
7.6370000000003913
 50
243.55516874861709
 51
258.92401921297812
  0
ARC
  5
AB12
  8
0
 10
144.76650110649561
 20
59.138690833853182
 30
0.0
 40
0.7460000000001757
 50
58.13419735751323
 51
82.309682599974096
  0
ARC
  5
AB13
  8
0
 10
144.83191595019329
 20
59.596073958891878
 30
0.0
 40
0.2839999999999971
 50
83.040035893491876
 51
140.38402560387979
  0
LINE
  5
AB14
  8
0
 10
144.39038074016571
 20
59.520657360553727
 30
0.0
 11
144.61314006149769
 21
59.777163155376897
 31
0.0
  0
ARC
  5
AB15
  8
0
 10
144.60142057028281
 20
59.330610718511792
 30
0.0
 40
0.2839999999999897
 50
137.99622991521491
 51
195.44141208053551
  0
ARC
  5
AB16
  8
0
 10
145.0445383861894
 20
59.461437791643341
 30
0.0
 40
0.7460000000000683
 50
196.065322012894
 51
220.2128872732755
  0
ARC
  5
AB17
  8
0
 10
138.20068908364851
 20
54.62564929953853
 30
0.0
 40
7.636999999999956
 50
19.390846776449688
 51
34.759895157441122
  0
ARC
  5
AB18
  8
0
 10
147.40924298664609
 20
63.885059998367559
 30
0.0
 40
7.637000000000203
 50
235.55516874861561
 51
250.92401921297909
  0
ARC
  5
AB19
  8
0
 10
142.61148100435531
 20
57.014455443663991
 30
0.0
 40
0.7460000000000803
 50
50.134197357510971
 51
74.309682599960496
  0
ARC
  5
AB1A
  8
0
 10
142.7399146631293
 20
57.458283360924739
 30
0.0
 40
0.2840000000000055
 50
75.040035893458693
 51
132.38402560388269
  0
LINE
  5
AB1B
  8
0
 10
142.2921798974275
 20
57.445050403475747
 30
0.0
 11
142.54847148805851
 21
57.668057456612573
 31
0.0
  0
ARC
  5
AB1C
  8
0
 10
142.4747171060568
 20
57.227482347330792
 30
0.0
 40
0.2840000000000029
 50
129.99622991521321
 51
187.4414120805198
  0
ARC
  5
AB1D
  8
0
 10
142.9317301392968
 20
57.295366139849541
 30
0.0
 40
0.7459999999999865
 50
188.06532201289389
 51
212.2128872732776
  0
ARC
  5
AB1E
  8
0
 10
135.48147302767811
 20
53.45911893886818
 30
0.0
 40
7.636999999999988
 50
11.390846776448729
 51
26.75989515743985
  0
ARC
  5
AB1F
  8
0
 10
145.889070817121
 20
61.346834687244389
 30
0.0
 40
7.6370000000000262
 50
227.55516874861769
 51
242.92401921297861
  0
ARC
  5
AB20
  8
0
 10
140.181796983288
 20
55.210813796514941
 30
0.0
 40
0.7459999999999866
 50
42.13419735751382
 51
66.309682599999874
  0
ARC
  5
AB21
  8
0
 10
140.37074964206121
 20
55.632447900435089
 30
0.0
 40
0.2840000000000021
 50
67.040035893559519
 51
124.3840256038943
  0
LINE
  5
AB22
  8
0
 10
139.92553091049189
 20
55.681656301021562
 30
0.0
 11
140.21036474406719
 21
55.86682558059691
 31
0.0
  0
ARC
  5
AB23
  8
0
 10
140.07601167661741
 20
55.440801392824632
 30
0.0
 40
0.2840000000000283
 50
121.9962299152283
 51
179.44141208049419
  0
ARC
  5
AB24
  8
0
 10
140.53802468834351
 20
55.444420623925829
 30
0.0
 40
0.7459999999999859
 50
180.06532201288141
 51
204.21288727325589
  0
ARC
  5
AB25
  8
0
 10
132.62637054778261
 20
52.682382902168477
 30
0.0
 40
7.637000000000155
 50
3.3908467764487722
 51
18.759895157442632
  0
ARC
  5
AB26
  8
0
 10
144.03044017116639
 20
59.044878285193498
 30
0.0
 40
7.636999999999917
 50
219.55516874861681
 51
234.92401921297639
  0
ARC
  5
AB27
  8
0
 10
137.52474007903871
 20
53.762871725455803
 30
0.0
 40
0.7460000000000593
 50
34.134197357514019
 51
58.309682599999178
  0
ARC
  5
AB28
  8
0
 10
137.7705339892388
 20
54.154105387804293
 30
0.0
 40
0.2840000000000024
 50
59.040035893554347
 51
116.3840256038953
  0
LINE
  5
AB29
  8
0
 10
137.33649606257671
 20
54.26479801535605
 30
0.0
 11
137.64432890713209
 21
54.408523440361009
 31
0.0
  0
ARC
  5
AB2A
  8
0
 10
137.45199235466171
 20
54.005343567453238
 30
0.0
 40
0.2840000000000165
 50
113.9962299152138
 51
171.44141208051821
  0
ARC
  5
AB2B
  8
0
 10
137.9100127871325
 20
53.944627792920343
 30
0.0
 40
0.7459999999999301
 50
172.06532201288971
 51
196.21288727327439
  0
ARC
  5
AB2C
  8
0
 10
129.6909529661022
 20
52.310559472869741
 30
0.0
 40
7.6370000000003282
 50
355.39084677645002
 51
10.759895157441269
  0
ARC
  5
AB2D
  8
0
 10
141.8695271801449
 20
57.023995755144398
 30
0.0
 40
7.636999999999988
 50
211.55516874861721
 51
226.92401921297841
  0
ARC
  5
AB2E
  8
0
 10
134.69202688189171
 20
52.698811775890242
 30
0.0
 40
0.7459999999998705
 50
26.134197357511368
 51
50.309682600002823
  0
ARC
  5
AB2F
  8
0
 10
134.9898779446429
 20
53.052030078451018
 30
0.0
 40
0.2839999999999947
 50
51.040035893559079
 51
108.3840256038972
  0
LINE
  5
AB30
  8
0
 10
134.57546968385569
 20
53.222052007913582
 30
0.0
 11
134.90030894428489
 21
53.321535885334001
 31
0.0
  0
ARC
  5
AB31
  8
0
 10
134.65373269151371
 20
52.949048424978493
 30
0.0
 40
0.2840000000000025
 50
105.9962299152152
 51
163.4414120805009
  0
ARC
  5
AB32
  8
0
 10
135.0988456980019
 20
52.82517940829959
 30
0.0
 40
0.7460000000000255
 50
164.06532201288439
 51
188.21288727327121
  0
ARC
  5
AB33
  8
0
 10
126.7323548468767
 20
52.350885771080442
 30
0.0
 40
7.6370000000002012
 50
347.39084677645002
 51
2.7598951574408201
  0
ARC
  5
AB34
  8
0
 10
139.4483915574242
 20
55.323521276824238
 30
0.0
 40
7.6369999999997527
 50
203.55516874861641
 51
218.92401921298011
  0
ARC
  5
AB35
  8
0
 10
131.73879293206551
 20
52.039344664385979
 30
0.0
 40
0.7460000000000117
 50
18.13419735751437
 51
42.309682599990829
  0
ARC
  5
AB36
  8
0
 10
132.08290381523199
 20
52.347672614679738
 30
0.0
 40
0.2840000000000095
 50
43.040035893536192
 51
100.384025603889
  0
LINE
  5
AB37
  8
0
 10
131.69619094952941
 20
52.573713660240159
 30
0.0
 11
132.03171434253451
 21
52.627020701766
 31
0.0
  0
ARC
  5
AB38
  8
0
 10
131.73569762854331
 20
52.29247554883073
 30
0.0
 40
0.2839999999999939
 50
97.996229915219416
 51
155.44141208043959
  0
ARC
  5
AB39
  8
0
 10
132.15923959068621
 20
52.107864259516539
 30
0.0
 40
0.7460000000001062
 50
156.06532201286041
 51
180.21288727327331
  0
ARC
  5
AB3A
  8
0
 10
123.80816193714109
 20
52.802576891276189
 30
0.0
 40
7.6370000000000866
 50
339.39084677644991
 51
354.75989515744118
  0
ARC
  5
AB3B
  8
0
 10
136.81415795390029
 20
53.976552651692877
 30
0.0
 40
7.6369999999999942
 50
195.55516874861729
 51
210.92401921297869
  0
ARC
  5
AB3C
  8
0
 10
128.72251956913979
 20
51.797306168135947
 30
0.0
 40
0.746000000000104
 50
10.13419735751493
 51
34.30968260000013
  0
ARC
  5
AB3D
  8
0
 10
129.10619254580121
 20
52.054742513328037
 30
0.0
 40
0.2840000000000331
 50
35.040035893562766
 51
92.384025603889981
  0
LINE
  5
AB3E
  8
0
 10
128.75470207910979
 20
52.33240425586699
 30
0.0
 11
129.0943789961747
 21
52.338496968150118
 31
0.0
  0
ARC
  5
AB3F
  8
0
 10
128.7546833990358
 20
52.04840438320349
 30
0.0
 40
0.284000000000018
 50
89.996229915218876
 51
147.4414120804914
  0
ARC
  5
AB40
  8
0
 10
129.14841055431191
 20
51.806644070008367
 30
0.0
 40
0.7460000000000017
 50
148.0653220128811
 51
172.21288727327089
  0
ARC
  5
AB41
  8
0
 10
120.9752903256632
 20
53.656841179593393
 30
0.0
 40
7.6369999999999507
 50
331.39084677645019
 51
346.75989515744288
  0
ARC
  5
AB42
  8
0
 10
134.018098730269
 20
53.009307091884182
 30
0.0
 40
7.6370000000000466
 50
187.55516874861689
 51
202.92401921297821
  0
ARC
  5
AB43
  8
0
 10
125.7019151231641
 20
51.977407291154989
 30
0.0
 40
0.7460000000000542
 50
2.1341973575157911
 51
26.309682600007001
  0
ARC
  5
AB44
  8
0
 10
126.117682435251
 20
52.178941325615739
 30
0.0
 40
0.2839999999999744
 50
27.040035893570991
 51
84.384025603885561
  0
LINE
  5
AB45
  8
0
 10
125.80825577862559
 20
52.50281952321528
 30
0.0
 11
126.1454748772084
 21
52.461578696966157
 31
0.0
  0
ARC
  5
AB46
  8
0
 10
125.768712054115
 20
52.221585495708993
 30
0.0
 40
0.2840000000000372
 50
81.996229915219047
 51
139.44141208044391
  0
ARC
  5
AB47
  8
0
 10
126.1249609513048
 20
51.927381748130927
 30
0.0
 40
0.746000000000009
 50
140.06532201285759
 51
164.2128872732778
  0
ARC
  5
AB48
  8
0
 10
118.2888786360167
 20
54.897051353371339
 30
0.0
 40
7.6369999999997873
 50
323.39084677644809
 51
338.75989515744112
  0
ARC
  5
AB49
  8
0
 10
131.1146359988478
 20
52.440610931994279
 30
0.0
 40
7.6369999999998583
 50
179.55516874861581
 51
194.92401921297889
  0
ARC
  5
AB4A
  8
0
 10
122.73577222379249
 20
52.576142569945432
 30
0.0
 40
0.7459999999999509
 50
354.13419735751791
 51
18.309682600022931
  0
ARC
  5
AB4B
  8
0
 10
123.1755414335035
 20
52.71785166293553
 30
0.0
 40
0.2840000000000291
 50
19.040035893618391
 51
76.384025603895111
  0
LINE
  5
AB4C
  8
0
 10
122.914200913161
 20
53.081642091274247
 30
0.0
 11
123.2423985227942
 21
52.993870526552193
 31
0.0
  0
ARC
  5
AB4D
  8
0
 10
122.83590212951761
 20
52.80864811298283
 30
0.0
 40
0.2840000000000466
 50
73.996229915222415
 51
131.44141208041111
  0
ARC
  5
AB4E
  8
0
 10
123.1477387890647
 20
52.467727272316687
 30
0.0
 40
0.7460000000000754
 50
132.06532201285501
 51
156.2128872732745
  0
ARC
  5
AB4F
  8
0
 10
115.8012148159921
 20
56.499068132295889
 30
0.0
 40
7.637000000000274
 50
315.39084677645189
 51
330.75989515744112
  0
ARC
  5
AB50
  8
0
 10
128.16028235906461
 20
52.281533195893239
 30
0.0
 40
7.636999999999964
 50
171.5551687486165
 51
186.92401921297821
  0
ARC
  5
AB51
  8
0
 10
119.88182346862349
 20
53.581858303356938
 30
0.0
 40
0.7460000000000489
 50
346.134197357517
 51
10.309682600017711
  0
ARC
  5
AB52
  8
0
 10
120.33703496852181
 20
53.660984248573122
 30
0.0
 40
0.2840000000000261
 50
11.04003589360503
 51
68.384025603890663
  0
LINE
  5
AB53
  8
0
 10
120.12886794656509
 20
54.057604819536202
 30
0.0
 11
120.44165635854
 21
53.925012424588189
 31
0.0
  0
ARC
  5
AB54
  8
0
 10
120.01333743440421
 20
53.798165728953691
 30
0.0
 40
0.2840000000000417
 50
65.996229915220241
 51
123.44141208048811
  0
ARC
  5
AB55
  8
0
 10
120.27469231043941
 20
53.417163431571247
 30
0.0
 40
0.7460000000000904
 50
124.0653220128798
 51
148.21288727328101
  0
ARC
  5
AB56
  8
0
 10
113.5607184121717
 20
58.431710082031579
 30
0.0
 40
7.6369999999998761
 50
307.39084677644831
 51
322.75989515744249
  0
ARC
  5
AB57
  8
0
 10
125.21254094398989
 20
52.535170150765929
 30
0.0
 40
7.6370000000000031
 50
163.5551687486157
 51
178.92401921297699
  0
ARC
  5
AB58
  8
0
 10
117.19561772385831
 20
54.974979378623338
 30
0.0
 40
0.7459999999999485
 50
338.13419735751347
 51
2.3096826000088289
  0
ARC
  5
AB59
  8
0
 10
117.6574113398936
 20
54.98998207954638
 30
0.0
 40
0.2839999999999972
 50
3.0400358935853031
 51
60.384025603890848
  0
LINE
  5
AB5A
  8
0
 10
117.50646846741429
 20
55.411714315414407
 30
0.0
 11
117.797760091722
 21
55.236878991127
 31
0.0
  0
ARC
  5
AB5B
  8
0
 10
117.35595597994541
 20
55.170878508786231
 30
0.0
 40
0.2840000000000156
 50
57.996229915216432
 51
115.4414120804127
  0
ARC
  5
AB5C
  8
0
 10
117.5617420970932
 20
54.75721053102238
 30
0.0
 40
0.746000000000014
 50
116.0653220128513
 51
140.21288727327001
  0
ARC
  5
AB5D
  8
0
 10
111.61099813852761
 20
60.657360525375488
 30
0.0
 40
7.6370000000004081
 50
299.3908467764511
 51
314.75989515744351
  0
ARC
  5
AB5E
  8
0
 10
122.3287861872619
 20
53.196585041793639
 30
0.0
 40
7.636999999999917
 50
155.5551687486151
 51
170.9240192129773
  0
ARC
  5
AB5F
  8
0
 10
114.7294389288046
 20
56.728390278666282
 30
0.0
 40
0.7460000000000351
 50
330.13419735751432
 51
354.30968259999503
  0
ARC
  5
AB60
  8
0
 10
115.1888263735235
 20
56.67897772478802
 30
0.0
 40
0.2840000000000021
 50
355.04003589354932
 51
52.384025603897079
  0
LINE
  5
AB61
  8
0
 10
115.09804686903951
 20
57.117612287402139
 30
0.0
 11
115.3621699512004
 21
56.90393894910811
 31
0.0
  0
ARC
  5
AB62
  8
0
 10
114.91548067342571
 20
56.900068159658638
 30
0.0
 40
0.2840000000000435
 50
49.99622991521661
 51
107.4414120803159
  0
ARC
  5
AB63
  8
0
 10
115.0616926389941
 20
56.461786078160387
 30
0.0
 40
0.7459999999998875
 50
108.06532201281379
 51
132.21288727325921
  0
ARC
  5
AB64
  8
0
 10
109.99000308241369
 20
63.132699708086328
 30
0.0
 40
7.6369999999998068
 50
291.39084677645121
 51
306.759895157443
  0
ARC
  5
AB65
  8
0
 10
119.5651470949981
 20
54.252904180470694
 30
0.0
 40
7.6369999999999276
 50
147.5551687486176
 51
162.9240192129777
  0
ARC
  5
AB66
  8
0
 10
112.5312884484717
 20
58.807962854791739
 30
0.0
 40
0.7459999999999563
 50
322.13419735751228
 51
346.30968260000128
  0
ARC
  5
AB67
  8
0
 10
112.9793282678079
 20
58.695096805267603
 30
0.0
 40
0.283999999999988
 50
347.0400358935475
 51
44.384025603895523
  0
LINE
  5
AB68
  8
0
 10
112.9504784792661
 20
59.142097085714333
 30
0.0
 11
113.18229398131371
 21
58.893745020031922
 31
0.0
  0
ARC
  5
AB69
  8
0
 10
112.7394125906868
 20
58.952077971940838
 30
0.0
 40
0.2840000000000129
 50
41.996229915216617
 51
99.441412080230535
  0
ARC
  5
AB6A
  8
0
 10
112.8232045550799
 20
58.497712448885821
 30
0.0
 40
0.7459999999999284
 50
100.0653220127811
 51
124.2128872732584
  0
ARC
  5
AB6B
  8
0
 10
108.72928406874171
 20
65.809547968630696
 30
0.0
 40
7.6370000000000076
 50
283.39084677644928
 51
298.75989515744533
  0
ARC
  5
AB6C
  8
0
 10
116.9754147585363
 20
55.683567516308081
 30
0.0
 40
7.6369999999996994
 50
139.55516874861661
 51
154.92401921297781
  0
ARC
  5
AB6D
  8
0
 10
110.6439507815999
 20
61.173220592284288
 30
0.0
 40
0.7460000000000157
 50
314.13419735751739
 51
338.30968260000441
  0
ARC
  5
AB6E
  8
0
 10
111.0719223901079
 20
60.999097856384907
 30
0.0
 40
0.2840000000000238
 50
339.04003589356341
 51
36.384025603885171
  0
LINE
  5
AB6F
  8
0
 10
111.1055638492107
 20
61.445763520896421
 30
0.0
 11
111.3005585819482
 21
61.167565360665307
 31
0.0
  0
ARC
  5
AB70
  8
0
 10
110.8701064217187
 20
61.286967908763252
 30
0.0
 40
0.2840000000000062
 50
33.996229915216738
 51
91.441412080242628
  0
ARC
  5
AB71
  8
0
 10
110.88984746966131
 20
60.82536265222469
 30
0.0
 40
0.7459999999999258
 50
92.065322012787675
 51
116.212887273259
  0
ARC
  5
AB72
  8
0
 10
107.8533795590665
 20
68.635803500486134
 30
0.0
 40
7.6370000000000671
 50
275.39084677644962
 51
290.75989515744448
  0
ARC
  5
AB73
  8
0
 10
114.6099953720294
 20
57.46072881482894
 30
0.0
 40
7.6369999999998557
 50
131.55516874861749
 51
146.92401921297861
  0
ARC
  5
AB74
  8
0
 10
109.1041608090602
 20
63.778126439724389
 30
0.0
 40
0.746000000000016
 50
306.13419735751251
 51
330.30968260003311
  0
ARC
  5
AB75
  8
0
 10
109.5037342261909
 20
63.546136118442348
 30
0.0
 40
0.2839999999999841
 50
331.0400358936364
 51
28.384025603893811
  0
LINE
  5
AB76
  8
0
 10
109.5992110520601
 20
63.98377306759356
 30
0.0
 11
109.75359266996379
 21
63.681143522262559
 31
0.0
  0
ARC
  5
AB77
  8
0
 10
109.3439460847958
 20
63.859291993403573
 30
0.0
 40
0.2840000000000211
 50
25.996229915221559
 51
83.441412080265991
  0
ARC
  5
AB78
  8
0
 10
109.299251979245
 20
63.39943162463161
 30
0.0
 40
0.7460000000001152
 50
84.06532201279866
 51
108.21288727325749
  0
ARC
  5
AB79
  8
0
 10
107.3793380383422
 20
71.55645645454311
 30
0.0
 40
7.6369999999999933
 50
267.39084677644939
 51
282.75989515744482
  0
ARC
  5
AB7A
  8
0
 10
112.5149291332105
 20
59.549797652848618
 30
0.0
 40
7.6369999999999676
 50
123.5551687486158
 51
138.92401921297591
  0
ARC
  5
AB7B
  8
0
 10
107.9418887911829
 20
66.571978867828079
 30
0.0
 40
0.7460000000000417
 50
298.13419735751103
 51
322.30968260002322
  0
ARC
  5
AB7C
  8
0
 10
108.3052867748798
 20
66.286636388882073
 30
0.0
 40
0.283999999999983
 50
323.04003589361412
 51
20.384025603897371
  0
LINE
  5
AB7D
  8
0
 10
108.4607418477535
 20
66.706726048141704
 30
0.0
 11
108.57150217890739
 21
66.385556664317832
 31
0.0
  0
ARC
  5
AB7E
  8
0
 10
108.19063655489499
 20
66.618982863529624
 30
0.0
 40
0.2839999999999856
 50
17.996229915213469
 51
75.441412080236262
  0
ARC
  5
AB7F
  8
0
 10
108.0823772157764
 20
66.169818041519278
 30
0.0
 40
0.7459999999999721
 50
76.065322012786169
 51
100.21288727325761
  0
ARC
  5
AB80
  8
0
 10
107.3163861855556
 20
74.514659643244613
 30
0.0
 40
7.6370000000000831
 50
259.39084677644991
 51
274.75989515744362
  0
ARC
  5
AB81
  8
0
 10
110.73099412331609
 20
61.910112681715773
 30
0.0
 40
7.6370000000000431
 50
115.55516874861711
 51
130.92401921297829
  0
ARC
  5
AB82
  8
0
 10
107.1797570307312
 20
69.500398717042344
 30
0.0
 40
0.746000000000022
 50
290.13419735751199
 51
314.3096826000459
  0
ARC
  5
AB83
  8
0
 10
107.4999064526007
 20
69.167257947212818
 30
0.0
 40
0.2840000000000144
 50
315.04003589367778
 51
12.384025603891191
  0
LINE
  5
AB84
  8
0
 10
107.7123142629861
 20
69.561624154448495
 30
0.0
 11
107.7772982269525
 21
69.228165503591285
 31
0.0
  0
ARC
  5
AB85
  8
0
 10
107.4326256901454
 20
69.512326275456132
 30
0.0
 40
0.2839999999999856
 50
9.9962299152206153
 51
67.441412080292423
  0
ARC
  5
AB86
  8
0
 10
107.2629082623518
 20
69.082599482550322
 30
0.0
 40
0.7460000000000021
 50
68.065322012804558
 51
92.212887273256712
  0
ARC
  5
AB87
  8
0
 10
107.6657492869145
 20
77.452835006428785
 30
0.0
 40
7.6370000000002367
 50
251.39084677644971
 51
266.75989515744408
  0
ARC
  5
AB88
  8
0
 10
109.2929126081175
 20
64.495733054211911
 30
0.0
 40
7.6370000000002198
 50
107.5551687486163
 51
122.9240192129781
  0
ARC
  5
AB89
  8
0
 10
106.8325995555101
 20
72.506387626030431
 30
0.0
 40
0.7460000000000131
 50
282.13419735751421
 51
306.30968260005852
  0
ARC
  5
AB8A
  8
0
 10
107.1032690712203
 20
72.131932771460129
 30
0.0
 40
0.2840000000000249
 50
307.04003589370132
 51
4.3840256038919589
  0
LINE
  5
AB8B
  8
0
 10
107.3684941828251
 20
72.492899326607571
 30
0.0
 11
107.38643890619269
 21
72.153642028570161
 31
0.0
  0
ARC
  5
AB8C
  8
0
 10
107.0846673098049
 20
72.483006590799391
 30
0.0
 40
0.28400000000003
 50
1.9962299152162459
 51
59.441412080260307
  0
ARC
  5
AB8D
  8
0
 10
106.8567951500178
 20
72.081081970215024
 30
0.0
 40
0.7459999999999999
 50
60.06532201279731
 51
84.212887273260506
  0
ARC
  5
AB8E
  8
0
 10
108.4206273870453
 20
80.313794302775676
 30
0.0
 40
7.6369999999999703
 50
243.39084677645039
 51
258.75989515744249
  0
ARC
  5
AB8F
  8
0
 10
108.2286752085143
 20
67.256332610886687
 30
0.0
 40
7.63699999999971
 50
99.555168748617277
 51
114.9240192129795
  0
ARC
  5
AB90
  8
0
 10
106.9071733908894
 20
75.531437439940589
 30
0.0
 40
0.7459999999999462
 50
274.13419735750949
 51
298.30968260005722
  0
ARC
  5
AB91
  8
0
 10
107.1230947261987
 20
75.122956838437631
 30
0.0
 40
0.283999999999982
 50
299.04003589371399
 51
356.38402560390227
  0
LINE
  5
AB92
  8
0
 10
107.43597595393651
 20
75.443498278036699
 30
0.0
 11
107.4065293967723
 21
75.105045293457792
 31
0.0
  0
ARC
  5
AB93
  8
0
 10
107.15353402795
 20
75.473202896319989
 30
0.0
 40
0.2840000000000118
 50
353.9962299152171
 51
51.441412080276223
  0
ARC
  5
AB94
  8
0
 10
106.8719424085586
 20
75.106903453614279
 30
0.0
 40
0.7460000000000353
 50
52.065322012796528
 51
76.212887273269828
  0
ARC
  5
AB95
  8
0
 10
109.56632764239041
 20
83.041852213875458
 30
0.0
 40
7.6369999999998681
 50
235.39084677644919
 51
250.7598951574407
  0
ARC
  5
AB96
  8
0
 10
128.500000372529
 20
73.485684767365441
 30
0.0
 40
23.500000000000028
 50
170.3018594608632
 51
171.9999999999998
  0
ARC
  5
AB97
  8
0
 10
107.55899609493849
 20
70.138179421503423
 30
0.0
 40
7.6370000000000706
 50
91.555168748618328
 51
106.92401921297861
  0
ARC
  5
AB98
  8
0
 10
107.4020270419894
 20
78.516669005088403
 30
0.0
 40
0.7460000000000581
 50
266.1341973575112
 51
290.30968260005272
  0
ARC
  5
AB99
  8
0
 10
107.5589975337132
 20
78.082113266921155
 30
0.0
 40
0.2839999999999944
 50
291.04003589369131
 51
348.3840256038954
  0
LINE
  5
AB9A
  8
0
 10
107.91344454884531
 20
78.35599053651093
 30
0.0
 11
107.83718040585509
 21
78.024929575622068
 31
0.0
  0
ARC
  5
AB9B
  8
0
 10
107.6378854322469
 20
78.424714422228831
 30
0.0
 40
0.2839999999999883
 50
345.99622991521852
 51
43.441412080281928
  0
ARC
  5
AB9C
  8
0
 10
107.308055213817
 20
78.101169759394622
 30
0.0
 40
0.7460000000000039
 50
44.065322012799392
 51
68.212887273269075
  0
ARC
  5
AB9D
  8
0
 10
111.0805503006943
 20
85.583910195608539
 30
0.0
 40
7.6370000000000768
 50
227.39084677644769
 51
242.75989515744311
  0
ARC
  5
AB9E
  8
0
 10
128.500000372529
 20
73.485684767365441
 30
0.0
 40
23.500000000000021
 50
162.30185946086289
 51
164.00000000000051
  0
ARC
  5
AB9F
  8
0
 10
107.2969098095864
 20
73.085181615946766
 30
0.0
 40
7.6370000000001719
 50
83.555168748617561
 51
98.924019212976276
  0
ARC
  5
ABA0
  8
0
 10
108.3075287453796
 20
81.403978184708564
 30
0.0
 40
0.7460000000000253
 50
258.13419735751052
 51
282.30968260005341
  0
ARC
  5
ABA1
  8
0
 10
108.40249314144749
 20
80.95180544302076
 30
0.0
 40
0.2840000000000133
 50
283.04003589369682
 51
340.38402560388528
  0
LINE
  5
ABA2
  8
0
 10
108.7916072309017
 20
81.173687893897267
 30
0.0
 11
108.67001003026959
 21
80.856462661176906
 31
0.0
  0
ARC
  5
ABA3
  8
0
 10
108.5282941735521
 20
81.280093353968724
 30
0.0
 40
0.2840000000000567
 50
337.99622991522313
 51
35.441412080255432
  0
ARC
  5
ABA4
  8
0
 10
108.1566451261092
 20
81.005600899841369
 30
0.0
 40
0.746000000000148
 50
36.065322012794532
 51
60.21288727326759
  0
ARC
  5
ABA5
  8
0
 10
112.93382274031561
 20
87.890489980908185
 30
0.0
 40
7.6370000000001221
 50
219.39084677644911
 51
234.75989515744089
  0
ARC
  5
ABA6
  8
0
 10
128.500000372529
 20
73.485684767365441
 30
0.0
 40
23.500000000000039
 50
154.3018594608632
 51
156.00000000000071
  0
ARC
  5
ABA7
  8
0
 10
107.44751756388411
 20
76.039979148667584
 30
0.0
 40
7.6369999999995262
 50
75.555168748615017
 51
90.924019212978237
  0
ARC
  5
ABA8
  8
0
 10
109.60605394039609
 20
84.137166789885441
 30
0.0
 40
0.7460000000000493
 50
250.13419735751239
 51
274.30968260005352
  0
ARC
  5
ABA9
  8
0
 10
109.6371638668592
 20
83.676178072755064
 30
0.0
 40
0.2840000000000038
 50
275.0400358936937
 51
332.3840256038888
  0
LINE
  5
ABAA
  8
0
 10
110.05337050557129
 20
83.841746859252424
 30
0.0
 11
109.88880953192709
 21
83.544532023370238
 31
0.0
  0
ARC
  5
ABAB
  8
0
 10
109.80742945854151
 20
83.983762988578761
 30
0.0
 40
0.2839999999999836
 50
329.9962299152171
 51
27.441412080232109
  0
ARC
  5
ABAC
  8
0
 10
109.40119530804959
 20
83.763665426547462
 30
0.0
 40
0.7460000000000738
 50
28.06532201277869
 51
52.212887273269189
  0
ARC
  5
ABAD
  8
0
 10
115.0900731212833
 20
89.916696617949384
 30
0.0
 40
7.6370000000002554
 50
211.39084677644951
 51
226.7598951574434
  0
ARC
  5
ABAE
  8
0
 10
128.500000372529
 20
73.485684767365441
 30
0.0
 40
23.500000000000011
 50
146.3018594608636
 51
148.00000000000131
  0
ARC
  5
ABAF
  8
0
 10
108.0078879492077
 20
78.945060246722392
 30
0.0
 40
7.6369999999996958
 50
67.555168748617163
 51
82.924019212976106
  0
ARC
  5
ABB0
  8
0
 10
111.27232831116859
 20
86.663036413375096
 30
0.0
 40
0.7459999999999766
 50
242.1341973575048
 51
266.30968260005852
  0
ARC
  5
ABB1
  8
0
 10
111.2389782486952
 20
86.202204341814294
 30
0.0
 40
0.2840000000000035
 50
267.04003589370728
 51
324.38402560389579
  0
LINE
  5
ABB2
  8
0
 10
111.6741772592067
 20
86.308237351477118
 30
0.0
 11
111.4698525369167
 21
86.036817356944056
 31
0.0
  0
ARC
  5
ABB3
  8
0
 10
111.45039437388731
 20
86.48309947199985
 30
0.0
 40
0.2840000000000224
 50
321.99622991521619
 51
19.441412080265248
  0
ARC
  5
ABB4
  8
0
 10
111.0174820060013
 20
86.321680750752236
 30
0.0
 40
0.7460000000000326
 50
20.06532201279445
 51
44.212887273274568
  0
ARC
  5
ABB5
  8
0
 10
117.5073324826301
 20
91.623092299317548
 30
0.0
 40
7.6369999999998583
 50
203.3908467764482
 51
218.75989515744081
  0
ARC
  5
ABB6
  8
0
 10
108.96711399341891
 20
81.743880811019039
 30
0.0
 40
7.6369999999999143
 50
59.555168748616587
 51
74.924019212979246
  0
ARC
  5
ABB7
  8
0
 10
113.2739197224289
 20
88.932423876090624
 30
0.0
 40
0.7460000000000367
 50
234.13419735750949
 51
258.30968260004931
  0
ARC
  5
ABB8
  8
0
 10
113.17675879204999
 20
88.480718022183524
 30
0.0
 40
0.2839999999999904
 50
259.04003589368273
 51
316.38402560389699
  0
LINE
  5
ABB9
  8
0
 10
113.6224798709154
 20
88.525150157511234
 30
0.0
 11
113.3823690786957
 21
88.284808397293091
 31
0.0
  0
ARC
  5
ABBA
  8
0
 10
113.42521047635741
 20
88.729456062535334
 30
0.0
 40
0.2839999999999927
 50
313.99622991521881
 51
11.44141208026652
  0
ARC
  5
ABBB
  8
0
 10
112.9740460378874
 20
88.629858013869395
 30
0.0
 40
0.7459999999999575
 50
12.06532201279658
 51
36.212887273260641
  0
ARC
  5
ABBC
  8
0
 10
120.1385516204797
 20
92.976463974071976
 30
0.0
 40
7.6370000000000928
 50
195.39084677644979
 51
210.7598951574426
  0
ARC
  5
ABBD
  8
0
 10
110.3065254526704
 20
84.381964982884782
 30
0.0
 40
7.6370000000001044
 50
51.55516874861619
 51
66.924019212978536
  0
ARC
  5
ABBE
  8
0
 10
115.57186947413329
 20
90.901158132460083
 30
0.0
 40
0.746000000000005
 50
226.13419735751199
 51
250.30968260006759
  0
ARC
  5
ABBF
  8
0
 10
115.4127888028399
 20
90.467370436845215
 30
0.0
 40
0.283999999999993
 50
251.04003589372979
 51
308.38402560389738
  0
LINE
  5
ABC0
  8
0
 10
115.86035581678151
 20
90.449338033795357
 30
0.0
 11
115.5891323313117
 21
90.244752541184425
 31
0.0
  0
ARC
  5
ABC1
  8
0
 10
115.693440216837
 20
90.679109984343171
 30
0.0
 40
0.284000000000014
 50
305.99622991522301
 51
3.4414120803160468
  0
ARC
  5
ABC2
  8
0
 10
115.2328051103861
 20
90.643271170985145
 30
0.0
 40
0.7459999999999966
 50
4.0653220128107259
 51
28.212887273273989
  0
ARC
  5
ABC3
  8
0
 10
122.93251684728079
 20
93.950469802000399
 30
0.0
 40
7.6370000000000458
 50
187.39084677644991
 51
202.75989515744311
  0
ARC
  5
ABC4
  8
0
 10
112.00005220646629
 20
86.807965454690844
 30
0.0
 40
7.6369999999998317
 50
43.555168748616097
 51
58.924019212976397
  0
ARC
  5
ABC5
  8
0
 10
118.1214505882441
 20
92.530920009585245
 30
0.0
 40
0.7459999999999234
 50
218.13419735750841
 51
242.3096826000793
  0
ARC
  5
ABC6
  8
0
 10
117.9035465003512
 20
92.123493656331647
 30
0.0
 40
0.2839999999999521
 50
243.04003589376069
 51
300.38402560390261
  0
LINE
  5
ABC7
  8
0
 10
118.3442480713129
 20
92.043346911668749
 30
0.0
 11
118.0471915602684
 21
91.878499090671525
 31
0.0
  0
ARC
  5
ABC8
  8
0
 10
118.210935083501
 20
92.294113441533895
 30
0.0
 40
0.2839999999999982
 50
297.99622991521909
 51
355.44141208023962
  0
ARC
  5
ABC9
  8
0
 10
117.7497950474515
 20
92.322731425219686
 30
0.0
 40
0.7459999999998848
 50
356.06532201278259
 51
20.212887273275559
  0
ARC
  5
ABCA
  8
0
 10
125.8348468079822
 20
94.526151867577639
 30
0.0
 40
7.6370000000000298
 50
179.390846776449
 51
194.75989515744141
  0
ARC
  5
ABCB
  8
0
 10
114.0147316829015
 20
88.974662886787485
 30
0.0
 40
7.6369999999999241
 50
35.555168748617668
 51
50.924019212976347
  0
ARC
  5
ABCC
  8
0
 10
120.87303836848071
 20
93.789988046354765
 30
0.0
 40
0.7460000000000309
 50
210.1341973575106
 51
234.30968260005821
  0
ARC
  5
ABCD
  8
0
 10
120.60055211919691
 20
93.416853125987771
 30
0.0
 40
0.283999999999993
 50
235.04003589370711
 51
292.38402560389568
  0
LINE
  5
ABCE
  8
0
 10
121.025811214
 20
93.276153504848466
 30
0.0
 11
120.7087028622627
 21
93.154252693057046
 31
0.0
  0
ARC
  5
ABCF
  8
0
 10
120.9286949023775
 20
93.543032228852397
 30
0.0
 40
0.284000000000009
 50
289.99622991522261
 51
347.44141208024161
  0
ARC
  5
ABD0
  8
0
 10
120.4760255029921
 20
93.635549993082037
 30
0.0
 40
0.7459999999999595
 50
348.06532201278333
 51
12.212887273272329
  0
ARC
  5
ABD1
  8
0
 10
128.78905095125029
 20
94.692305174225893
 30
0.0
 40
7.6370000000000413
 50
171.39084677644871
 51
186.75989515744189
  0
ARC
  5
ABD2
  8
0
 10
116.3113504376313
 20
90.839884978241145
 30
0.0
 40
7.6369999999999889
 50
27.5551687486163
 51
42.924019212975907
  0
ARC
  5
ABD3
  8
0
 10
123.7730762885853
 20
94.653855915601397
 30
0.0
 40
0.7460000000000909
 50
202.1341973575137
 51
226.30968260003081
  0
ARC
  5
ABD4
  8
0
 10
123.45131151280449
 20
94.322275074911317
 30
0.0
 40
0.2840000000000469
 50
227.04003589363791
 51
284.38402560388272
  0
LINE
  5
ABD5
  8
0
 10
123.852850202471
 20
94.123759493231745
 30
0.0
 11
123.52186281606549
 21
94.047178700566263
 31
0.0
  0
ARC
  5
ABD6
  8
0
 10
123.7938215699982
 20
94.401557562727646
 30
0.0
 40
0.2839999999999828
 50
281.99622991521971
 51
339.44141208025371
  0
ARC
  5
ABD7
  8
0
 10
123.3584335022321
 20
94.556174354457838
 30
0.0
 40
0.7460000000000181
 50
340.06532201278719
 51
4.2128872732723401
  0
ARC
  5
ABD8
  8
0
 10
131.73762905379371
 20
94.445695736827801
 30
0.0
 40
7.6369999999999409
 50
163.39084677644911
 51
178.7598951574416
  0
ARC
  5
ABD9
  8
0
 10
118.8452073989604
 20
92.367327302700389
 30
0.0
 40
7.6369999999997509
 50
19.555168748615781
 51
34.924019212976503
  0
ARC
  5
ABDA
  8
0
 10
126.76511840918739
 20
95.105709411885229
 30
0.0
 40
0.7459999999999307
 50
194.13419735750699
 51
218.30968260002231
  0
ARC
  5
ABDB
  8
0
 10
126.4003378922681
 20
94.822136494768586
 30
0.0
 40
0.2840000000000341
 50
219.04003589362091
 51
276.3840256038938
  0
LINE
  5
ABDC
  8
0
 10
126.7703408692032
 20
94.569669291377039
 30
0.0
 11
126.43191640637809
 21
94.539896771311746
 31
0.0
  0
ARC
  5
ABDD
  8
0
 10
126.7505486548111
 20
94.852979224093829
 30
0.0
 40
0.283999999999971
 50
273.99622991521397
 51
331.44141208021489
  0
ARC
  5
ABDE
  8
0
 10
126.3409162521569
 20
95.066685603347523
 30
0.0
 40
0.74600000000005
 50
332.06532201277412
 51
356.2128872732726
  0
ARC
  5
ABDF
  8
0
 10
134.62319039680449
 20
93.791123527568175
 30
0.0
 40
7.6370000000000271
 50
155.39084677644951
 51
170.75989515744169
  0
ARC
  5
ABE0
  8
0
 10
121.5669839233551
 20
93.527259932759065
 30
0.0
 40
7.6370000000002696
 50
11.55516874861717
 51
26.92401921297796
  0
ARC
  5
ABE1
  8
0
 10
129.79092803380701
 20
95.136753720877195
 30
0.0
 40
0.7460000000000764
 50
186.13419735751069
 51
210.30968260002501
  0
ARC
  5
ABE2
  8
0
 10
129.39023181357931
 20
94.906708151606139
 30
0.0
 40
0.284000000000054
 50
211.04003589362901
 51
268.38402560389022
  0
LINE
  5
ABE3
  8
0
 10
129.72149733360851
 20
94.605204835534067
 30
0.0
 11
129.38222292251879
 21
94.622821733355494
 31
0.0
  0
ARC
  5
ABE4
  8
0
 10
129.74132682733759
 20
94.888510803797132
 30
0.0
 40
0.2840000000000321
 50
265.99622991522023
 51
323.44141208076468
  0
ARC
  5
ABE5
  8
0
 10
129.36542311856289
 20
95.157147218989493
 30
0.0
 40
0.7459999999999988
 50
324.06532201298529
 51
348.21288727327101
  0
ARC
  5
ABE6
  8
0
 10
137.38957081101779
 20
92.741329049935601
 30
0.0
 40
7.6369999999997926
 50
147.3908467764486
 51
162.75989515744271
  0
ARC
  5
ABE7
  8
0
 10
124.42370372674441
 20
94.297106099177583
 30
0.0
 40
7.6369999999999338
 50
3.5551687486164569
 51
18.924019212976582
  0
ARC
  5
ABE8
  8
0
 10
132.7916112199083
 20
94.746384600414956
 30
0.0
 40
0.746000000000028
 50
178.13419735751569
 51
202.30968259999131
  0
ARC
  5
ABE9
  8
0
 10
132.36279839251381
 20
94.574343954322373
 30
0.0
 40
0.2840000000000247
 50
203.04003589352959
 51
260.38402560388857
  0
LINE
  5
ABEA
  8
0
 10
132.64887899532911
 20
94.229671359062166
 30
0.0
 11
132.3153579458594
 21
94.294334948062868
 31
0.0
  0
ARC
  5
ABEB
  8
0
 10
132.70794399240921
 20
94.507460720054937
 30
0.0
 40
0.2839999999999878
 50
257.99622991522261
 51
315.44141208075717
  0
ARC
  5
ABEC
  8
0
 10
132.3730855156212
 20
94.825798468933684
 30
0.0
 40
0.7459999999999337
 50
316.06532201298199
 51
340.21288727327692
  0
ARC
  5
ABED
  8
0
 10
139.9829258483831
 20
91.316745359313146
 30
0.0
 40
7.6370000000002616
 50
139.3908467764486
 51
154.75989515744021
  0
ARC
  5
ABEE
  8
0
 10
127.3597640076248
 20
94.661881622013098
 30
0.0
 40
7.6370000000001044
 50
355.55516874861769
 51
10.924019212977729
  0
ARC
  5
ABEF
  8
0
 10
135.7087630825003
 20
93.942200141389918
 30
0.0
 40
0.7460000000000419
 50
170.13419735751179
 51
194.30968259999091
  0
ARC
  5
ABF0
  8
0
 10
135.2601800018569
 20
93.831512993958782
 30
0.0
 40
0.2839999999999932
 50
195.04003589354099
 51
252.3840256038938
  0
LINE
  5
ABF1
  8
0
 10
135.49550695717329
 20
93.450379744172068
 30
0.0
 11
135.17423140257591
 21
93.560830876231165
 31
0.0
  0
ARC
  5
ABF2
  8
0
 10
135.59265832138459
 20
93.717245679309457
 30
0.0
 40
0.2840000000000311
 50
249.99622991522861
 51
307.44141208075717
  0
ARC
  5
ABF3
  8
0
 10
135.3053627159382
 20
94.079088679696483
 30
0.0
 40
0.745999999999985
 50
308.06532201297779
 51
332.21288727328061
  0
ARC
  5
ABF4
  8
0
 10
142.35277880299441
 20
89.545100356799693
 30
0.0
 40
7.6369999999999099
 50
131.39084677645019
 51
146.7598951574422
  0
ARC
  5
ABF5
  8
0
 10
130.31801769234869
 20
94.614486560639847
 30
0.0
 40
7.6369999999998956
 50
347.55516874861632
 51
2.9240192129775631
  0
ARC
  5
ABF6
  8
0
 10
138.48560457878881
 20
92.739852879550952
 30
0.0
 40
0.7460000000000632
 50
162.13419735751631
 51
186.30968259999329
  0
ARC
  5
ABF7
  8
0
 10
138.02598240430549
 20
92.692673630201114
 30
0.0
 40
0.2840000000000256
 50
187.0400358935326
 51
244.38402560388451
  0
LINE
  5
ABF8
  8
0
 10
138.20597602427
 20
92.282497510313959
 30
0.0
 11
137.90319839864969
 21
92.436586692929254
 31
0.0
  0
ARC
  5
ABF9
  8
0
 10
138.33932213116461
 20
92.533246318472308
 30
0.0
 40
0.2839999999999894
 50
241.99622991521969
 51
299.44141208067742
  0
ARC
  5
ABFA
  8
0
 10
138.10518127922569
 20
92.931551707955634
 30
0.0
 40
0.7460000000002007
 50
300.06532201294749
 51
324.21288727327482
  0
ARC
  5
ABFB
  8
0
 10
144.45300318275889
 20
87.460877097152064
 30
0.0
 40
7.6370000000000999
 50
123.3908467764504
 51
138.75989515743899
  0
ARC
  5
ABFC
  8
0
 10
133.2408857379059
 20
94.155843406016331
 30
0.0
 40
7.6370000000000644
 50
339.55516874861712
 51
354.92401921297738
  0
ARC
  5
ABFD
  8
0
 10
141.0680876476589
 20
91.162745136699854
 30
0.0
 40
0.746000000000028
 50
154.13419735751751
 51
178.30968259999139
  0
ARC
  5
ABFE
  8
0
 10
140.6063724021495
 20
91.179992075854372
 30
0.0
 40
0.2840000000000337
 50
179.0400358935324
 51
236.38402560388471
  0
LINE
  5
ABFF
  8
0
 10
140.72752816975111
 20
90.748758241534233
 30
0.0
 11
140.4491428136825
 21
90.943486616015434
 31
0.0
  0
ARC
  5
AC00
  8
0
 10
140.8944747349752
 20
90.978507838323097
 30
0.0
 40
0.284000000000002
 50
233.9962299152246
 51
291.44141208069539
  0
ARC
  5
AC01
  8
0
 10
140.71804592189571
 20
91.405523055561673
 30
0.0
 40
0.746000000000015
 50
292.06532201295391
 51
316.21288727327698
  0
ARC
  5
AC02
  8
0
 10
146.2427205090938
 20
85.104642615350883
 30
0.0
 40
7.6370000000000271
 50
115.3908467764483
 51
130.7598951574401
  0
ARC
  5
AC03
  8
0
 10
136.0714778425037
 20
93.294879125448404
 30
0.0
 40
7.6369999999998939
 50
331.55516874861769
 51
346.92401921297818
  0
ARC
  5
AC04
  8
0
 10
143.4059471937058
 20
89.241573521117786
 30
0.0
 40
0.7459999999999952
 50
146.1341973575164
 51
170.30968259996479
  0
ARC
  5
AC05
  8
0
 10
142.95112563923101
 20
89.32291095672413
 30
0.0
 40
0.2840000000000138
 50
171.04003589346539
 51
228.38402560388209
  0
LINE
  5
AC06
  8
0
 10
143.01108641922471
 20
88.879011757671833
 30
0.0
 11
142.76251176744699
 21
89.11058884114027
 31
0.0
  0
ARC
  5
AC07
  8
0
 10
143.20838299382649
 20
89.083291454888965
 30
0.0
 40
0.2840000000000264
 50
225.99622991521849
 51
283.44141208072
  0
ARC
  5
AC08
  8
0
 10
143.09310020576811
 20
89.530705134402154
 30
0.0
 40
0.7460000000001106
 50
284.06532201296841
 51
308.21288727327538
  0
ARC
  5
AC09
  8
0
 10
147.68709597001569
 20
82.522258335407358
 30
0.0
 40
7.6370000000000946
 50
107.3908467764486
 51
122.7598951574398
  0
ARC
  5
AC0A
  8
0
 10
138.75469975057581
 20
92.048351409325235
 30
0.0
 40
7.6370000000003762
 50
323.55516874861831
 51
338.92401921297721
  0
ARC
  5
AC0B
  8
0
 10
145.453679440142
 20
87.013731453001796
 30
0.0
 40
0.746000000000063
 50
138.13419735752279
 51
162.3096826000187
  0
ARC
  5
AC0C
  8
0
 10
145.0146041609074
 20
87.157576244395827
 30
0.0
 40
0.2839999999999931
 50
163.04003589360309
 51
220.38402560389531
  0
LINE
  5
AC0D
  8
0
 10
145.01220247149459
 20
86.709652282297597
 30
0.0
 11
144.79827581346029
 21
86.973570473492117
 31
0.0
  0
ARC
  5
AC0E
  8
0
 10
145.23600931549149
 20
86.884485399296835
 30
0.0
 40
0.2840000000000091
 50
217.99622991521159
 51
275.44141208060688
  0
ARC
  5
AC0F
  8
0
 10
145.18411640079159
 20
87.343589142738253
 30
0.0
 40
0.7460000000000051
 50
276.06532201292208
 51
300.21288727327118
  0
ARC
  5
AC10
  8
0
 10
148.75801644013001
 20
79.763987429912262
 30
0.0
 40
7.6369999999997766
 50
99.390846776449678
 51
114.7598951574427
  0
ARC
  5
AC11
  8
0
 10
141.2383255998021
 20
90.440522501736567
 30
0.0
 40
7.6370000000005049
 50
315.55516874861758
 51
330.9240192129771
  0
ARC
  5
AC12
  8
0
 10
147.17142760805109
 20
84.522581344074837
 30
0.0
 40
0.7460000000001215
 50
130.1341973575185
 51
154.3096825999805
  0
ARC
  5
AC13
  8
0
 10
146.7566447049266
 20
84.726133716013166
 30
0.0
 40
0.2840000000000384
 50
155.0400358935135
 51
212.38402560388681
  0
LINE
  5
AC14
  8
0
 10
146.6919284164905
 20
84.282903186976895
 30
0.0
 11
146.5168136954307
 21
84.574025310575934
 31
0.0
  0
ARC
  5
AC15
  8
0
 10
146.93788826000949
 20
84.424886930314031
 30
0.0
 40
0.2840000000000015
 50
209.99622991522071
 51
267.44141208057459
  0
ARC
  5
AC16
  8
0
 10
146.9503952552254
 20
84.886744805540374
 30
0.0
 40
0.7459999999999427
 50
268.06532201291338
 51
292.21288727325913
  0
ARC
  5
AC17
  8
0
 10
149.4346376706406
 20
76.883516504553583
 30
0.0
 40
7.6370000000000289
 50
91.390846776449877
 51
106.75989515744109
  0
ARC
  5
AC18
  8
0
 10
143.4740144381102
 20
88.502686963490163
 30
0.0
 40
7.6370000000001914
 50
307.55516874861797
 51
322.92401921297892
  0
ARC
  5
AC19
  8
0
 10
148.5257576832542
 20
81.816610597566154
 30
0.0
 40
0.7459999999999943
 50
122.1341973575154
 51
146.3096825999896
  0
ARC
  5
AC1A
  8
0
 10
148.1433404336407
 20
82.075908634666277
 30
0.0
 40
0.284000000000042
 50
147.0400358935382
 51
204.38402560389201
  0
LINE
  5
AC1B
  8
0
 10
148.01756738126269
 20
81.645998358726473
 30
0.0
 11
147.8846732378006
 21
81.958659179508658
 31
0.0
  0
ARC
  5
AC1C
  8
0
 10
148.28089468958461
 20
81.752369334387438
 30
0.0
 40
0.2839999999999929
 50
201.99622991522091
 51
259.44141208057579
  0
ARC
  5
AC1D
  8
0
 10
148.3575581602808
 20
82.207991803213204
 30
0.0
 40
0.7460000000000919
 50
260.0653220129181
 51
284.21288727325452
  0
ARC
  5
AC1E
  8
0
 10
149.70378999894029
 20
73.936910649407238
 30
0.0
 40
7.6369999999999489
 50
83.390846776449635
 51
98.759895157442941
  0
ARC
  5
AC1F
  8
0
 10
145.4182511253201
 20
86.272562559083141
 30
0.0
 40
7.6370000000000688
 50
299.5551687486182
 51
314.92401921297829
  0
ARC
  5
AC20
  8
0
 10
149.4903091713656
 20
78.948487856060211
 30
0.0
 40
0.7460000000000202
 50
114.1341973575163
 51
138.3096825999796
  0
ARC
  5
AC21
  8
0
 10
149.14770089203341
 20
79.258484616977171
 30
0.0
 40
0.2839999999999879
 50
139.0400358935014
 51
196.38402560389201
  0
LINE
  5
AC22
  8
0
 10
148.96331986784929
 20
78.850262518972144
 30
0.0
 11
148.87523351609701
 21
79.178375378251062
 31
0.0
  0
ARC
  5
AC23
  8
0
 10
149.23888851171191
 20
78.918950126578096
 30
0.0
 40
0.284000000000016
 50
193.99622991522131
 51
251.44141208053409
  0
ARC
  5
AC24
  8
0
 10
149.3782162906349
 20
79.359469015910165
 30
0.0
 40
0.7459999999999932
 50
252.0653220128977
 51
276.21288727325668
  0
ARC
  5
AC25
  8
0
 10
149.56023468111499
 20
70.981522195728601
 30
0.0
 40
7.6369999999999987
 50
75.390846776448129
 51
90.759895157443893
  0
ARC
  5
AC26
  8
0
 10
147.0331933058518
 20
83.793556123318254
 30
0.0
 40
7.6370000000000751
 50
291.55516874861718
 51
306.92401921297829
  0
ARC
  5
AC27
  8
0
 10
150.04630817482999
 20
75.974037866279261
 30
0.0
 40
0.7460000000000326
 50
106.13419735751989
 51
130.3096825999952
  0
ARC
  5
AC28
  8
0
 10
149.7501773462252
 20
76.328699616677895
 30
0.0
 40
0.2840000000000051
 50
131.0400358935336
 51
188.38402560389329
  0
LINE
  5
AC29
  8
0
 10
149.51077735424039
 20
75.9501109831035
 30
0.0
 11
149.4692124277353
 21
76.287290267646299
 31
0.0
  0
ARC
  5
AC2A
  8
0
 10
149.79322346634569
 20
75.979778588799405
 30
0.0
 40
0.2840000000000015
 50
185.9962299152217
 51
243.44141208051769
  0
ARC
  5
AC2B
  8
0
 10
149.9925036967615
 20
76.396619699539954
 30
0.0
 40
0.7460000000000618
 50
244.06532201289269
 51
268.21288727325799
  0
ARC
  5
AC2C
  8
0
 10
149.0067658581346
 20
68.07487441806434
 30
0.0
 40
7.6369999999998823
 50
67.390846776448896
 51
82.759895157444177
  0
ARC
  5
AC2D
  8
0
 10
128.500000372529
 20
73.485684767365441
 30
0.0
 40
23.499999999999972
 50
2.3018594608628988
 51
4.0000000000001661
  0
ARC
  5
AC2E
  8
0
 10
148.28740796713089
 20
81.113918696639686
 30
0.0
 40
7.6370000000000493
 50
283.55516874861547
 51
298.92401921297642
  0
ARC
  5
AC2F
  8
0
 10
150.18293280548451
 20
72.951154913887663
 30
0.0
 40
0.7459999999999654
 50
98.134197357515646
 51
122.30968259998301
  0
ARC
  5
AC30
  8
0
 10
149.93904327734219
 20
73.343578566218184
 30
0.0
 40
0.284000000000037
 50
123.0400358935089
 51
180.38402560388721
  0
ARC
  5
AC31
  8
0
 10
149.32302182220209
 20
69.469065554508148
 30
0.0
 40
7.6369999999998424
 50
251.5551687486174
 51
266.92401921297949
  0
ARC
  5
AC32
  8
0
 10
128.500000372529
 20
73.485684767365441
 30
0.0
 40
23.500000000000039
 50
186.30185946086371
 51
188.00000000000091
  0
ARC
  5
AC33
  8
0
 10
128.500000372529
 20
73.485684767365441
 30
0.0
 40
23.500000000000021
 50
194.3018594608634
 51
196.00000000000011
  0
ARC
  5
AC34
  8
0
 10
128.500000372529
 20
73.485684767365441
 30
0.0
 40
23.5
 50
202.30185946086331
 51
204.0
  0
ARC
  5
AC35
  8
0
 10
128.500000372529
 20
73.485684767365441
 30
0.0
 40
23.500000000000021
 50
210.3018594608624
 51
212.00000000000219
  0
ARC
  5
AC36
  8
0
 10
128.500000372529
 20
73.485684767365441
 30
0.0
 40
23.500000000000028
 50
218.3018594608653
 51
220.0000000000006
  0
ARC
  5
AC37
  8
0
 10
128.500000372529
 20
73.485684767365441
 30
0.0
 40
23.5
 50
226.30185946086311
 51
227.9999999999998
  0
ARC
  5
AC38
  8
0
 10
128.500000372529
 20
73.485684767365441
 30
0.0
 40
23.500000000000028
 50
234.30185946086391
 51
236.00000000000199
  0
ARC
  5
AC39
  8
0
 10
128.500000372529
 20
73.485684767365441
 30
0.0
 40
23.500000000000028
 50
242.30185946086431
 51
244.00000000000159
  0
ARC
  5
AC3A
  8
0
 10
128.500000372529
 20
73.485684767365441
 30
0.0
 40
23.500000000000011
 50
250.3018594608647
 51
252.00000000000111
  0
ARC
  5
AC3B
  8
0
 10
128.500000372529
 20
73.485684767365441
 30
0.0
 40
23.500000000000028
 50
258.30185946086232
 51
260.00000000000142
  0
ARC
  5
AC3C
  8
0
 10
128.500000372529
 20
73.485684767365441
 30
0.0
 40
23.500000000000021
 50
266.30185946086499
 51
267.9999999999996
  0
ARC
  5
AC3D
  8
0
 10
128.500000372529
 20
73.485684767365441
 30
0.0
 40
23.500000000000021
 50
274.30185946086368
 51
276.00000000000171
  0
ARC
  5
AC3E
  8
0
 10
128.500000372529
 20
73.485684767365441
 30
0.0
 40
23.500000000000021
 50
282.3018594608647
 51
283.99999999999949
  0
ARC
  5
AC3F
  8
0
 10
128.500000372529
 20
73.485684767365441
 30
0.0
 40
23.5
 50
290.30185946086289
 51
292.00000000000119
  0
ARC
  5
AC40
  8
0
 10
128.500000372529
 20
73.485684767365441
 30
0.0
 40
23.500000000000021
 50
298.30185946086232
 51
300.0
  0
ARC
  5
AC41
  8
0
 10
128.500000372529
 20
73.485684767365441
 30
0.0
 40
23.5
 50
306.30185946086368
 51
308.00000000000148
  0
ARC
  5
AC42
  8
0
 10
128.500000372529
 20
73.485684767365441
 30
0.0
 40
23.5
 50
314.3018594608638
 51
316.00000000000148
  0
ARC
  5
AC43
  8
0
 10
128.500000372529
 20
73.485684767365441
 30
0.0
 40
23.500000000000011
 50
322.301859460863
 51
323.99999999999932
  0
ARC
  5
AC44
  8
0
 10
128.500000372529
 20
73.485684767365441
 30
0.0
 40
23.500000000000011
 50
330.30185946086328
 51
332.00000000000188
  0
ARC
  5
AC45
  8
0
 10
128.500000372529
 20
73.485684767365441
 30
0.0
 40
23.5
 50
338.30185946086448
 51
340.00000000000159
  0
ARC
  5
AC46
  8
0
 10
128.500000372529
 20
73.485684767365441
 30
0.0
 40
23.500000000000011
 50
346.30185946086391
 51
348.0000000000004
  0
ARC
  5
AC47
  8
0
 10
128.500000372529
 20
73.485684767365441
 30
0.0
 40
23.5
 50
354.30185946086351
 51
356.00000000000068
  0
ARC
  5
AC48
  8
0
 10
128.500000372529
 20
73.485684767365441
 30
0.0
 40
23.500000000000011
 50
10.30185946086293
 51
12.00000000000038
  0
ARC
  5
AC49
  8
0
 10
128.500000372529
 20
73.485684767365441
 30
0.0
 40
23.5
 50
18.301859460863021
 51
19.999999999999051
  0
ARC
  5
AC4A
  8
0
 10
128.500000372529
 20
73.485684767365441
 30
0.0
 40
23.500000000000011
 50
26.301859460863909
 51
27.999999999998749
  0
ARC
  5
AC4B
  8
0
 10
128.500000372529
 20
73.485684767365441
 30
0.0
 40
23.5
 50
34.301859460863618
 51
36.000000000000973
  0
ARC
  5
AC4C
  8
0
 10
128.500000372529
 20
73.485684767365441
 30
0.0
 40
23.5
 50
42.30185946086177
 51
43.9999999999986
  0
ARC
  5
AC4D
  8
0
 10
128.500000372529
 20
73.485684767365441
 30
0.0
 40
23.500000000000039
 50
50.301859460862701
 51
51.999999999998622
  0
ARC
  5
AC4E
  8
0
 10
128.500000372529
 20
73.485684767365441
 30
0.0
 40
23.5
 50
58.301859460861742
 51
60.000000000000021
  0
ARC
  5
AC4F
  8
0
 10
128.500000372529
 20
73.485684767365441
 30
0.0
 40
23.499999999999989
 50
66.301859460863113
 51
67.999999999998693
  0
ARC
  5
AC50
  8
0
 10
128.500000372529
 20
73.485684767365441
 30
0.0
 40
23.5
 50
74.301859460863284
 51
76.000000000000469
  0
ARC
  5
AC51
  8
0
 10
128.500000372529
 20
73.485684767365441
 30
0.0
 40
23.500000000000011
 50
82.301859460862346
 51
84.000000000001535
  0
ARC
  5
AC52
  8
0
 10
128.500000372529
 20
73.485684767365441
 30
0.0
 40
23.500000000000028
 50
90.301859460861635
 51
92.000000000000398
  0
ARC
  5
AC53
  8
0
 10
128.500000372529
 20
73.485684767365441
 30
0.0
 40
23.500000000000028
 50
98.301859460863312
 51
99.999999999998565
  0
ARC
  5
AC54
  8
0
 10
128.500000372529
 20
73.485684767365441
 30
0.0
 40
23.500000000000011
 50
106.3018594608631
 51
107.99999999999881
  0
ARC
  5
AC55
  8
0
 10
128.500000372529
 20
73.485684767365441
 30
0.0
 40
23.5
 50
114.3018594608628
 51
115.99999999999839
  0
ARC
  5
AC56
  8
0
 10
128.500000372529
 20
73.485684767365441
 30
0.0
 40
23.499999999999989
 50
122.3018594608632
 51
124.00000000000171
  0
ARC
  5
AC57
  8
0
 10
128.500000372529
 20
73.485684767365441
 30
0.0
 40
23.500000000000028
 50
130.30185946086149
 51
132.0000000000002
  0
ARC
  5
AC58
  8
0
 10
128.500000372529
 20
73.485684767365441
 30
0.0
 40
23.500000000000039
 50
138.30185946086249
 51
139.9999999999996
  0
ARC
  5
AC59
  8
0
 10
128.500000372529
 20
73.485684767365441
 30
0.0
 40
23.500000000000028
 50
178.301859460863
 51
180.0
  0
LINE
  5
AC5F
  8
0
 10
64.999999664723873
 20
55.985684692859643
 30
0.0
 11
75.000000372529016
 21
55.985684692859643
 31
0.0
  0
LINE
  5
AC60
  8
0
 10
75.000000372529016
 20
90.985684841871233
 30
0.0
 11
64.999999664723873
 21
90.985684841871233
 31
0.0
  0
LINE
  5
AC63
  8
3
 10
50.0
 20
73.485684767365441
 30
0.0
 11
64.999999664723873
 21
73.485684767365456
 31
0.0
  0
LINE
  5
AC65
  8
3
 10
64.999999664723873
 20
74.182079185266034
 30
0.0
 11
50.0
 21
74.182079185266034
 31
0.0
  0
LINE
  5
AC6B
  8
3
 10
64.999999664723873
 20
70.906170364469276
 30
0.0
 11
50.0
 21
70.906170364469276
 31
0.0
  0
LINE
  5
AC6C
  8
3
 10
50.0
 20
70.215116906911135
 30
0.0
 11
64.999999664723873
 21
70.215116906911135
 31
0.0
  0
LINE
  5
AC72
  8
3
 10
64.999999664723873
 20
77.44443342089653
 30
0.0
 11
50.0
 21
77.44443342089653
 31
0.0
  0
LINE
  5
AC73
  8
3
 10
50.0
 20
76.756252627819777
 30
0.0
 11
64.999999664723873
 21
76.756252627819777
 31
0.0
  0
LINE
  5
AC7F
  8
3
 10
64.999999664723873
 20
67.680468969047055
 30
0.0
 11
50.0
 21
67.680468969047055
 31
0.0
  0
LINE
  5
AC83
  8
3
 10
50.0
 20
67.008206807076931
 30
0.0
 11
64.999999664723873
 21
67.008206807076931
 31
0.0
  0
LINE
  5
AC86
  8
3
 10
64.999999664723873
 20
80.629734974354506
 30
0.0
 11
50.0
 21
80.629734974354506
 31
0.0
  0
LINE
  5
AC87
  8
3
 10
50.0
 20
79.96316272765398
 30
0.0
 11
64.999999664723873
 21
79.96316272765398
 31
0.0
  0
LINE
  5
AC91
  8
3
 10
64.999999664723873
 20
64.567759819328785
 30
0.0
 11
50.0
 21
64.567759819328785
 31
0.0
  0
LINE
  5
AC95
  8
3
 10
50.0
 20
63.92737403512001
 30
0.0
 11
64.999999664723873
 21
63.92737403512001
 31
0.0
  0
LINE
  5
ACA0
  8
3
 10
64.999999664723873
 20
83.675986342132092
 30
0.0
 11
50.0
 21
83.675986342132092
 31
0.0
  0
LINE
  5
ACA1
  8
3
 10
50.0
 20
83.043995499610901
 30
0.0
 11
64.999999664723873
 21
83.043995499610901
 31
0.0
  0
LINE
  5
ACD3
  8
3
 10
64.999999664723873
 20
61.628626845777028
 30
0.0
 11
50.0
 21
61.628626845777028
 31
0.0
  0
LINE
  5
ACD7
  8
3
 10
50.0
 20
61.032582260668271
 30
0.0
 11
64.999999664723873
 21
61.032582260668271
 31
0.0
  0
LINE
  5
ACEA
  8
3
 10
50.0
 20
85.938787274062634
 30
0.0
 11
64.999999664723873
 21
85.938787274062634
 31
0.0
  0
LINE
  5
ACED
  8
3
 10
64.999999664723873
 20
86.523894406855106
 30
0.0
 11
50.0
 21
86.523894406855106
 31
0.0
  0
LINE
  5
AD03
  8
3
 10
64.999999664723873
 20
58.920279331505292
 30
0.0
 11
50.0
 21
58.920279331505292
 31
0.0
  0
LINE
  5
AD07
  8
3
 10
50.0
 20
58.380175568163388
 30
0.0
 11
64.999999664723873
 21
58.380175568163388
 31
0.0
  0
LINE
  5
AD0B
  8
3
 10
50.0
 20
88.591193966567516
 30
0.0
 11
64.999999664723873
 21
88.591193966567516
 31
0.0
  0
LINE
  5
AD0E
  8
3
 10
64.999999664723873
 20
89.118029177188873
 30
0.0
 11
50.0
 21
89.118029177188873
 31
0.0
  0
LINE
  5
AD11
  8
0
 10
75.000000372529016
 20
55.985684692859643
 30
0.0
 11
75.000000372529016
 21
90.985684841871233
 31
0.0
  0
LINE
  5
AD1A
  8
3
 10
64.999999664723873
 20
56.495429202914231
 30
0.0
 11
50.0
 21
56.495429202914231
 31
0.0
  0
LINE
  5
AD1E
  8
3
 10
50.0
 20
56.021780893206589
 30
0.0
 11
64.999999664723873
 21
56.021780893206589
 31
0.0
  0
LINE
  5
AD21
  8
3
 10
50.0
 20
90.949588641524315
 30
0.0
 11
64.999999664723873
 21
90.949588641524315
 31
0.0
  0
LINE
  5
AD24
  8
3
 10
64.999999664723873
 20
91.407898068428025
 30
0.0
 11
50.0
 21
91.407898068428025
 31
0.0
  0
LINE
  5
AD29
  8
3
 10
64.999999664723873
 20
54.401277750730507
 30
0.0
 11
50.0
 21
54.401277750730507
 31
0.0
  0
LINE
  5
AD2A
  8
3
 10
50.0
 20
54.003301262855523
 30
0.0
 11
64.999999664723873
 21
54.003301262855523
 31
0.0
  0
LINE
  5
AD2F
  8
3
 10
50.0
 20
92.968068271875353
 30
0.0
 11
64.999999664723873
 21
92.968068271875353
 31
0.0
  0
LINE
  5
AD32
  8
3
 10
64.999999664723873
 20
93.348930776119204
 30
0.0
 11
50.0
 21
93.348930776119204
 31
0.0
  0
LINE
  5
AD35
  8
3
 10
64.999999664723873
 20
52.678580582141869
 30
0.0
 11
50.0
 21
52.678580582141869
 31
0.0
  0
LINE
  5
AD38
  8
3
 10
50.0
 20
52.364024519920342
 30
0.0
 11
64.999999664723873
 21
52.364024519920342
 31
0.0
  0
LINE
  5
AD3B
  8
3
 10
50.0
 20
94.607345014810534
 30
0.0
 11
64.999999664723873
 21
94.607345014810534
 31
0.0
  0
LINE
  5
AD3E
  8
3
 10
64.999999664723873
 20
94.903347268700585
 30
0.0
 11
50.0
 21
94.903347268700585
 31
0.0
  0
LINE
  5
AD41
  8
3
 10
64.999999664723873
 20
51.360869035124772
 30
0.0
 11
50.0
 21
51.360869035124772
 31
0.0
  0
LINE
  5
AD44
  8
3
 10
50.0
 20
51.135855913162231
 30
0.0
 11
64.999999664723873
 21
51.135855913162231
 31
0.0
  0
LINE
  5
AD47
  8
3
 10
50.0
 20
95.835513621568666
 30
0.0
 11
64.999999664723873
 21
95.835513621568666
 31
0.0
  0
LINE
  5
AD4A
  8
3
 10
64.999999664723873
 20
96.040894463658333
 30
0.0
 11
50.0
 21
96.040894463658333
 31
0.0
  0
LINE
  5
AD4D
  8
3
 10
64.999999664723873
 20
50.473793596029282
 30
0.0
 11
50.0
 21
50.473793596029282
 31
0.0
  0
LINE
  5
AD50
  8
3
 10
50.0
 20
50.342702493071549
 30
0.0
 11
64.999999664723873
 21
50.342702493071549
 31
0.0
  0
LINE
  5
AD53
  8
3
 10
50.0
 20
96.628667041659355
 30
0.0
 11
64.999999664723873
 21
96.628667041659355
 31
0.0
  0
LINE
  5
AD56
  8
3
 10
64.999999664723873
 20
96.739431098103523
 30
0.0
 11
50.0
 21
96.739431098103523
 31
0.0
  0
LINE
  5
AD59
  8
3
 10
64.999999664723873
 20
50.034619122743599
 30
0.0
 11
50.0
 21
50.034619122743599
 31
0.0
  0
LINE
  5
AD5C
  8
0
 10
50.0
 20
50.0
 30
0.0
 11
64.999999664723873
 21
50.0
 31
0.0
  0
LINE
  5
AD5D
  8
0
 10
64.999999664723873
 20
50.0
 30
0.0
 11
64.999999664723873
 21
96.985357999801607
 31
0.0
  0
LINE
  5
AD5E
  8
0
 10
50.0
 20
50.0
 30
0.0
 11
50.0
 21
96.985357999801607
 31
0.0
  0
LINE
  5
AD5F
  8
3
 10
50.0
 20
96.971369534730911
 30
0.0
 11
64.999999664723873
 21
96.971369534730911
 31
0.0
  0
LINE
  5
AD62
  8
0
 10
64.999999664723873
 20
96.985357999801636
 30
0.0
 11
50.0
 21
96.985357999801636
 31
0.0
  0
LINE
  5
AD8F
  8
2
 10
75.000000372529016
 20
80.556752346456051
 30
0.0
 11
50.0
 21
80.556752346456051
 31
0.0
  0
LINE
  5
AD9C
  8
2
 10
75.000000372529016
 20
83.285684883594513
 30
0.0
 11
50.0
 21
83.285684883594513
 31
0.0
  0
LINE
  5
AE3B
  8
2
 10
50.0
 20
65.985684935003505
 30
0.0
 11
75.000000372529016
 21
65.985684935003505
 31
0.0
  0
LINE
  5
AE5E
  8
1
 10
128.500000372529
 20
100.9856847673654
 30
0.0
 11
128.500000372529
 21
45.985684767365441
 31
0.0
  0
CIRCLE
  5
AE6F
  8
5
 10
128.500000372529
 20
73.485684767365441
 30
0.0
 40
22.5
  0
LINE
  5
AE7E
  8
1
 10
46.0
 20
73.485684767365456
 30
0.0
 11
79.00000037252903
 21
73.485684767365456
 31
0.0
  0
LINE
  5
AED7
  8
1
 10
156.000000372529
 20
73.485684767365441
 30
0.0
 11
101.000000372529
 21
73.485684767365441
 31
0.0
  0
ENDSEC
  0
EOF
