  0
SECTION
  2
HEADER
  9
$ACADVER
  1
AC1009
  9
$INSBASE
 10
0.0
 20
0.0
 30
0.0
  9
$EXTMIN
 10
0.0
 20
-2.960436562073669
 30
0.0
  9
$EXTMAX
 10
147.0
 20
87.0
 30
0.0
  9
$LIMMIN
 10
0.0
 20
0.0
  9
$LIMMAX
 10
275.0
 20
175.0
  9
$ORTHOMODE
 70
     1
  9
$REGENMODE
 70
     1
  9
$FILLMODE
 70
     1
  9
$QTEXTMODE
 70
     0
  9
$MIRRTEXT
 70
     0
  9
$DRAGMODE
 70
     2
  9
$LTSCALE
 40
5.0
  9
$OSMODE
 70
    37
  9
$ATTMODE
 70
     1
  9
$TEXTSIZE
 40
0.2
  9
$TRACEWID
 40
0.05
  9
$TEXTSTYLE
  7
STANDARD
  9
$CLAYER
  8
0
  9
$CELTYPE
  6
BYLAYER
  9
$CECOLOR
 62
   256
  9
$DIMSCALE
 40
1.0
  9
$DIMASZ
 40
3.0
  9
$DIMEXO
 40
1.0
  9
$DIMDLI
 40
6.0
  9
$DIMRND
 40
0.0
  9
$DIMDLE
 40
0.0
  9
$DIMEXE
 40
1.0
  9
$DIMTP
 40
495.0
  9
$DIMTM
 40
0.0
  9
$DIMTXT
 40
3.0
  9
$DIMCEN
 40
0.0
  9
$DIMTSZ
 40
0.0
  9
$DIMTOL
 70
     0
  9
$DIMLIM
 70
     0
  9
$DIMTIH
 70
     0
  9
$DIMTOH
 70
     0
  9
$DIMSE1
 70
     0
  9
$DIMSE2
 70
     0
  9
$DIMTAD
 70
     1
  9
$DIMZIN
 70
     8
  9
$DIMBLK
  1

  9
$DIMASO
 70
     0
  9
$DIMSHO
 70
     0
  9
$DIMPOST
  1

  9
$DIMAPOST
  1

  9
$DIMALT
 70
     0
  9
$DIMALTD
 70
     2
  9
$DIMALTF
 40
25.399999999999999
  9
$DIMLFAC
 40
1.0
  9
$DIMTOFL
 70
     1
  9
$DIMTVP
 40
0.0
  9
$DIMTIX
 70
     1
  9
$DIMSOXD
 70
     0
  9
$DIMSAH
 70
     0
  9
$DIMBLK1
  1

  9
$DIMBLK2
  1

  9
$DIMSTYLE
  2
STANDARD
  9
$DIMCLRD
 70
     0
  9
$DIMCLRE
 70
     0
  9
$DIMCLRT
 70
     0
  9
$DIMTFAC
 40
1.0
  9
$DIMGAP
 40
1.0
  9
$LUNITS
 70
     2
  9
$LUPREC
 70
     1
  9
$SKETCHINC
 40
0.1
  9
$FILLETRAD
 40
0.0
  9
$AUNITS
 70
     0
  9
$AUPREC
 70
     0
  9
$MENU
  1
E:\r13\win\SUPPORT\ACAD
  9
$ELEVATION
 40
0.0
  9
$PELEVATION
 40
0.0
  9
$THICKNESS
 40
0.0
  9
$LIMCHECK
 70
     0
  9
$BLIPMODE
 70
     0
  9
$CHAMFERA
 40
0.0
  9
$CHAMFERB
 40
0.0
  9
$SKPOLY
 70
     0
  9
$TDCREATE
 40
2450653.5278402781
  9
$TDUPDATE
 40
2459439.6127518639
  9
$TDINDWG
 40
0.2789022106
  9
$TDUSRTIMER
 40
0.2789022106
  9
$USRTIMER
 70
     1
  9
$ANGBASE
 50
0.0
  9
$ANGDIR
 70
     0
  9
$PDMODE
 70
     0
  9
$PDSIZE
 40
0.0
  9
$PLINEWID
 40
0.0
  9
$COORDS
 70
     1
  9
$SPLFRAME
 70
     0
  9
$SPLINETYPE
 70
     6
  9
$SPLINESEGS
 70
     8
  9
$ATTDIA
 70
     0
  9
$ATTREQ
 70
     1
  9
$HANDLING
 70
     1
  9
$HANDSEED
  5
2603
  9
$SURFTAB1
 70
     6
  9
$SURFTAB2
 70
     6
  9
$SURFTYPE
 70
     6
  9
$SURFU
 70
     6
  9
$SURFV
 70
     6
  9
$UCSNAME
  2

  9
$UCSORG
 10
0.0
 20
0.0
 30
0.0
  9
$UCSXDIR
 10
1.0
 20
0.0
 30
0.0
  9
$UCSYDIR
 10
0.0
 20
1.0
 30
0.0
  9
$PUCSNAME
  2

  9
$PUCSORG
 10
0.0
 20
0.0
 30
0.0
  9
$PUCSXDIR
 10
1.0
 20
0.0
 30
0.0
  9
$PUCSYDIR
 10
0.0
 20
1.0
 30
0.0
  9
$USERI1
 70
     4
  9
$USERI2
 70
     1
  9
$USERI3
 70
     1
  9
$USERI4
 70
     0
  9
$USERI5
 70
     0
  9
$USERR1
 40
1.0
  9
$USERR2
 40
3.0
  9
$USERR3
 40
3.0
  9
$USERR4
 40
3.0
  9
$USERR5
 40
10.0
  9
$WORLDVIEW
 70
     1
  9
$SHADEDGE
 70
     3
  9
$SHADEDIF
 70
    70
  9
$TILEMODE
 70
     1
  9
$MAXACTVP
 70
    16
  9
$PLIMCHECK
 70
     0
  9
$PEXTMIN
 10
1.0000000000000000E+020
 20
1.0000000000000000E+020
 30
1.0000000000000000E+020
  9
$PEXTMAX
 10
-1.0000000000000000E+020
 20
-1.0000000000000000E+020
 30
-1.0000000000000000E+020
  9
$PLIMMIN
 10
0.0
 20
0.0
  9
$PLIMMAX
 10
12.0
 20
9.0
  9
$UNITMODE
 70
     0
  9
$VISRETAIN
 70
     0
  9
$PLINEGEN
 70
     0
  9
$PSLTSCALE
 70
     0
  0
ENDSEC
  0
SECTION
  2
TABLES
  0
TABLE
  2
VPORT
 70
     1
  0
VPORT
  2
*ACTIVE
 70
     0
 10
0.0
 20
0.0
 11
1.0
 21
1.0
 12
260.1957585644372
 22
100.0
 13
0.0
 23
0.0
 14
5.0
 24
5.0
 15
10.0
 25
10.0
 16
0.0
 26
0.0
 36
1.0
 17
0.0
 27
0.0
 37
0.0
 40
200.0
 41
2.6019575856443722
 42
50.0
 43
0.0
 44
0.0
 50
0.0
 51
0.0
 71
     0
 72
   100
 73
     1
 74
     0
 75
     0
 76
     0
 77
     0
 78
     0
  0
ENDTAB
  0
TABLE
  2
LTYPE
 70
     5
  0
LTYPE
  2
CONTINUOUS
 70
     0
  3
Solid Line
 72
    65
 73
     0
 40
0.0
  0
LTYPE
  2
CENTER
 70
     0
  3
____ _ ____ _ ____ _ ____ _ ____ _ ____ _ ____ 
 72
    65
 73
     4
 40
2.0
 49
1.25
 49
-0.25
 49
0.25
 49
-0.25
  0
LTYPE
  2
HIDDEN
 70
     0
  3
__ __ __ __ __ __ __ __ __ __ __ __ __ __ __ __
 72
    65
 73
     2
 40
0.375
 49
0.25
 49
-0.125
  0
LTYPE
  2
PHANTOM
 70
     0
  3
_____ _ _ _____ _ _ _____ _ _ _____ _ _ ____
 72
    65
 73
     6
 40
2.5
 49
1.25
 49
-0.25
 49
0.25
 49
-0.25
 49
0.25
 49
-0.25
  0
LTYPE
  2
PHANTOM2
 70
     0
  3
___ _ _ ___ _ _ ___ _ _ ___ _ _
 72
    65
 73
     6
 40
1.25
 49
0.625
 49
-0.125
 49
0.125
 49
-0.125
 49
0.125
 49
-0.125
  0
ENDTAB
  0
TABLE
  2
LAYER
 70
     6
  0
LAYER
  2
0
 70
     0
 62
     7
  6
CONTINUOUS
  0
LAYER
  2
1
 70
     0
 62
     1
  6
CENTER
  0
LAYER
  2
2
 70
     0
 62
     2
  6
HIDDEN
  0
LAYER
  2
5
 70
     0
 62
     3
  6
PHANTOM
  0
LAYER
  2
DEFPOINTS
 70
     0
 62
     7
  6
CONTINUOUS
  0
LAYER
  2
3
 70
     0
 62
     3
  6
CONTINUOUS
  0
ENDTAB
  0
TABLE
  2
STYLE
 70
     2
  0
STYLE
  2
STANDARD
 70
     0
 40
0.0
 41
1.0
 50
0.0
 71
     0
 42
0.2
  3
simplex
  4
bigfont
  0
STYLE
  2
STANDARD1
 70
     0
 40
0.0
 41
1.0
 50
0.0
 71
     0
 42
3.0
  3
txt
  4

  0
ENDTAB
  0
TABLE
  2
VIEW
 70
     0
  0
ENDTAB
  0
TABLE
  2
UCS
 70
     0
  0
ENDTAB
  0
TABLE
  2
APPID
 70
     9
  0
APPID
  2
ACAD
 70
     0
  0
APPID
  2
_CALL_MAC$
 70
     0
  0
APPID
  2
ACAD_MLEADERVER
 70
     0
  0
APPID
  2
ACAD_EXEMPT_FROM_CAD_STANDARDS
 70
     0
  0
APPID
  2
ACAD_NAV_VCDISPLAY
 70
     0
  0
APPID
  2
ACAD_DSTYLE_DIMJAG
 70
     0
  0
APPID
  2
ACAD_DSTYLE_DIMTALN
 70
     0
  0
APPID
  2
ACAECLAYERSTANDARD
 70
     0
  0
APPID
  2
ACCMTRANSPARENCY
 70
     0
  0
ENDTAB
  0
TABLE
  2
DIMSTYLE
 70
     1
  0
DIMSTYLE
  2
STANDARD
 70
     0
  3

  4

  5

  6

  7

 40
1.0
 41
0.18
 42
0.0625
 43
0.38
 44
0.18
 45
0.0
 46
0.0
 47
0.0
 48
0.0
140
0.18
141
0.09
142
0.0
143
25.399999999999999
144
1.0
145
0.0
146
1.0
147
0.09
 71
     0
 72
     0
 73
     1
 74
     1
 75
     0
 76
     0
 77
     0
 78
     0
170
     0
171
     2
172
     0
173
     0
174
     0
175
     0
176
     0
177
     0
178
     0
  0
ENDTAB
  0
ENDSEC
  0
SECTION
  2
BLOCKS
  0
BLOCK
  8
0
  2
$MODEL_SPACE
 70
     2
 10
0.0
 20
0.0
 30
0.0
  3
$MODEL_SPACE
  1

  0
ENDBLK
  5
7
  8
0
  0
BLOCK
 67
     1
  8
0
  2
$PAPER_SPACE
 70
     0
 10
0.0
 20
0.0
 30
0.0
  3
$PAPER_SPACE
  1

  0
ENDBLK
  5
A
 67
     1
  8
0
  0
ENDSEC
  0
SECTION
  2
ENTITIES
  0
TEXT
  5
2BF
  8
0
 62
     3
 10
0.0
 20
0.0
 30
0.0
 40
10.0
  1
ZCL-1.5-20-A12-K
  7
STANDARD1
  0
ARC
  5
235F
  8
0
 10
126.5
 20
66.5
 30
0.0
 40
5.9999999999999893
 50
109.4712206344897
 51
70.52877936551026
  0
LINE
  5
2360
  8
0
 10
128.5
 20
72.156854249492369
 30
0.0
 11
128.5
 21
74.299999999999983
 31
0.0
  0
LINE
  5
2361
  8
0
 10
128.5
 20
74.299999999999983
 30
0.0
 11
124.5
 21
74.299999999999983
 31
0.0
  0
LINE
  5
2362
  8
0
 10
124.5
 20
74.299999999999983
 30
0.0
 11
124.5
 21
72.156854249492369
 31
0.0
  0
CIRCLE
  5
2363
  8
0
 10
126.5
 20
66.5
 30
0.0
 40
12.5
  0
ARC
  5
2364
  8
0
 10
140.21442153318679
 20
70.365186347393646
 30
0.0
 40
5.5619999999999976
 50
273.0044978254416
 51
299.71874110084588
  0
ARC
  5
2365
  8
0
 10
140.24910189095121
 20
63.076750438649817
 30
0.0
 40
1.7530000000000341
 50
81.574734045835825
 51
105.2761436978892
  0
ARC
  5
2366
  8
0
 10
139.9148750394298
 20
64.199980730551729
 30
0.0
 40
0.5819999999999937
 50
102.6685209309241
 51
166.39631930304051
  0
LINE
  5
2367
  8
0
 10
139.254974846442
 20
63.835604633949544
 30
0.0
 11
139.34920252971679
 21
64.336869779620685
 31
0.0
  0
ARC
  5
2368
  8
0
 10
139.83342411474561
 20
63.755277527696379
 30
0.0
 40
0.5840000000000333
 50
172.0941073830914
 51
236.01849773052879
  0
ARC
  5
2369
  8
0
 10
140.53215957112201
 20
64.685609886713323
 30
0.0
 40
1.747000000000017
 50
234.06941462373359
 51
257.32172308810601
  0
ARC
  5
236A
  8
0
 10
137.85979281007121
 20
57.908733636687117
 30
0.0
 40
5.5649999999999533
 50
38.871847204858817
 51
65.712829826724274
  0
ARC
  5
236B
  8
0
 10
140.73759823412661
 20
65.938021340607364
 30
0.0
 40
5.5620000000000251
 50
255.00449782544021
 51
281.71874110084531
  0
ARC
  5
236C
  8
0
 10
138.51833065615139
 20
58.995590056076821
 30
0.0
 40
1.7529999999999379
 50
63.574734045837992
 51
87.276143697891825
  0
ARC
  5
236D
  8
0
 10
138.5475592798856
 20
60.167127321586669
 30
0.0
 40
0.5820000000000177
 50
84.668520930929787
 51
148.39631930304361
  0
LINE
  5
236E
  8
0
 10
137.807358495046
 20
60.024505434755547
 30
0.0
 11
138.05187379594011
 21
60.472118962465167
 31
0.0
  0
ARC
  5
236F
  8
0
 10
138.33267400007111
 20
59.769359162628739
 30
0.0
 40
0.5839999999999984
 50
154.0941073830858
 51
218.01849773052899
  0
ARC
  5
2370
  8
0
 10
139.2846994183775
 20
60.438236684399413
 30
0.0
 40
1.747000000000007
 50
216.06941462373149
 51
239.3217230881088
  0
ARC
  5
2371
  8
0
 10
139.86709962072999
 20
61.565866720537912
 30
0.0
 40
5.5619999999999647
 50
237.0044978254418
 51
263.71874110084713
  0
ARC
  5
2372
  8
0
 10
135.61112148009391
 20
55.649013605113481
 30
0.0
 40
1.752999999999991
 50
45.574734045837523
 51
69.276143697889097
  0
ARC
  5
2373
  8
0
 10
136.00094447774481
 20
56.754179614103251
 30
0.0
 40
0.5819999999999949
 50
66.668520930924544
 51
130.39631930304009
  0
LINE
  5
2374
  8
0
 10
135.25289911115581
 20
56.847272761031263
 30
0.0
 11
135.62376716837929
 21
57.197419139980418
 31
0.0
  0
ARC
  5
2375
  8
0
 10
135.67365931118221
 20
56.442282817855222
 30
0.0
 40
0.5839999999999808
 50
136.09410738308739
 51
200.0184977305278
  0
ARC
  5
2376
  8
0
 10
136.78578381032361
 20
56.784231110204992
 30
0.0
 40
1.747000000000011
 50
198.06941462373291
 51
221.3217230881082
  0
ARC
  5
2377
  8
0
 10
130.6404457690542
 20
52.872400826020097
 30
0.0
 40
5.5650000000000572
 50
2.8718472048586898
 51
29.712829826723588
  0
ARC
  5
2378
  8
0
 10
137.68813616239709
 20
57.676699443990373
 30
0.0
 40
5.5620000000000669
 50
219.00449782544189
 51
245.71874110084551
  0
ARC
  5
2379
  8
0
 10
131.8120522526487
 20
53.364607305749409
 30
0.0
 40
1.7530000000000441
 50
27.57473404583806
 51
51.276143697891932
  0
ARC
  5
237A
  8
0
 10
132.5243110331497
 20
54.295220709114773
 30
0.0
 40
0.5820000000000309
 50
48.66852093093047
 51
112.3963193030432
  0
LINE
  5
237B
  8
0
 10
131.8416449772314
 20
54.614916283962593
 30
0.0
 11
132.3025626413538
 21
54.8333207469664
 31
0.0
  0
ARC
  5
237C
  8
0
 10
132.11666293227191
 20
54.099725907106233
 30
0.0
 40
0.5840000000000072
 50
118.0941073830857
 51
182.0184977305274
  0
ARC
  5
237D
  8
0
 10
133.28002401764539
 20
54.081272688685978
 30
0.0
 40
1.746999999999991
 50
180.06941462373069
 51
203.3217230881063
  0
ARC
  5
237E
  8
0
 10
126.2266381917358
 20
52.259914897202378
 30
0.0
 40
5.5650000000000732
 50
344.87184720485908
 51
11.71282982672405
  0
ARC
  5
237F
  8
0
 10
134.4139999841602
 20
54.651218301414687
 30
0.0
 40
5.5619999999999461
 50
201.00449782544121
 51
227.7187411008446
  0
ARC
  5
2380
  8
0
 10
127.49300233947
 20
52.365984762961077
 30
0.0
 40
1.752999999999983
 50
9.5747340458361894
 51
33.276143697891158
  0
ARC
  5
2381
  8
0
 10
128.4579760507869
 20
53.03095063681571
 30
0.0
 40
0.5820000000000223
 50
30.668520930927262
 51
94.396319303033835
  0
LINE
  5
2382
  8
0
 10
127.9075134155067
 20
53.545954609267092
 30
0.0
 11
128.41336285416139
 21
53.61123820577339
 31
0.0
  0
ARC
  5
2383
  8
0
 10
128.00986845195899
 20
52.970994222359558
 30
0.0
 40
0.5840000000000268
 50
100.0941073830885
 51
164.01849773052689
  0
ARC
  5
2384
  8
0
 10
129.11058823491501
 20
52.593945822759487
 30
0.0
 40
1.746999999999987
 50
162.0694146237303
 51
185.3217230881074
  0
ARC
  5
2385
  8
0
 10
121.83958917283429
 20
53.041347714753407
 30
0.0
 40
5.5649999999999347
 50
326.8718472048588
 51
353.712829826725
  0
ARC
  5
2386
  8
0
 10
130.36518634739369
 20
52.785578466813149
 30
0.0
 40
5.562000000000042
 50
183.00449782544169
 51
209.71874110084431
  0
ARC
  5
2387
  8
0
 10
123.0767504386498
 20
52.750898109048791
 30
0.0
 40
1.7529999999999879
 50
351.57473404583777
 51
15.276143697891809
  0
ARC
  5
2388
  8
0
 10
124.1999807305517
 20
53.08512496057017
 30
0.0
 40
0.582000000000013
 50
12.6685209309295
 51
76.396319303043313
  0
LINE
  5
2389
  8
0
 10
123.8356046339496
 20
53.745025153557947
 30
0.0
 11
124.3368697796206
 21
53.65079747028318
 31
0.0
  0
ARC
  5
238A
  8
0
 10
123.75527752769641
 20
53.166575885254339
 30
0.0
 40
0.5840000000000019
 50
82.094107383085273
 51
146.01849773052771
  0
ARC
  5
238B
  8
0
 10
124.68560988671329
 20
52.467840428877928
 30
0.0
 40
1.747000000000017
 50
144.0694146237303
 51
167.32172308810701
  0
ARC
  5
238C
  8
0
 10
117.9087336366871
 20
55.140207189928802
 30
0.0
 40
5.5649999999999498
 50
308.87184720485868
 51
335.71282982672409
  0
ARC
  5
238D
  8
0
 10
125.93802134060741
 20
52.262401765873399
 30
0.0
 40
5.5620000000000287
 50
165.00449782544061
 51
191.71874110084531
  0
ARC
  5
238E
  8
0
 10
118.99559005607679
 20
54.481669343848623
 30
0.0
 40
1.7529999999999799
 50
333.57473404583709
 51
357.27614369789279
  0
ARC
  5
238F
  8
0
 10
120.1671273215867
 20
54.45244072011441
 30
0.0
 40
0.5820000000000326
 50
354.66852093093269
 51
58.396319303037842
  0
LINE
  5
2390
  8
0
 10
120.0245054347556
 20
55.19264150495394
 30
0.0
 11
120.4721189624653
 21
54.948126204059861
 31
0.0
  0
ARC
  5
2391
  8
0
 10
119.7693591626287
 20
54.667325999928863
 30
0.0
 40
0.5839999999999895
 50
64.094107383079944
 51
128.0184977305328
  0
ARC
  5
2392
  8
0
 10
120.4382366843994
 20
53.715300581622422
 30
0.0
 40
1.7470000000000001
 50
126.0694146237327
 51
149.32172308810681
  0
ARC
  5
2393
  8
0
 10
114.8188511110535
 20
58.351042333684589
 30
0.0
 40
5.5650000000000768
 50
290.87184720485862
 51
317.71282982672511
  0
ARC
  5
2394
  8
0
 10
121.565866720538
 20
53.132900379269891
 30
0.0
 40
5.5620000000000367
 50
147.00449782544101
 51
173.7187411008444
  0
ARC
  5
2395
  8
0
 10
115.6490136051134
 20
57.3888785199061
 30
0.0
 40
1.7530000000001089
 50
315.5747340458372
 51
339.27614369788978
  0
ARC
  5
2396
  8
0
 10
116.75417961410319
 20
56.999055522255169
 30
0.0
 40
0.5820000000000279
 50
336.66852093092263
 51
40.396319303032257
  0
LINE
  5
2397
  8
0
 10
116.84727276103131
 20
57.747100888844201
 30
0.0
 11
117.1974191399804
 21
57.37623283162057
 31
0.0
  0
ARC
  5
2398
  8
0
 10
116.4422828178552
 20
57.326340688817822
 30
0.0
 40
0.5840000000000019
 50
46.094107383081663
 51
110.0184977305298
  0
ARC
  5
2399
  8
0
 10
116.7842311102049
 20
56.214216189676371
 30
0.0
 40
1.746999999999969
 50
108.0694146237319
 51
131.3217230881074
  0
ARC
  5
239A
  8
0
 10
112.87240082602
 20
62.359554230945839
 30
0.0
 40
5.565000000000083
 50
272.87184720485777
 51
299.7128298267246
  0
ARC
  5
239B
  8
0
 10
117.6766994439903
 20
55.311863837602942
 30
0.0
 40
5.5619999999999683
 50
129.00449782544149
 51
155.7187411008448
  0
ARC
  5
239C
  8
0
 10
113.3646073057494
 20
61.187947747351203
 30
0.0
 40
1.7530000000000361
 50
297.57473404583851
 51
321.27614369788978
  0
ARC
  5
239D
  8
0
 10
114.2952207091148
 20
60.475688966850228
 30
0.0
 40
0.5820000000000324
 50
318.66852093092388
 51
22.3963193030316
  0
LINE
  5
239E
  8
0
 10
114.6149162839626
 20
61.158355022768511
 30
0.0
 11
114.83332074696651
 21
60.697437358646113
 31
0.0
  0
ARC
  5
239F
  8
0
 10
114.0997259071062
 20
60.883337067728142
 30
0.0
 40
0.5839999999999997
 50
28.094107383082068
 51
92.018497730527798
  0
ARC
  5
23A0
  8
0
 10
114.081272688686
 20
59.719975982354612
 30
0.0
 40
1.746999999999977
 50
90.069414623731149
 51
113.3217230881075
  0
ARC
  5
23A1
  8
0
 10
112.25991489720229
 20
66.77336180826407
 30
0.0
 40
5.5649999999999968
 50
254.871847204858
 51
281.71282982672392
  0
ARC
  5
23A2
  8
0
 10
114.6512183014147
 20
58.586000015839723
 30
0.0
 40
5.5620000000000012
 50
111.0044978254398
 51
137.7187411008448
  0
ARC
  5
23A3
  8
0
 10
112.36598476296101
 20
65.506997660529947
 30
0.0
 40
1.753000000000015
 50
279.57473404583828
 51
303.27614369788978
  0
ARC
  5
23A4
  8
0
 10
113.0309506368157
 20
64.542023949213061
 30
0.0
 40
0.581999999999991
 50
300.66852093092052
 51
4.396319303034657
  0
LINE
  5
23A5
  8
0
 10
113.5459546092671
 20
65.092486584493216
 30
0.0
 11
113.6112382057733
 21
64.586637145838566
 31
0.0
  0
ARC
  5
23A6
  8
0
 10
112.97099422235959
 20
64.990131548040964
 30
0.0
 40
0.583999999999989
 50
10.09410738307964
 51
74.018497730531465
  0
ARC
  5
23A7
  8
0
 10
112.59394582275949
 20
63.889411765084994
 30
0.0
 40
1.747000000000027
 50
72.06941462373112
 51
95.321723088106154
  0
ARC
  5
23A8
  8
0
 10
113.0413477147534
 20
71.160410827165776
 30
0.0
 40
5.5650000000000137
 50
236.87184720485951
 51
263.7128298267275
  0
ARC
  5
23A9
  8
0
 10
112.78557846681311
 20
62.63481365260634
 30
0.0
 40
5.5619999999999976
 50
93.004497825441646
 51
119.71874110084551
  0
ARC
  5
23AA
  8
0
 10
112.7508981090488
 20
69.923249561350161
 30
0.0
 40
1.7530000000000201
 50
261.57473404583908
 51
285.27614369788932
  0
ARC
  5
23AB
  8
0
 10
113.0851249605701
 20
68.800019269448256
 30
0.0
 40
0.5819999999999989
 50
282.66852093092092
 51
346.39631930303699
  0
LINE
  5
23AC
  8
0
 10
113.745025153558
 20
69.164395366050357
 30
0.0
 11
113.65079747028319
 21
68.663130220379259
 31
0.0
  0
ARC
  5
23AD
  8
0
 10
113.1665758852543
 20
69.244722472303621
 30
0.0
 40
0.5840000000000373
 50
352.09410738308299
 51
56.018497730524743
  0
ARC
  5
23AE
  8
0
 10
112.46784042887791
 20
68.31439011328662
 30
0.0
 40
1.7470000000000729
 50
54.06941462373026
 51
77.321723088105841
  0
ARC
  5
23AF
  8
0
 10
115.1402071899288
 20
75.091266363312897
 30
0.0
 40
5.565000000000019
 50
218.8718472048588
 51
245.71282982672429
  0
ARC
  5
23B0
  8
0
 10
126.5
 20
66.5
 30
0.0
 40
16.500000000000011
 50
158.64631523885569
 51
162.00000000000031
  0
ARC
  5
23B1
  8
0
 10
112.26240176587341
 20
67.061978659392594
 30
0.0
 40
5.5620000000000394
 50
75.00449782544014
 51
101.71874110084519
  0
ARC
  5
23B2
  8
0
 10
114.48166934384859
 20
74.00440994392315
 30
0.0
 40
1.752999999999924
 50
243.57473404583791
 51
267.27614369789183
  0
ARC
  5
23B3
  8
0
 10
114.4524407201144
 20
72.832872678413295
 30
0.0
 40
0.582000000000015
 50
264.6685209309266
 51
328.3963193030433
  0
LINE
  5
23B4
  8
0
 10
115.1926415049539
 20
72.975494565244347
 30
0.0
 11
114.9481262040599
 21
72.527881037534783
 31
0.0
  0
ARC
  5
23B5
  8
0
 10
114.66732599992881
 20
73.230640837371254
 30
0.0
 40
0.584000000000017
 50
334.09410738307668
 51
38.018497730520799
  0
ARC
  5
23B6
  8
0
 10
113.7153005816224
 20
72.56176331560053
 30
0.0
 40
1.7470000000000609
 50
36.069414623730147
 51
59.321723088106033
  0
ARC
  5
23B7
  8
0
 10
118.3510423336846
 20
78.181148888946481
 30
0.0
 40
5.5650000000000999
 50
200.8718472048603
 51
227.71282982672429
  0
ARC
  5
23B8
  8
0
 10
126.5
 20
66.5
 30
0.0
 40
16.500000000000021
 50
140.64631523885441
 51
143.99999999999949
  0
ARC
  5
23B9
  8
0
 10
113.1329003792699
 20
71.434133279462017
 30
0.0
 40
5.5620000000000394
 50
57.004497825441632
 51
83.718741100843872
  0
ARC
  5
23BA
  8
0
 10
117.388878519906
 20
77.350986394886519
 30
0.0
 40
1.753000000000001
 50
225.5747340458378
 51
249.27614369788881
  0
ARC
  5
23BB
  8
0
 10
116.99905552225511
 20
76.245820385896749
 30
0.0
 40
0.5819999999999962
 50
246.66852093092419
 51
310.396319303045
  0
LINE
  5
23BC
  8
0
 10
117.7471008888442
 20
76.152727238968666
 30
0.0
 11
117.3762328316206
 21
75.802580860019603
 31
0.0
  0
ARC
  5
23BD
  8
0
 10
117.32634068881779
 20
76.557717182144756
 30
0.0
 40
0.5839999999999999
 50
316.09410738308031
 51
20.018497730523968
  0
ARC
  5
23BE
  8
0
 10
116.21421618967631
 20
76.215768889795015
 30
0.0
 40
1.7470000000000421
 50
18.069414623730172
 51
41.321723088105692
  0
ARC
  5
23BF
  8
0
 10
122.3595542309458
 20
80.127599173979917
 30
0.0
 40
5.5650000000000581
 50
182.8718472048599
 51
209.71282982672389
  0
ARC
  5
23C0
  8
0
 10
126.5
 20
66.5
 30
0.0
 40
16.499999999999989
 50
122.6463152388547
 51
125.9999999999994
  0
ARC
  5
23C1
  8
0
 10
115.3118638376029
 20
75.323300556009642
 30
0.0
 40
5.5620000000000331
 50
39.004497825439209
 51
65.718741100845307
  0
ARC
  5
23C2
  8
0
 10
121.1879477473512
 20
79.635392694250555
 30
0.0
 40
1.753000000000019
 50
207.5747340458407
 51
231.2761436978879
  0
ARC
  5
23C3
  8
0
 10
120.4756889668503
 20
78.704779290885213
 30
0.0
 40
0.5820000000000115
 50
228.66852093091751
 51
292.39631930303682
  0
LINE
  5
23C4
  8
0
 10
121.1583550227685
 20
78.385083716037414
 30
0.0
 11
120.6974373586462
 21
78.166679253033593
 31
0.0
  0
ARC
  5
23C5
  8
0
 10
120.88333706772811
 20
78.900274092893781
 30
0.0
 40
0.5840000000000063
 50
298.09410738308497
 51
2.0184977305208549
  0
ARC
  5
23C6
  8
0
 10
119.7199759823545
 20
78.918727311314001
 30
0.0
 40
1.747000000000019
 50
0.0694146237291129
 51
23.32172308810517
  0
ARC
  5
23C7
  8
0
 10
126.7733618082641
 20
80.740085102797636
 30
0.0
 40
5.5650000000000199
 50
164.87184720485871
 51
191.7128298267252
  0
ARC
  5
23C8
  8
0
 10
126.5
 20
66.5
 30
0.0
 40
16.500000000000021
 50
104.64631523885581
 51
107.99999999999901
  0
ARC
  5
23C9
  8
0
 10
118.5860000158397
 20
78.348781698585228
 30
0.0
 40
5.5620000000000109
 50
21.004497825440051
 51
47.718741100844561
  0
ARC
  5
23CA
  8
0
 10
125.5069976605299
 20
80.634015237038909
 30
0.0
 40
1.752999999999993
 50
189.5747340458382
 51
213.27614369789009
  0
ARC
  5
23CB
  8
0
 10
124.5420239492131
 20
79.969049363184325
 30
0.0
 40
0.5820000000000214
 50
210.66852093092581
 51
274.39631930304358
  0
LINE
  5
23CC
  8
0
 10
125.0924865844932
 20
79.454045390732901
 30
0.0
 11
124.58663714583859
 21
79.388761794226596
 31
0.0
  0
ARC
  5
23CD
  8
0
 10
124.99013154804091
 20
80.029005777640435
 30
0.0
 40
0.5840000000000191
 50
280.09410738307872
 51
344.01849773052032
  0
ARC
  5
23CE
  8
0
 10
123.8894117650849
 20
80.406054177240506
 30
0.0
 40
1.747000000000059
 50
342.06941462372993
 51
5.3217230881062036
  0
ARC
  5
23CF
  8
0
 10
131.1604108271658
 20
79.958652285246558
 30
0.0
 40
5.5650000000000031
 50
146.87184720485851
 51
173.71282982672409
  0
ARC
  5
23D0
  8
0
 10
122.6348136526063
 20
80.214421533186837
 30
0.0
 40
5.5620000000000447
 50
3.0044978254404739
 51
29.718741100843911
  0
ARC
  5
23D1
  8
0
 10
129.92324956135019
 20
80.249101890951195
 30
0.0
 40
1.7530000000000281
 50
171.57473404583811
 51
195.2761436978891
  0
ARC
  5
23D2
  8
0
 10
128.80001926944831
 20
79.91487503942983
 30
0.0
 40
0.5819999999999868
 50
192.66852093092311
 51
256.39631930306018
  0
LINE
  5
23D3
  8
0
 10
129.16439536605051
 20
79.254974846442011
 30
0.0
 11
128.6631302203794
 21
79.349202529716806
 31
0.0
  0
ARC
  5
23D4
  8
0
 10
129.24472247230361
 20
79.833424114745654
 30
0.0
 40
0.5840000000000178
 50
262.09410738309521
 51
326.01849773053249
  0
ARC
  5
23D5
  8
0
 10
128.31439011328661
 20
80.532159571122037
 30
0.0
 40
1.7470000000000481
 50
324.06941462373419
 51
347.32172308810777
  0
ARC
  5
23D6
  8
0
 10
135.0912663633128
 20
77.859792810071184
 30
0.0
 40
5.5649999999999613
 50
128.87184720485789
 51
155.71282982672381
  0
ARC
  5
23D7
  8
0
 10
127.06197865939259
 20
80.737598234126594
 30
0.0
 40
5.5620000000000287
 50
345.00449782544109
 51
11.71874110084452
  0
ARC
  5
23D8
  8
0
 10
134.00440994392309
 20
78.518330656151406
 30
0.0
 40
1.7529999999998971
 50
153.5747340458374
 51
177.2761436978906
  0
ARC
  5
23D9
  8
0
 10
132.83287267841331
 20
78.547559279885562
 30
0.0
 40
0.5819999999999906
 50
174.66852093092149
 51
238.39631930304211
  0
LINE
  5
23DA
  8
0
 10
132.9754945652445
 20
77.807358495046003
 30
0.0
 11
132.52788103753471
 21
78.051873795940125
 31
0.0
  0
ARC
  5
23DB
  8
0
 10
133.2306408373712
 20
78.332674000071137
 30
0.0
 40
0.5840000000000033
 50
244.0941073830941
 51
308.0184977305247
  0
ARC
  5
23DC
  8
0
 10
132.5617633156005
 20
79.284699418377556
 30
0.0
 40
1.747000000000017
 50
306.06941462372959
 51
329.32172308810789
  0
ARC
  5
23DD
  8
0
 10
138.18114888894641
 20
74.648957666315439
 30
0.0
 40
5.565000000000027
 50
110.8718472048583
 51
137.71282982672261
  0
ARC
  5
23DE
  8
0
 10
131.434133279462
 20
79.867099620730102
 30
0.0
 40
5.5620000000000021
 50
327.00449782544138
 51
353.7187411008448
  0
ARC
  5
23DF
  8
0
 10
137.35098639488649
 20
75.611121480093914
 30
0.0
 40
1.753000000000041
 50
135.57473404583629
 51
159.27614369788981
  0
ARC
  5
23E0
  8
0
 10
136.24582038589671
 20
76.000944477744795
 30
0.0
 40
0.5819999999999962
 50
156.6685209309222
 51
220.3963193030396
  0
LINE
  5
23E1
  8
0
 10
136.15272723896871
 20
75.252899111155713
 30
0.0
 11
135.80258086001959
 21
75.623767168379359
 31
0.0
  0
ARC
  5
23E2
  8
0
 10
136.5577171821447
 20
75.673659311182163
 30
0.0
 40
0.5840000000000116
 50
226.0941073830943
 51
290.01849773053323
  0
ARC
  5
23E3
  8
0
 10
136.2157688897949
 20
76.78578381032365
 30
0.0
 40
1.747000000000037
 50
288.06941462373533
 51
311.32172308810851
  0
ARC
  5
23E4
  8
0
 10
140.12759917397989
 20
70.640445769054153
 30
0.0
 40
5.5650000000000572
 50
92.871847204857815
 51
119.7128298267241
  0
ARC
  5
23E5
  8
0
 10
135.32330055600971
 20
77.688136162397058
 30
0.0
 40
5.5619999999999834
 50
309.004497825442
 51
335.71874110084559
  0
ARC
  5
23E6
  8
0
 10
139.6353926942505
 20
71.812052252648769
 30
0.0
 40
1.7530000000000621
 50
117.574734045838
 51
141.27614369789251
  0
ARC
  5
23E7
  8
0
 10
138.7047792908852
 20
72.524311033149743
 30
0.0
 40
0.5820000000000312
 50
138.66852093093249
 51
202.39631930304299
  0
LINE
  5
23E8
  8
0
 10
138.3850837160374
 20
71.841644977231425
 30
0.0
 11
138.16667925303361
 21
72.302562641353774
 31
0.0
  0
ARC
  5
23E9
  8
0
 10
138.9002740928938
 20
72.116662932271865
 30
0.0
 40
0.5840000000000264
 50
208.0941073830883
 51
272.01849773052783
  0
ARC
  5
23EA
  8
0
 10
138.918727311314
 20
73.280024017645331
 30
0.0
 40
1.7469999999999339
 50
270.06941462373112
 51
293.32172308810749
  0
ARC
  5
23EB
  8
0
 10
140.74008510279759
 20
66.226638191735816
 30
0.0
 40
5.5650000000000928
 50
74.871847204858042
 51
101.71282982672381
  0
ARC
  5
23EC
  8
0
 10
126.5
 20
66.5
 30
0.0
 40
16.499999999999989
 50
14.64631523885544
 51
18.00000000000065
  0
ARC
  5
23ED
  8
0
 10
138.3487816985851
 20
74.413999984160299
 30
0.0
 40
5.5620000000000331
 50
291.00449782544001
 51
317.7187411008457
  0
ARC
  5
23EE
  8
0
 10
140.6340152370388
 20
67.493002339470095
 30
0.0
 40
1.7529999999999299
 50
99.5747340458351
 51
123.2761436978909
  0
ARC
  5
23EF
  8
0
 10
139.9690493631843
 20
68.457976050786911
 30
0.0
 40
0.5819999999999979
 50
120.66852093092839
 51
184.39631930304361
  0
LINE
  5
23F0
  8
0
 10
139.45404539073289
 20
67.907513415506642
 30
0.0
 11
139.38876179422661
 21
68.413362854161321
 31
0.0
  0
ARC
  5
23F1
  8
0
 10
140.02900577764041
 20
68.009868451959036
 30
0.0
 40
0.5839999999999936
 50
190.09410738309501
 51
254.01849773053499
  0
ARC
  5
23F2
  8
0
 10
140.40605417724049
 20
69.110588234915014
 30
0.0
 40
1.7470000000000241
 50
252.0694146237343
 51
275.32172308810613
  0
ARC
  5
23F3
  8
0
 10
139.9586522852465
 20
61.839589172834231
 30
0.0
 40
5.5649999999999862
 50
56.871847204859513
 51
83.712829826724146
  0
ARC
  5
23F4
  8
0
 10
134.64895766631551
 20
54.81885111105359
 30
0.0
 40
5.5649999999999586
 50
20.871847204858749
 51
47.712829826724317
  0
ARC
  5
23F5
  8
0
 10
126.5
 20
66.5
 30
0.0
 40
16.500000000000021
 50
194.64631523885581
 51
198.00000000000099
  0
ARC
  5
23F6
  8
0
 10
126.5
 20
66.5
 30
0.0
 40
16.500000000000011
 50
212.6463152388562
 51
216.00000000000151
  0
ARC
  5
23F7
  8
0
 10
126.5
 20
66.5
 30
0.0
 40
16.500000000000028
 50
230.6463152388572
 51
234.0000000000008
  0
ARC
  5
23F8
  8
0
 10
126.5
 20
66.5
 30
0.0
 40
16.500000000000021
 50
248.64631523885481
 51
252.00000000000111
  0
ARC
  5
23F9
  8
0
 10
126.5
 20
66.5
 30
0.0
 40
16.5
 50
266.64631523885578
 51
270.0
  0
ARC
  5
23FA
  8
0
 10
126.5
 20
66.5
 30
0.0
 40
16.500000000000021
 50
284.64631523885578
 51
288.0000000000021
  0
ARC
  5
23FB
  8
0
 10
126.5
 20
66.5
 30
0.0
 40
16.499999999999989
 50
302.64631523885521
 51
305.99999999999989
  0
ARC
  5
23FC
  8
0
 10
126.5
 20
66.5
 30
0.0
 40
16.500000000000011
 50
320.64631523885538
 51
323.99999999999977
  0
ARC
  5
23FD
  8
0
 10
126.5
 20
66.5
 30
0.0
 40
16.499999999999989
 50
338.64631523885612
 51
342.00000000000108
  0
ARC
  5
23FE
  8
0
 10
126.5
 20
66.5
 30
0.0
 40
16.500000000000021
 50
356.64631523885589
 51
0.0
  0
ARC
  5
23FF
  8
0
 10
126.5
 20
66.5
 30
0.0
 40
16.5
 50
32.646315238855877
 51
36.000000000000483
  0
ARC
  5
2400
  8
0
 10
126.5
 20
66.5
 30
0.0
 40
16.499999999999989
 50
50.646315238854363
 51
54.000000000000568
  0
ARC
  5
2401
  8
0
 10
126.5
 20
66.5
 30
0.0
 40
16.500000000000021
 50
68.64631523885464
 51
72.000000000000952
  0
ARC
  5
2402
  8
0
 10
126.5
 20
66.5
 30
0.0
 40
16.5
 50
86.646315238855877
 51
90.0
  0
ARC
  5
2403
  8
0
 10
126.5
 20
66.5
 30
0.0
 40
16.500000000000028
 50
176.6463152388551
 51
180.0
  0
LINE
  5
2407
  8
0
 10
67.0
 20
54.0
 30
0.0
 11
80.0
 21
54.0
 31
0.0
  0
LINE
  5
2408
  8
0
 10
80.0
 20
79.0
 30
0.0
 11
67.0
 21
79.0
 31
0.0
  0
LINE
  5
240B
  8
3
 10
50.0
 20
66.5
 30
0.0
 11
67.0
 21
66.5
 31
0.0
  0
LINE
  5
240D
  8
3
 10
67.0
 20
67.465240491324494
 30
0.0
 11
50.0
 21
67.465240491324494
 31
0.0
  0
LINE
  5
2413
  8
3
 10
67.0
 20
62.327949807600611
 30
0.0
 11
50.0
 21
62.327949807600611
 31
0.0
  0
LINE
  5
2414
  8
3
 10
50.0
 20
61.401219592813341
 30
0.0
 11
67.0
 21
61.401219592813341
 31
0.0
  0
LINE
  5
241A
  8
3
 10
67.0
 20
72.508046710531602
 30
0.0
 11
50.0
 21
72.508046710531602
 31
0.0
  0
LINE
  5
241B
  8
3
 10
50.0
 20
71.598780407186624
 30
0.0
 11
67.0
 21
71.598780407186624
 31
0.0
  0
LINE
  5
242B
  8
3
 10
67.0
 20
57.59904846509172
 30
0.0
 11
50.0
 21
57.59904846509172
 31
0.0
  0
LINE
  5
242F
  8
3
 10
50.0
 20
56.801543337174181
 30
0.0
 11
67.0
 21
56.801543337174181
 31
0.0
  0
LINE
  5
243C
  8
3
 10
50.0
 20
76.198456662825819
 30
0.0
 11
67.0
 21
76.198456662825791
 31
0.0
  0
LINE
  5
243F
  8
3
 10
67.0
 20
76.962743457189006
 30
0.0
 11
50.0
 21
76.962743457189006
 31
0.0
  0
LINE
  5
244F
  8
0
 10
80.0
 20
53.999999999999979
 30
0.0
 11
80.0
 21
79.0
 31
0.0
  0
LINE
  5
2463
  8
3
 10
67.0
 20
53.741434275395633
 30
0.0
 11
50.0
 21
53.741434275395633
 31
0.0
  0
LINE
  5
2467
  8
3
 10
50.0
 20
53.151219592813383
 30
0.0
 11
67.0
 21
53.151219592813362
 31
0.0
  0
LINE
  5
246A
  8
3
 10
67.0
 20
80.393273976036525
 30
0.0
 11
50.0
 21
80.393273976036525
 31
0.0
  0
LINE
  5
246B
  8
3
 10
50.0
 20
79.848780407186638
 30
0.0
 11
67.0
 21
79.848780407186624
 31
0.0
  0
LINE
  5
2478
  8
3
 10
67.0
 20
51.13271739297835
 30
0.0
 11
50.0
 21
51.13271739297835
 31
0.0
  0
LINE
  5
247B
  8
3
 10
50.0
 20
50.807567481129951
 30
0.0
 11
67.0
 21
50.807567481129951
 31
0.0
  0
LINE
  5
247E
  8
3
 10
50.0
 20
82.192432518870049
 30
0.0
 11
67.0
 21
82.192432518870049
 31
0.0
  0
LINE
  5
2481
  8
3
 10
67.0
 20
82.463834037977847
 30
0.0
 11
50.0
 21
82.463834037977847
 31
0.0
  0
LINE
  5
2484
  8
3
 10
67.0
 20
50.028257202290114
 30
0.0
 11
50.0
 21
50.028257202290114
 31
0.0
  0
LINE
  5
2487
  8
0
 10
50.0
 20
50.0
 30
0.0
 11
67.0
 21
50.0
 31
0.0
  0
LINE
  5
2488
  8
0
 10
67.0
 20
50.0
 30
0.0
 11
66.999999999999943
 21
83.0
 31
0.0
  0
LINE
  5
2489
  8
0
 10
50.0
 20
50.0
 30
0.0
 11
50.0
 21
83.0
 31
0.0
  0
LINE
  5
248A
  8
0
 10
50.0
 20
83.0
 30
0.0
 11
67.0
 21
83.0
 31
0.0
  0
LINE
  5
24A4
  8
2
 10
80.0
 20
72.156854249492369
 30
0.0
 11
50.0
 21
72.156854249492369
 31
0.0
  0
LINE
  5
24B0
  8
2
 10
80.0
 20
74.299999999999983
 30
0.0
 11
50.0
 21
74.299999999999983
 31
0.0
  0
LINE
  5
2503
  8
2
 10
50.0
 20
60.499999999999979
 30
0.0
 11
80.0
 21
60.499999999999979
 31
0.0
  0
LINE
  5
2512
  8
1
 10
126.5
 20
87.0
 30
0.0
 11
126.5
 21
46.0
 31
0.0
  0
LINE
  5
2513
  8
1
 10
147.0
 20
66.5
 30
0.0
 11
106.0
 21
66.5
 31
0.0
  0
LINE
  5
2537
  8
1
 10
84.0
 20
66.5
 30
0.0
 11
46.0
 21
66.5
 31
0.0
  0
CIRCLE
  5
2591
  8
5
 10
126.5
 20
66.5
 30
0.0
 40
15.0
  0
ENDSEC
  0
EOF
