  0
SECTION
  2
HEADER
  9
$ACADVER
  1
AC1009
  9
$INSBASE
 10
0.0
 20
0.0
 30
0.0
  9
$EXTMIN
 10
0.0
 20
-2.960436562073669
 30
0.0
  9
$EXTMAX
 10
152.99999932944769
 20
93.000000402331338
 30
0.0
  9
$LIMMIN
 10
0.0
 20
0.0
  9
$LIMMAX
 10
275.0
 20
175.0
  9
$ORTHOMODE
 70
     1
  9
$REGENMODE
 70
     1
  9
$FILLMODE
 70
     1
  9
$QTEXTMODE
 70
     0
  9
$MIRRTEXT
 70
     0
  9
$DRAGMODE
 70
     2
  9
$LTSCALE
 40
5.0
  9
$OSMODE
 70
    37
  9
$ATTMODE
 70
     1
  9
$TEXTSIZE
 40
0.2
  9
$TRACEWID
 40
0.05
  9
$TEXTSTYLE
  7
STANDARD
  9
$CLAYER
  8
0
  9
$CELTYPE
  6
BYLAYER
  9
$CECOLOR
 62
   256
  9
$DIMSCALE
 40
1.0
  9
$DIMASZ
 40
3.0
  9
$DIMEXO
 40
1.0
  9
$DIMDLI
 40
6.0
  9
$DIMRND
 40
0.0
  9
$DIMDLE
 40
0.0
  9
$DIMEXE
 40
1.0
  9
$DIMTP
 40
495.0
  9
$DIMTM
 40
0.0
  9
$DIMTXT
 40
3.0
  9
$DIMCEN
 40
0.0
  9
$DIMTSZ
 40
0.0
  9
$DIMTOL
 70
     0
  9
$DIMLIM
 70
     0
  9
$DIMTIH
 70
     0
  9
$DIMTOH
 70
     0
  9
$DIMSE1
 70
     0
  9
$DIMSE2
 70
     0
  9
$DIMTAD
 70
     1
  9
$DIMZIN
 70
     8
  9
$DIMBLK
  1

  9
$DIMASO
 70
     0
  9
$DIMSHO
 70
     0
  9
$DIMPOST
  1

  9
$DIMAPOST
  1

  9
$DIMALT
 70
     0
  9
$DIMALTD
 70
     2
  9
$DIMALTF
 40
25.399999999999999
  9
$DIMLFAC
 40
1.0
  9
$DIMTOFL
 70
     1
  9
$DIMTVP
 40
0.0
  9
$DIMTIX
 70
     1
  9
$DIMSOXD
 70
     0
  9
$DIMSAH
 70
     0
  9
$DIMBLK1
  1

  9
$DIMBLK2
  1

  9
$DIMSTYLE
  2
STANDARD
  9
$DIMCLRD
 70
     0
  9
$DIMCLRE
 70
     0
  9
$DIMCLRT
 70
     0
  9
$DIMTFAC
 40
1.0
  9
$DIMGAP
 40
1.0
  9
$LUNITS
 70
     2
  9
$LUPREC
 70
     1
  9
$SKETCHINC
 40
0.1
  9
$FILLETRAD
 40
0.0
  9
$AUNITS
 70
     0
  9
$AUPREC
 70
     0
  9
$MENU
  1
E:\r13\win\SUPPORT\ACAD
  9
$ELEVATION
 40
0.0
  9
$PELEVATION
 40
0.0
  9
$THICKNESS
 40
0.0
  9
$LIMCHECK
 70
     0
  9
$BLIPMODE
 70
     0
  9
$CHAMFERA
 40
0.0
  9
$CHAMFERB
 40
0.0
  9
$SKPOLY
 70
     0
  9
$TDCREATE
 40
2450653.5278402781
  9
$TDUPDATE
 40
2459439.612760359
  9
$TDINDWG
 40
0.323312581
  9
$TDUSRTIMER
 40
0.323312581
  9
$USRTIMER
 70
     1
  9
$ANGBASE
 50
0.0
  9
$ANGDIR
 70
     0
  9
$PDMODE
 70
     0
  9
$PDSIZE
 40
0.0
  9
$PLINEWID
 40
0.0
  9
$COORDS
 70
     1
  9
$SPLFRAME
 70
     0
  9
$SPLINETYPE
 70
     6
  9
$SPLINESEGS
 70
     8
  9
$ATTDIA
 70
     0
  9
$ATTREQ
 70
     1
  9
$HANDLING
 70
     1
  9
$HANDSEED
  5
40C9
  9
$SURFTAB1
 70
     6
  9
$SURFTAB2
 70
     6
  9
$SURFTYPE
 70
     6
  9
$SURFU
 70
     6
  9
$SURFV
 70
     6
  9
$UCSNAME
  2

  9
$UCSORG
 10
0.0
 20
0.0
 30
0.0
  9
$UCSXDIR
 10
1.0
 20
0.0
 30
0.0
  9
$UCSYDIR
 10
0.0
 20
1.0
 30
0.0
  9
$PUCSNAME
  2

  9
$PUCSORG
 10
0.0
 20
0.0
 30
0.0
  9
$PUCSXDIR
 10
1.0
 20
0.0
 30
0.0
  9
$PUCSYDIR
 10
0.0
 20
1.0
 30
0.0
  9
$USERI1
 70
     4
  9
$USERI2
 70
     1
  9
$USERI3
 70
     1
  9
$USERI4
 70
     0
  9
$USERI5
 70
     0
  9
$USERR1
 40
1.0
  9
$USERR2
 40
3.0
  9
$USERR3
 40
3.0
  9
$USERR4
 40
3.0
  9
$USERR5
 40
10.0
  9
$WORLDVIEW
 70
     1
  9
$SHADEDGE
 70
     3
  9
$SHADEDIF
 70
    70
  9
$TILEMODE
 70
     1
  9
$MAXACTVP
 70
    16
  9
$PLIMCHECK
 70
     0
  9
$PEXTMIN
 10
1.0000000000000000E+020
 20
1.0000000000000000E+020
 30
1.0000000000000000E+020
  9
$PEXTMAX
 10
-1.0000000000000000E+020
 20
-1.0000000000000000E+020
 30
-1.0000000000000000E+020
  9
$PLIMMIN
 10
0.0
 20
0.0
  9
$PLIMMAX
 10
12.0
 20
9.0
  9
$UNITMODE
 70
     0
  9
$VISRETAIN
 70
     0
  9
$PLINEGEN
 70
     0
  9
$PSLTSCALE
 70
     0
  0
ENDSEC
  0
SECTION
  2
TABLES
  0
TABLE
  2
VPORT
 70
     1
  0
VPORT
  2
*ACTIVE
 70
     0
 10
0.0
 20
0.0
 11
1.0
 21
1.0
 12
260.1957585644372
 22
100.0
 13
0.0
 23
0.0
 14
5.0
 24
5.0
 15
10.0
 25
10.0
 16
0.0
 26
0.0
 36
1.0
 17
0.0
 27
0.0
 37
0.0
 40
200.0
 41
2.6019575856443722
 42
50.0
 43
0.0
 44
0.0
 50
0.0
 51
0.0
 71
     0
 72
   100
 73
     1
 74
     0
 75
     0
 76
     0
 77
     0
 78
     0
  0
ENDTAB
  0
TABLE
  2
LTYPE
 70
     5
  0
LTYPE
  2
CONTINUOUS
 70
     0
  3
Solid Line
 72
    65
 73
     0
 40
0.0
  0
LTYPE
  2
CENTER
 70
     0
  3
____ _ ____ _ ____ _ ____ _ ____ _ ____ _ ____ 
 72
    65
 73
     4
 40
2.0
 49
1.25
 49
-0.25
 49
0.25
 49
-0.25
  0
LTYPE
  2
HIDDEN
 70
     0
  3
__ __ __ __ __ __ __ __ __ __ __ __ __ __ __ __
 72
    65
 73
     2
 40
0.375
 49
0.25
 49
-0.125
  0
LTYPE
  2
PHANTOM
 70
     0
  3
_____ _ _ _____ _ _ _____ _ _ _____ _ _ ____
 72
    65
 73
     6
 40
2.5
 49
1.25
 49
-0.25
 49
0.25
 49
-0.25
 49
0.25
 49
-0.25
  0
LTYPE
  2
PHANTOM2
 70
     0
  3
___ _ _ ___ _ _ ___ _ _ ___ _ _
 72
    65
 73
     6
 40
1.25
 49
0.625
 49
-0.125
 49
0.125
 49
-0.125
 49
0.125
 49
-0.125
  0
ENDTAB
  0
TABLE
  2
LAYER
 70
     6
  0
LAYER
  2
0
 70
     0
 62
     7
  6
CONTINUOUS
  0
LAYER
  2
1
 70
     0
 62
     1
  6
CENTER
  0
LAYER
  2
2
 70
     0
 62
     2
  6
HIDDEN
  0
LAYER
  2
5
 70
     0
 62
     3
  6
PHANTOM
  0
LAYER
  2
DEFPOINTS
 70
     0
 62
     7
  6
CONTINUOUS
  0
LAYER
  2
3
 70
     0
 62
     3
  6
CONTINUOUS
  0
ENDTAB
  0
TABLE
  2
STYLE
 70
     2
  0
STYLE
  2
STANDARD
 70
     0
 40
0.0
 41
1.0
 50
0.0
 71
     0
 42
0.2
  3
simplex
  4
bigfont
  0
STYLE
  2
STANDARD1
 70
     0
 40
0.0
 41
1.0
 50
0.0
 71
     0
 42
3.0
  3
txt
  4

  0
ENDTAB
  0
TABLE
  2
VIEW
 70
     0
  0
ENDTAB
  0
TABLE
  2
UCS
 70
     0
  0
ENDTAB
  0
TABLE
  2
APPID
 70
     9
  0
APPID
  2
ACAD
 70
     0
  0
APPID
  2
_CALL_MAC$
 70
     0
  0
APPID
  2
ACAD_MLEADERVER
 70
     0
  0
APPID
  2
ACAD_EXEMPT_FROM_CAD_STANDARDS
 70
     0
  0
APPID
  2
ACAD_NAV_VCDISPLAY
 70
     0
  0
APPID
  2
ACAD_DSTYLE_DIMJAG
 70
     0
  0
APPID
  2
ACAD_DSTYLE_DIMTALN
 70
     0
  0
APPID
  2
ACAECLAYERSTANDARD
 70
     0
  0
APPID
  2
ACCMTRANSPARENCY
 70
     0
  0
ENDTAB
  0
TABLE
  2
DIMSTYLE
 70
     1
  0
DIMSTYLE
  2
STANDARD
 70
     0
  3

  4

  5

  6

  7

 40
1.0
 41
0.18
 42
0.0625
 43
0.38
 44
0.18
 45
0.0
 46
0.0
 47
0.0
 48
0.0
140
0.18
141
0.09
142
0.0
143
25.399999999999999
144
1.0
145
0.0
146
1.0
147
0.09
 71
     0
 72
     0
 73
     1
 74
     1
 75
     0
 76
     0
 77
     0
 78
     0
170
     0
171
     2
172
     0
173
     0
174
     0
175
     0
176
     0
177
     0
178
     0
  0
ENDTAB
  0
ENDSEC
  0
SECTION
  2
BLOCKS
  0
BLOCK
  8
0
  2
$MODEL_SPACE
 70
     2
 10
0.0
 20
0.0
 30
0.0
  3
$MODEL_SPACE
  1

  0
ENDBLK
  5
7
  8
0
  0
BLOCK
 67
     1
  8
0
  2
$PAPER_SPACE
 70
     0
 10
0.0
 20
0.0
 30
0.0
  3
$PAPER_SPACE
  1

  0
ENDBLK
  5
A
 67
     1
  8
0
  0
ENDSEC
  0
SECTION
  2
ENTITIES
  0
TEXT
  5
2BF
  8
0
 62
     3
 10
0.0
 20
0.0
 30
0.0
 40
10.0
  1
ZCL-1.5-24-A12-K
  7
STANDARD1
  0
ARC
  5
3E0B
  8
0
 10
129.49999932944769
 20
69.500000402331352
 30
0.0
 40
6.0000000000000124
 50
109.4712206344895
 51
70.528779365510459
  0
LINE
  5
3E0C
  8
0
 10
131.49999942444259
 20
75.156854651868343
 30
0.0
 11
131.49999942444259
 21
77.300000190734863
 31
0.0
  0
LINE
  5
3E0D
  8
0
 10
131.49999942444259
 20
77.300000190734863
 30
0.0
 11
127.4999992344528
 21
77.300000190734863
 31
0.0
  0
LINE
  5
3E0E
  8
0
 10
127.4999992344528
 20
77.300000190734863
 30
0.0
 11
127.4999992344528
 21
75.156854651868343
 31
0.0
  0
CIRCLE
  5
3E0F
  8
0
 10
129.49999932944769
 20
69.500000402331352
 30
0.0
 40
14.0
  0
ARC
  5
3E10
  8
0
 10
145.82046600524291
 20
74.36093886311167
 30
0.0
 40
6.6539999999999511
 50
275.71847004322871
 51
298.29404114946811
  0
ARC
  5
3E11
  8
0
 10
146.29208979645489
 20
65.886908915359669
 30
0.0
 40
1.86299999999997
 50
84.103657901815893
 51
106.8622599743878
  0
ARC
  5
3E12
  8
0
 10
145.92844260684461
 20
67.122650804074624
 30
0.0
 40
0.5750000000000149
 50
107.9027942822693
 51
162.90622335534181
  0
LINE
  5
3E13
  8
0
 10
145.2878485321998
 20
66.710727941244841
 30
0.0
 11
145.37884247303009
 21
67.291664378717542
 31
0.0
  0
ARC
  5
3E14
  8
0
 10
145.862795041585
 20
66.702880932240689
 30
0.0
 40
0.5750000000000389
 50
179.21806038471101
 51
234.09499302946901
  0
ARC
  5
3E15
  8
0
 10
146.58908523500341
 20
67.766759736692649
 30
0.0
 40
1.8629999999998841
 50
235.1904255429973
 51
257.95288922792639
  0
ARC
  5
3E16
  8
0
 10
143.53085472111241
 20
59.849705114460363
 30
0.0
 40
6.6540000000000452
 50
43.773797882782958
 51
66.348587054361744
  0
ARC
  5
3E17
  8
0
 10
146.5224630394097
 20
69.971258800944042
 30
0.0
 40
6.6539999999999191
 50
260.71847004322939
 51
283.29404114946959
  0
ARC
  5
3E18
  8
0
 10
144.7847763003864
 20
61.663909202374143
 30
0.0
 40
1.8630000000001039
 50
69.103657901815808
 51
91.862259974386632
  0
ARC
  5
3E19
  8
0
 10
144.75335362391479
 20
62.951663025680411
 30
0.0
 40
0.575000000000034
 50
92.902794282269795
 51
147.90622335534491
  0
LINE
  5
3E1A
  8
0
 10
144.0279739797115
 20
62.719573918730021
 30
0.0
 11
144.26622492074961
 21
63.257164508104317
 31
0.0
  0
ARC
  5
3E1B
  8
0
 10
144.58129850780659
 20
62.563187305531791
 30
0.0
 40
0.5750000000000023
 50
164.21806038470859
 51
219.0949930294714
  0
ARC
  5
3E1C
  8
0
 10
145.5581930592831
 20
63.402837584465729
 30
0.0
 40
1.8630000000000571
 50
220.1904255429981
 51
242.95288922792341
  0
ARC
  5
3E1D
  8
0
 10
140.5550847058197
 20
56.547078358018808
 30
0.0
 40
6.6540000000000701
 50
28.77379788278461
 51
51.348587054361161
  0
ARC
  5
3E1E
  8
0
 10
142.2358305130366
 20
57.974926154912929
 30
0.0
 40
1.863000000000006
 50
54.103657901814863
 51
76.862259974390312
  0
ARC
  5
3E1F
  8
0
 10
142.53877375317691
 20
59.226933617865839
 30
0.0
 40
0.5750000000000251
 50
77.902794282278634
 51
132.9062233553484
  0
LINE
  5
3E20
  8
0
 10
141.778042063117
 20
59.190495125949383
 30
0.0
 11
142.14731332659721
 21
59.648103266954422
 31
0.0
  0
ARC
  5
3E21
  8
0
 10
142.2720363580483
 20
58.896226027744127
 30
0.0
 40
0.5750000000000065
 50
149.21806038470959
 51
204.09499302946281
  0
ARC
  5
3E22
  8
0
 10
143.43296151829421
 20
59.454427002238162
 30
0.0
 40
1.8629999999999409
 50
205.19042554299619
 51
227.95288922792591
  0
ARC
  5
3E23
  8
0
 10
136.82592889151971
 20
54.127171833181471
 30
0.0
 40
6.6539999999999839
 50
13.773797882783301
 51
36.348587054360728
  0
ARC
  5
3E24
  8
0
 10
144.4775145365798
 20
61.396890292295851
 30
0.0
 40
6.654000000000031
 50
230.718470043228
 51
253.2940411494686
  0
ARC
  5
3E25
  8
0
 10
138.81895887748141
 20
55.071357871327457
 30
0.0
 40
1.86300000000002
 50
39.103657901815218
 51
61.86225997438703
  0
ARC
  5
3E26
  8
0
 10
139.4356229530552
 20
56.202296734366954
 30
0.0
 40
0.5750000000000103
 50
62.902794282268971
 51
117.9062233553452
  0
LINE
  5
3E27
  8
0
 10
138.69138107448811
 20
56.363991647958748
 30
0.0
 11
139.16650832444429
 21
56.710432469844811
 31
0.0
  0
ARC
  5
3E28
  8
0
 10
139.09238099158009
 20
55.951894450018891
 30
0.0
 40
0.5750000000000041
 50
134.2180603847101
 51
189.09499302946821
  0
ARC
  5
3E29
  8
0
 10
140.3582216294443
 20
56.190605646132063
 30
0.0
 40
1.862999999999958
 50
190.190425542996
 51
212.9528892279256
  0
ARC
  5
3E2A
  8
0
 10
132.5975230842356
 20
52.754898170531249
 30
0.0
 40
6.6539999999999297
 50
358.77379788278409
 51
21.348587054359339
  0
ARC
  5
3E2B
  8
0
 10
141.86992886061401
 20
57.79653088986565
 30
0.0
 40
6.654000000000126
 50
215.7184700432291
 51
238.29404114946971
  0
ARC
  5
3E2C
  8
0
 10
134.7670155490365
 20
53.151077731770712
 30
0.0
 40
1.8630000000000719
 50
24.103657901816739
 51
46.862259974389922
  0
ARC
  5
3E2D
  8
0
 10
135.65537582237911
 20
54.083876380345558
 30
0.0
 40
0.575000000000003
 50
47.902794282272929
 51
102.90622335534491
  0
LINE
  5
3E2E
  8
0
 10
134.97834325581789
 20
54.43268567323684
 30
0.0
 11
135.52694626897571
 21
54.644350148737431
 31
0.0
  0
ARC
  5
3E2F
  8
0
 10
135.2590206669978
 20
53.930843903640053
 30
0.0
 40
0.575000000000007
 50
119.2180603847073
 51
174.09499302947211
  0
ARC
  5
3E30
  8
0
 10
136.54351183491019
 20
53.833797547846139
 30
0.0
 40
1.862999999999932
 50
175.1904255429973
 51
197.9528892279252
  0
ARC
  5
3E31
  8
0
 10
128.1580261519625
 20
52.523775552388358
 30
0.0
 40
6.6540000000000701
 50
343.7737978827833
 51
6.3485870543599638
  0
ARC
  5
3E32
  8
0
 10
138.41935292937401
 20
54.993743593811921
 30
0.0
 40
6.65399999999988
 50
200.71847004322919
 51
223.29404114946951
  0
ARC
  5
3E33
  8
0
 10
130.3561337693825
 20
52.34494965434056
 30
0.0
 40
1.8630000000000171
 50
9.1036579018153301
 51
31.86225997438536
  0
ARC
  5
3E34
  8
0
 10
131.45564995595041
 20
53.016039402072899
 30
0.0
 40
0.5750000000000274
 50
32.902794282267003
 51
87.906223355343329
  0
LINE
  5
3E35
  8
0
 10
130.89196510892361
 20
53.528192639350891
 30
0.0
 11
131.476657686755
 21
53.590656444430351
 31
0.0
  0
ARC
  5
3E36
  8
0
 10
131.03319255549411
 20
52.970805643399402
 30
0.0
 40
0.5750000000000231
 50
104.2180603847101
 51
159.09499302946421
  0
ARC
  5
3E37
  8
0
 10
132.24879830308379
 20
52.544615284469103
 30
0.0
 40
1.862999999999982
 50
160.1904255429958
 51
182.95288922792579
  0
ARC
  5
3E38
  8
0
 10
123.8099824740198
 20
53.449554603231007
 30
0.0
 40
6.6539999999998782
 50
328.77379788278438
 51
351.34858705436079
  0
ARC
  5
3E39
  8
0
 10
134.36093779022801
 20
53.17953372653615
 30
0.0
 40
6.6539999999999493
 50
185.71847004322879
 51
208.2940411494686
  0
ARC
  5
3E3A
  8
0
 10
125.88690784247601
 20
52.707909935324153
 30
0.0
 40
1.8629999999999669
 50
354.10365790181612
 51
16.862259974388898
  0
ARC
  5
3E3B
  8
0
 10
127.122649731191
 20
53.071557124934401
 30
0.0
 40
0.5750000000000031
 50
17.902794282273671
 51
72.906223355343727
  0
LINE
  5
3E3C
  8
0
 10
126.71072686836121
 20
53.712151199579232
 30
0.0
 11
127.29166330583389
 21
53.621157258749001
 31
0.0
  0
ARC
  5
3E3D
  8
0
 10
126.702879859357
 20
53.137204690194068
 30
0.0
 40
0.5750000000000146
 50
89.218060384712643
 51
144.0949930294579
  0
ARC
  5
3E3E
  8
0
 10
127.7667586638091
 20
52.410914496775611
 30
0.0
 40
1.86300000000002
 50
145.19042554299551
 51
167.9528892279246
  0
ARC
  5
3E3F
  8
0
 10
119.8497040415768
 20
55.469145010666551
 30
0.0
 40
6.6539999999999138
 50
313.77379788278353
 51
336.3485870543613
  0
ARC
  5
3E40
  8
0
 10
129.97125772806049
 20
52.477536692369412
 30
0.0
 40
6.6540000000000541
 50
170.71847004322819
 51
193.29404114946939
  0
ARC
  5
3E41
  8
0
 10
121.66390812949059
 20
54.215223431392651
 30
0.0
 40
1.862999999999948
 50
339.10365790181652
 51
1.8622599743892929
  0
ARC
  5
3E42
  8
0
 10
122.9516619527968
 20
54.246646107864251
 30
0.0
 40
0.575000000000034
 50
2.9027942822732218
 51
57.906223355346839
  0
LINE
  5
3E43
  8
0
 10
122.7195728458464
 20
54.972025752067559
 30
0.0
 11
123.2571634352207
 21
54.733774811029427
 31
0.0
  0
ARC
  5
3E44
  8
0
 10
122.56318623264811
 20
54.418701223972441
 30
0.0
 40
0.5750000000000296
 50
74.218060384708394
 51
129.09499302945531
  0
ARC
  5
3E45
  8
0
 10
123.40283651158209
 20
53.44180667249595
 30
0.0
 40
1.863000000000048
 50
130.19042554299341
 51
152.95288922792369
  0
ARC
  5
3E46
  8
0
 10
116.5470772851353
 20
58.44491502595919
 30
0.0
 40
6.653999999999872
 50
298.77379788278438
 51
321.34858705436221
  0
ARC
  5
3E47
  8
0
 10
125.54946218481869
 20
52.935592429085197
 30
0.0
 40
6.6539999999999342
 50
155.71847004322819
 51
178.294041149469
  0
ARC
  5
3E48
  8
0
 10
117.9749250820292
 20
56.764169218742488
 30
0.0
 40
1.8630000000000591
 50
324.10365790181658
 51
346.86225997439072
  0
ARC
  5
3E49
  8
0
 10
119.2269325449822
 20
56.461225978602272
 30
0.0
 40
0.5749999999999745
 50
347.90279428227518
 51
42.906223355347997
  0
LINE
  5
3E4A
  8
0
 10
119.19049405306581
 20
57.221957668662071
 30
0.0
 11
119.6481021940708
 21
56.852686405181878
 31
0.0
  0
ARC
  5
3E4B
  8
0
 10
118.8962249548605
 20
56.727963373730759
 30
0.0
 40
0.5749999999999941
 50
59.218060384706391
 51
114.09499302944729
  0
ARC
  5
3E4C
  8
0
 10
119.4544259293546
 20
55.56703821348475
 30
0.0
 40
1.8630000000000599
 50
115.1904255429917
 51
137.95288922792309
  0
ARC
  5
3E4D
  8
0
 10
114.1271707602979
 20
62.174070840259361
 30
0.0
 40
6.6540000000000292
 50
283.7737978827854
 51
306.34858705436289
  0
ARC
  5
3E4E
  8
0
 10
121.3968892194122
 20
54.522485195199231
 30
0.0
 40
6.6539999999999884
 50
140.71847004322899
 51
163.29404114946919
  0
ARC
  5
3E4F
  8
0
 10
115.0713567984438
 20
60.181040854297677
 30
0.0
 40
1.86300000000001
 50
309.10365790181669
 51
331.86225997439459
  0
ARC
  5
3E50
  8
0
 10
116.2022956614834
 20
59.564376778723847
 30
0.0
 40
0.5750000000000045
 50
332.90279428228729
 51
27.906223355344771
  0
LINE
  5
3E51
  8
0
 10
116.36399057507511
 20
60.308618657290928
 30
0.0
 11
116.7104313969612
 21
59.833491407334797
 31
0.0
  0
ARC
  5
3E52
  8
0
 10
115.95189337713521
 20
59.90761874019897
 30
0.0
 40
0.5749999999999962
 50
44.218060384709943
 51
99.094993029445973
  0
ARC
  5
3E53
  8
0
 10
116.19060457324851
 20
58.641778102334847
 30
0.0
 40
1.8629999999999221
 50
100.19042554299099
 51
122.9528892279253
  0
ARC
  5
3E54
  8
0
 10
112.7548970976476
 20
66.402476647543665
 30
0.0
 40
6.6540000000001216
 50
268.77379788278569
 51
291.34858705436022
  0
ARC
  5
3E55
  8
0
 10
117.7965298169819
 20
57.130070871165167
 30
0.0
 40
6.6540000000000097
 50
125.7184700432276
 51
148.2940411494705
  0
ARC
  5
3E56
  8
0
 10
113.15107665888711
 20
64.232984182742555
 30
0.0
 40
1.8629999999999971
 50
294.10365790181629
 51
316.86225997439522
  0
ARC
  5
3E57
  8
0
 10
114.08387530746189
 20
63.344623909399928
 30
0.0
 40
0.5750000000000032
 50
317.90279428228638
 51
12.906223355347009
  0
LINE
  5
3E58
  8
0
 10
114.4326846003532
 20
64.021656475961194
 30
0.0
 11
114.6443490758538
 21
63.473053462803357
 31
0.0
  0
ARC
  5
3E59
  8
0
 10
113.9308428307564
 20
63.740979064781328
 30
0.0
 40
0.574999999999991
 50
29.218060384705961
 51
84.094993029446684
  0
ARC
  5
3E5A
  8
0
 10
113.8337964749626
 20
62.456487896868779
 30
0.0
 40
1.8629999999999769
 50
85.190425542990184
 51
107.9528892279241
  0
ARC
  5
3E5B
  8
0
 10
112.5237744795047
 20
70.841973579816525
 30
0.0
 40
6.6540000000000212
 50
253.77379788278361
 51
276.34858705436119
  0
ARC
  5
3E5C
  8
0
 10
114.99374252092829
 20
60.580646802405049
 30
0.0
 40
6.653999999999888
 50
110.7184700432274
 51
133.2940411494684
  0
ARC
  5
3E5D
  8
0
 10
112.3449485814569
 20
68.643865962396603
 30
0.0
 40
1.8630000000000471
 50
279.103657901818
 51
301.86225997439038
  0
ARC
  5
3E5E
  8
0
 10
113.0160383291893
 20
67.54434977582865
 30
0.0
 40
0.5750000000000038
 50
302.90279428227888
 51
357.90622335534778
  0
LINE
  5
3E5F
  8
0
 10
113.5281915664673
 20
68.108034622855484
 30
0.0
 11
113.5906553715467
 21
67.523342045024023
 31
0.0
  0
ARC
  5
3E60
  8
0
 10
112.9708045705158
 20
67.966807176284945
 30
0.0
 40
0.5750000000000023
 50
14.218060384706581
 51
69.094993029442037
  0
ARC
  5
3E61
  8
0
 10
112.5446142115855
 20
66.751201428695197
 30
0.0
 40
1.863000000000034
 50
70.190425542989232
 51
92.952889227924004
  0
ARC
  5
3E62
  8
0
 10
113.4495535303474
 20
75.190017257759393
 30
0.0
 40
6.654000000000015
 50
238.77379788278509
 51
261.34858705436039
  0
ARC
  5
3E63
  8
0
 10
113.1795326536526
 20
64.639061941550963
 30
0.0
 40
6.6540000000000248
 50
95.718470043228734
 51
118.294041149468
  0
ARC
  5
3E64
  8
0
 10
112.7079088624405
 20
73.113091889303078
 30
0.0
 40
1.8630000000000071
 50
264.10365790181589
 51
286.86225997439118
  0
ARC
  5
3E65
  8
0
 10
113.0715560520507
 20
71.877350000588066
 30
0.0
 40
0.574999999999987
 50
287.90279428227961
 51
342.90622335534988
  0
LINE
  5
3E66
  8
0
 10
113.7121501266956
 20
72.289272863417864
 30
0.0
 11
113.6211561858654
 21
71.708336425945163
 31
0.0
  0
ARC
  5
3E67
  8
0
 10
113.1372036173104
 20
72.297119872422016
 30
0.0
 40
0.5750000000000162
 50
359.21806038470783
 51
54.094993029433127
  0
ARC
  5
3E68
  8
0
 10
112.410913423892
 20
71.233241067969857
 30
0.0
 40
1.8630000000000719
 50
55.190425542989303
 51
77.952889227926491
  0
ARC
  5
3E69
  8
0
 10
115.469143937783
 20
79.150295690202285
 30
0.0
 40
6.6539999999999848
 50
223.7737978827831
 51
246.34858705436179
  0
ARC
  5
3E6A
  8
0
 10
129.49999932944769
 20
69.500000402331352
 30
0.0
 40
19.500000000000021
 50
162.06609700614661
 51
165.00000000000071
  0
ARC
  5
3E6B
  8
0
 10
112.47753561948571
 20
69.028742003718492
 30
0.0
 40
6.6540000000001021
 50
80.718470043229431
 51
103.29404114946961
  0
ARC
  5
3E6C
  8
0
 10
114.2152223585091
 20
77.336091602288434
 30
0.0
 40
1.862999999999984
 50
249.10365790181581
 51
271.86225997439323
  0
ARC
  5
3E6D
  8
0
 10
114.2466450349806
 20
76.048337778982258
 30
0.0
 40
0.5750000000000189
 50
272.90279428229258
 51
327.90622335534948
  0
LINE
  5
3E6E
  8
0
 10
114.9720246791839
 20
76.280426885932684
 30
0.0
 11
114.7337737381458
 21
75.74283629655838
 31
0.0
  0
ARC
  5
3E6F
  8
0
 10
114.4187001510888
 20
76.43681349913092
 30
0.0
 40
0.5750000000000117
 50
344.21806038470709
 51
39.094993029435727
  0
ARC
  5
3E70
  8
0
 10
113.4418055996122
 20
75.597163220196961
 30
0.0
 40
1.863000000000075
 50
40.190425542987768
 51
62.952889227923343
  0
ARC
  5
3E71
  8
0
 10
118.4449139530757
 20
82.452922446643896
 30
0.0
 40
6.6540000000000816
 50
208.773797882785
 51
231.3485870543613
  0
ARC
  5
3E72
  8
0
 10
129.49999932944769
 20
69.500000402331352
 30
0.0
 40
19.500000000000011
 50
147.066097006147
 51
149.99999999999901
  0
ARC
  5
3E73
  8
0
 10
112.9355913562016
 20
73.450537546960362
 30
0.0
 40
6.6539999999999466
 50
65.718470043227015
 51
88.294041149469507
  0
ARC
  5
3E74
  8
0
 10
116.7641681458589
 20
81.025074649749797
 30
0.0
 40
1.863000000000046
 50
234.10365790181851
 51
256.86225997439698
  0
ARC
  5
3E75
  8
0
 10
116.46122490571859
 20
79.773067186796879
 30
0.0
 40
0.5750000000000146
 50
257.9027942822953
 51
312.90622335534891
  0
LINE
  5
3E76
  8
0
 10
117.22195659577839
 20
79.809505678713322
 30
0.0
 11
116.85268533229829
 21
79.351897537708282
 31
0.0
  0
ARC
  5
3E77
  8
0
 10
116.7279623008471
 20
80.10377477691857
 30
0.0
 40
0.5750000000000054
 50
329.21806038470743
 51
24.09499302943647
  0
ARC
  5
3E78
  8
0
 10
115.5670371406011
 20
79.545573802424499
 30
0.0
 40
1.863000000000006
 50
25.190425542987661
 51
47.952889227925418
  0
ARC
  5
3E79
  8
0
 10
122.1740697673757
 20
84.872828971481255
 30
0.0
 40
6.6540000000000292
 50
193.77379788278429
 51
216.3485870543611
  0
ARC
  5
3E7A
  8
0
 10
129.49999932944769
 20
69.500000402331352
 30
0.0
 40
19.500000000000011
 50
132.06609700614601
 51
135.00000000000031
  0
ARC
  5
3E7B
  8
0
 10
114.5224841223156
 20
77.603110512366882
 30
0.0
 40
6.6540000000000097
 50
50.718470043227804
 51
73.294041149468569
  0
ARC
  5
3E7C
  8
0
 10
120.181039781414
 20
83.928642933335269
 30
0.0
 40
1.8630000000000471
 50
219.1036579018191
 51
241.86225997439811
  0
ARC
  5
3E7D
  8
0
 10
119.56437570584021
 20
82.797704070295737
 30
0.0
 40
0.5750000000000161
 50
242.90279428229829
 51
297.90622335534528
  0
LINE
  5
3E7E
  8
0
 10
120.3086175844073
 20
82.636009156703935
 30
0.0
 11
119.8334903344512
 21
82.289568334817886
 31
0.0
  0
ARC
  5
3E7F
  8
0
 10
119.90761766731529
 20
83.048106354643807
 30
0.0
 40
0.574999999999994
 50
314.21806038470538
 51
9.0949930294435042
  0
ARC
  5
3E80
  8
0
 10
118.64177702945121
 20
82.809395158530663
 30
0.0
 40
1.8629999999999129
 50
10.19042554298812
 51
32.952889227924608
  0
ARC
  5
3E81
  8
0
 10
126.4024755746599
 20
86.245102634131456
 30
0.0
 40
6.6539999999999591
 50
178.77379788278321
 51
201.3485870543623
  0
ARC
  5
3E82
  8
0
 10
129.49999932944769
 20
69.500000402331352
 30
0.0
 40
19.5
 50
117.06609700614889
 51
119.9999999999999
  0
ARC
  5
3E83
  8
0
 10
117.1300697982815
 20
81.203469914797154
 30
0.0
 40
6.6540000000000159
 50
35.7184700432285
 51
58.29404114946967
  0
ARC
  5
3E84
  8
0
 10
124.23298310985901
 20
85.848923072892006
 30
0.0
 40
1.8630000000000659
 50
204.10365790181689
 51
226.86225997439891
  0
ARC
  5
3E85
  8
0
 10
123.34462283651619
 20
84.916124424317104
 30
0.0
 40
0.5749999999999602
 50
227.90279428230369
 51
282.90622335535488
  0
LINE
  5
3E86
  8
0
 10
124.0216554030776
 20
84.567315131425843
 30
0.0
 11
123.4730523899197
 21
84.355650655925274
 31
0.0
  0
ARC
  5
3E87
  8
0
 10
123.74097799189769
 20
85.069156901022666
 30
0.0
 40
0.5750000000000318
 50
299.21806038470362
 51
354.09499302944943
  0
ARC
  5
3E88
  8
0
 10
122.4564868239851
 20
85.166203256816516
 30
0.0
 40
1.8630000000000051
 50
355.19042554299182
 51
17.952889227924292
  0
ARC
  5
3E89
  8
0
 10
130.8419725069329
 20
86.476225252274361
 30
0.0
 40
6.6540000000000186
 50
163.77379788278239
 51
186.3485870543611
  0
ARC
  5
3E8A
  8
0
 10
120.58064572952139
 20
84.006257210850791
 30
0.0
 40
6.6539999999998747
 50
20.71847004322839
 51
43.294041149469258
  0
ARC
  5
3E8B
  8
0
 10
128.64386488951291
 20
86.655051150322166
 30
0.0
 40
1.8629999999999891
 50
189.10365790181609
 51
211.86225997439641
  0
ARC
  5
3E8C
  8
0
 10
127.544348702945
 20
85.98396140258977
 30
0.0
 40
0.5750000000000326
 50
212.9027942822928
 51
267.90622335534658
  0
LINE
  5
3E8D
  8
0
 10
128.10803354997191
 20
85.471808165311813
 30
0.0
 11
127.5233409721404
 21
85.409344360232353
 31
0.0
  0
ARC
  5
3E8E
  8
0
 10
127.9668061034013
 20
86.029195161263317
 30
0.0
 40
0.5750000000000091
 50
284.21806038470339
 51
339.09499302944698
  0
ARC
  5
3E8F
  8
0
 10
126.7512003558116
 20
86.455385520193602
 30
0.0
 40
1.86300000000002
 50
340.19042554299079
 51
2.9528892279254331
  0
ARC
  5
3E90
  8
0
 10
135.19001618487579
 20
85.550446201431654
 30
0.0
 40
6.6540000000000727
 50
148.77379788278409
 51
171.34858705435991
  0
ARC
  5
3E91
  8
0
 10
124.6390608686674
 20
85.820467078126484
 30
0.0
 40
6.6539999999999893
 50
5.7184700432281632
 51
28.294041149468331
  0
ARC
  5
3E92
  8
0
 10
133.1130908164194
 20
86.292090869338566
 30
0.0
 40
1.86299999999999
 50
174.10365790181669
 51
196.86225997439661
  0
ARC
  5
3E93
  8
0
 10
131.8773489277045
 20
85.928443679728304
 30
0.0
 40
0.5750000000000172
 50
197.90279428229331
 51
252.9062233553403
  0
LINE
  5
3E94
  8
0
 10
132.2892717905342
 20
85.287849605083466
 30
0.0
 11
131.7083353530615
 21
85.378843545913696
 31
0.0
  0
ARC
  5
3E95
  8
0
 10
132.2971187995384
 20
85.862796114468594
 30
0.0
 40
0.574999999999967
 50
269.2180603847126
 51
324.09499302948001
  0
ARC
  5
3E96
  8
0
 10
131.23323999508631
 20
86.589086307887115
 30
0.0
 40
1.862999999999998
 50
325.19042554300091
 51
347.9528892279244
  0
ARC
  5
3E97
  8
0
 10
139.15029461731871
 20
83.530855793996096
 30
0.0
 40
6.6540000000000052
 50
133.7737978827833
 51
156.34858705436071
  0
ARC
  5
3E98
  8
0
 10
129.02874093083491
 20
86.522464112293306
 30
0.0
 40
6.6540000000000257
 50
350.71847004322899
 51
13.29404114946874
  0
ARC
  5
3E99
  8
0
 10
137.33609052940491
 20
84.784777373270003
 30
0.0
 40
1.8630000000000999
 50
159.1036579018155
 51
181.86225997438339
  0
ARC
  5
3E9A
  8
0
 10
136.04833670609861
 20
84.753354696798453
 30
0.0
 40
0.575000000000034
 50
182.90279428225639
 51
237.90622335534701
  0
LINE
  5
3E9B
  8
0
 10
136.28042581304911
 20
84.027975052595124
 30
0.0
 11
135.7428352236748
 21
84.26622599363327
 31
0.0
  0
ARC
  5
3E9C
  8
0
 10
136.43681242624729
 20
84.581299580690256
 30
0.0
 40
0.5750000000000261
 50
254.21806038471519
 51
309.09499302948041
  0
ARC
  5
3E9D
  8
0
 10
135.59716214731341
 20
85.558194132166705
 30
0.0
 40
1.8629999999999709
 50
310.1904255430016
 51
332.95288922792469
  0
ARC
  5
3E9E
  8
0
 10
142.45292137376029
 20
80.555085778703315
 30
0.0
 40
6.6540000000001083
 50
118.77379788278439
 51
141.34858705435849
  0
ARC
  5
3E9F
  8
0
 10
133.45053647407661
 20
86.064408375577557
 30
0.0
 40
6.6540000000000781
 50
335.71847004322899
 51
358.29404114946908
  0
ARC
  5
3EA0
  8
0
 10
141.02507357686619
 20
82.235831585920195
 30
0.0
 40
1.8630000000001079
 50
144.10365790181621
 51
166.86225997438271
  0
ARC
  5
3EA1
  8
0
 10
139.77306611391319
 20
82.538774826060447
 30
0.0
 40
0.5750000000000121
 50
167.90279428225671
 51
222.90622335534761
  0
LINE
  5
3EA2
  8
0
 10
139.80950460582969
 20
81.778043136000633
 30
0.0
 11
139.3518964648247
 21
82.147314399480805
 31
0.0
  0
ARC
  5
3EA3
  8
0
 10
140.10377370403489
 20
82.272037430931974
 30
0.0
 40
0.5749999999999992
 50
239.21806038471379
 51
294.09499302947222
  0
ARC
  5
3EA4
  8
0
 10
139.54557272954091
 20
83.432962591177954
 30
0.0
 40
1.86300000000002
 50
295.19042554299898
 51
317.95288922792702
  0
ARC
  5
3EA5
  8
0
 10
144.87282789859751
 20
76.825929964403443
 30
0.0
 40
6.6539999999999146
 50
103.77379788278201
 51
126.3485870543592
  0
ARC
  5
3EA6
  8
0
 10
137.60310943948329
 20
84.477515609463453
 30
0.0
 40
6.653999999999983
 50
320.71847004322927
 51
343.29404114946988
  0
ARC
  5
3EA7
  8
0
 10
143.92864186045159
 20
78.818959950364984
 30
0.0
 40
1.8630000000000719
 50
129.10365790181649
 51
151.86225997438149
  0
ARC
  5
3EA8
  8
0
 10
142.7977029974121
 20
79.435624025938864
 30
0.0
 40
0.5750000000000362
 50
152.9027942822529
 51
207.90622335534789
  0
LINE
  5
3EA9
  8
0
 10
142.63600808382029
 20
78.691382147371755
 30
0.0
 11
142.28956726193431
 21
79.166509397327886
 31
0.0
  0
ARC
  5
3EAA
  8
0
 10
143.0481052817602
 20
79.092382064463763
 30
0.0
 40
0.5750000000000131
 50
224.2180603847149
 51
279.09499302947569
  0
ARC
  5
3EAB
  8
0
 10
142.809394085647
 20
80.358222702327865
 30
0.0
 40
1.8629999999999221
 50
280.19042554299767
 51
302.95288922792548
  0
ARC
  5
3EAC
  8
0
 10
146.24510156124779
 20
72.597524157119324
 30
0.0
 40
6.6539999999998463
 50
88.773797882782475
 51
111.3485870543601
  0
ARC
  5
3EAD
  8
0
 10
141.20346884191349
 20
81.869929933497588
 30
0.0
 40
6.6540000000000559
 50
305.71847004322768
 51
328.29404114947079
  0
ARC
  5
3EAE
  8
0
 10
145.84892200000829
 20
74.767016621920192
 30
0.0
 40
1.862999999999948
 50
114.10365790181621
 51
136.86225997438609
  0
ARC
  5
3EAF
  8
0
 10
144.9161233514335
 20
75.655376895262791
 30
0.0
 40
0.5749999999999891
 50
137.90279428226131
 51
192.90622335534661
  0
LINE
  5
3EB0
  8
0
 10
144.56731405854219
 20
74.978344328701496
 30
0.0
 11
144.35564958304161
 21
75.526947341859341
 31
0.0
  0
ARC
  5
3EB1
  8
0
 10
145.069155828139
 20
75.259021739881405
 30
0.0
 40
0.5750000000000011
 50
209.2180603847107
 51
264.09499302947938
  0
ARC
  5
3EB2
  8
0
 10
145.16620218393291
 20
76.543512907793996
 30
0.0
 40
1.8630000000000411
 50
265.190425543
 51
287.95288922792412
  0
ARC
  5
3EB3
  8
0
 10
146.4762241793907
 20
68.158027224846208
 30
0.0
 40
6.6539999999999946
 50
73.773797882783612
 51
96.34858705436119
  0
ARC
  5
3EB4
  8
0
 10
129.49999932944769
 20
69.500000402331352
 30
0.0
 40
19.500000000000011
 50
12.066097006147951
 51
14.99999999999917
  0
ARC
  5
3EB5
  8
0
 10
144.00625613796711
 20
78.419354002257677
 30
0.0
 40
6.6539999999999253
 50
290.7184700432274
 51
313.29404114946863
  0
ARC
  5
3EB6
  8
0
 10
146.65505007743849
 20
70.356134842266115
 30
0.0
 40
1.863000000000014
 50
99.103657901814714
 51
121.8622599743827
  0
ARC
  5
3EB7
  8
0
 10
145.98396032970609
 20
71.455651028834041
 30
0.0
 40
0.5749999999999972
 50
122.9027942822555
 51
177.906223355344
  0
LINE
  5
3EB8
  8
0
 10
145.47180709242821
 20
70.891966181807206
 30
0.0
 11
145.40934328734869
 21
71.476658759638653
 31
0.0
  0
ARC
  5
3EB9
  8
0
 10
146.0291940883798
 20
71.033193628377788
 30
0.0
 40
0.5750000000000715
 50
194.2180603847124
 51
249.09499302946639
  0
ARC
  5
3EBA
  8
0
 10
146.45538444730991
 20
72.248799375967494
 30
0.0
 40
1.863000000000048
 50
250.19042554299961
 51
272.95288922792719
  0
ARC
  5
3EBB
  8
0
 10
145.55044512854801
 20
63.809983546903261
 30
0.0
 40
6.6540000000000292
 50
58.773797882785047
 51
81.348587054360365
  0
ARC
  5
3EBC
  8
0
 10
146.06440730269389
 20
65.549463257702271
 30
0.0
 40
6.65399999999988
 50
245.718470043227
 51
268.29404114946948
  0
ARC
  5
3EBD
  8
0
 10
129.49999932944769
 20
69.500000402331352
 30
0.0
 40
19.500000000000021
 50
192.0660970061486
 51
195.00000000000159
  0
ARC
  5
3EBE
  8
0
 10
129.49999932944769
 20
69.500000402331352
 30
0.0
 40
19.500000000000039
 50
207.06609700614879
 51
210.00000000000131
  0
ARC
  5
3EBF
  8
0
 10
129.49999932944769
 20
69.500000402331352
 30
0.0
 40
19.500000000000021
 50
222.0660970061484
 51
224.99999999999989
  0
ARC
  5
3EC0
  8
0
 10
129.49999932944769
 20
69.500000402331352
 30
0.0
 40
19.500000000000011
 50
237.06609700614749
 51
240.00000000000011
  0
ARC
  5
3EC1
  8
0
 10
129.49999932944769
 20
69.500000402331352
 30
0.0
 40
19.500000000000011
 50
252.06609700614709
 51
255.00000000000219
  0
ARC
  5
3EC2
  8
0
 10
129.49999932944769
 20
69.500000402331352
 30
0.0
 40
19.5
 50
267.06609700614791
 51
270.0
  0
ARC
  5
3EC3
  8
0
 10
129.49999932944769
 20
69.500000402331352
 30
0.0
 40
19.5
 50
282.06609700614979
 51
285.00000000000119
  0
ARC
  5
3EC4
  8
0
 10
129.49999932944769
 20
69.500000402331352
 30
0.0
 40
19.499999999999989
 50
297.06609700614899
 51
300.0
  0
ARC
  5
3EC5
  8
0
 10
129.49999932944769
 20
69.500000402331352
 30
0.0
 40
19.499999999999972
 50
312.06609700614968
 51
315.00000000000051
  0
ARC
  5
3EC6
  8
0
 10
129.49999932944769
 20
69.500000402331352
 30
0.0
 40
19.499999999999989
 50
327.0660970061474
 51
329.99999999999949
  0
ARC
  5
3EC7
  8
0
 10
129.49999932944769
 20
69.500000402331352
 30
0.0
 40
19.5
 50
342.06609700614922
 51
345.00000000000148
  0
ARC
  5
3EC8
  8
0
 10
129.49999932944769
 20
69.500000402331352
 30
0.0
 40
19.499999999999989
 50
357.06609700614848
 51
0.0
  0
ARC
  5
3EC9
  8
0
 10
129.49999932944769
 20
69.500000402331352
 30
0.0
 40
19.500000000000021
 50
27.066097006148301
 51
30.000000000000991
  0
ARC
  5
3ECA
  8
0
 10
129.49999932944769
 20
69.500000402331352
 30
0.0
 40
19.500000000000011
 50
42.066097006148112
 51
44.999999999999638
  0
ARC
  5
3ECB
  8
0
 10
129.49999932944769
 20
69.500000402331352
 30
0.0
 40
19.499999999999989
 50
57.06609700614743
 51
59.999999999999972
  0
ARC
  5
3ECC
  8
0
 10
129.49999932944769
 20
69.500000402331352
 30
0.0
 40
19.500000000000021
 50
72.066097006147075
 51
74.999999999998778
  0
ARC
  5
3ECD
  8
0
 10
129.49999932944769
 20
69.500000402331352
 30
0.0
 40
19.500000000000028
 50
87.066097006147942
 51
90.0
  0
ARC
  5
3ECE
  8
0
 10
129.49999932944769
 20
69.500000402331352
 30
0.0
 40
19.500000000000021
 50
102.06609700614651
 51
105.00000000000119
  0
ARC
  5
3ECF
  8
0
 10
129.49999932944769
 20
69.500000402331352
 30
0.0
 40
19.500000000000021
 50
177.06609700614769
 51
180.0
  0
LINE
  5
3ED4
  8
0
 10
67.000000923871994
 20
55.499999970197671
 30
0.0
 11
79.999999329447746
 21
55.499999970197671
 31
0.0
  0
LINE
  5
3ED5
  8
0
 10
79.999999329447746
 20
83.500000834465027
 30
0.0
 11
67.000000923871994
 21
83.500000834465027
 31
0.0
  0
LINE
  5
3ED8
  8
3
 10
50.0
 20
69.500000402331366
 30
0.0
 11
67.000000923871994
 21
69.500000402331352
 31
0.0
  0
LINE
  5
3EDA
  8
3
 10
67.000000923871994
 20
70.498086349107325
 30
0.0
 11
50.0
 21
70.498086349107325
 31
0.0
  0
LINE
  5
3EE0
  8
3
 10
67.000000923871994
 20
65.423721168190241
 30
0.0
 11
50.0
 21
65.423721168190241
 31
0.0
  0
LINE
  5
3EE4
  8
3
 10
50.0
 20
64.453028794378042
 30
0.0
 11
67.000000923871994
 21
64.453028794378042
 31
0.0
  0
LINE
  5
3EE8
  8
3
 10
50.0
 20
74.546972010284662
 30
0.0
 11
67.000000923871994
 21
74.546972010284662
 31
0.0
  0
LINE
  5
3EED
  8
3
 10
67.000000923871994
 20
75.504433549940586
 30
0.0
 11
50.0
 21
75.504433549940586
 31
0.0
  0
LINE
  5
3EF2
  8
3
 10
67.000000923871994
 20
60.627147741615772
 30
0.0
 11
50.0
 21
60.627147741615772
 31
0.0
  0
LINE
  5
3EF3
  8
3
 10
50.0
 20
59.750000201165669
 30
0.0
 11
67.000000923871994
 21
59.750000201165669
 31
0.0
  0
LINE
  5
3F00
  8
3
 10
50.0
 20
79.250000603497014
 30
0.0
 11
67.000000923871994
 21
79.250000603497014
 31
0.0
  0
LINE
  5
3F03
  8
3
 10
67.000000923871994
 20
80.101587995886803
 30
0.0
 11
50.0
 21
80.101587995886803
 31
0.0
  0
LINE
  5
3F34
  8
3
 10
67.000000923871994
 20
56.435245275497429
 30
0.0
 11
50.0
 21
56.435245275497429
 31
0.0
  0
LINE
  5
3F35
  8
3
 10
50.0
 20
55.711418576538563
 30
0.0
 11
67.000000923871994
 21
55.711418576538563
 31
0.0
  0
LINE
  5
3F3B
  8
0
 10
79.999999329447746
 20
55.499999970197671
 30
0.0
 11
79.999999329447746
 21
83.500000834465027
 31
0.0
  0
LINE
  5
3F3C
  8
3
 10
67.000000923871994
 20
83.976262435317025
 30
0.0
 11
50.0
 21
83.976262435317025
 31
0.0
  0
LINE
  5
3F3D
  8
3
 10
50.0
 20
83.288582228124142
 30
0.0
 11
67.000000923871994
 21
83.288582228124142
 31
0.0
  0
LINE
  5
3F4D
  8
3
 10
67.000000923871994
 20
53.133682534098618
 30
0.0
 11
50.0
 21
53.133682534098618
 31
0.0
  0
LINE
  5
3F51
  8
3
 10
50.0
 20
52.61250510811805
 30
0.0
 11
67.000000923871994
 21
52.61250510811805
 31
0.0
  0
LINE
  5
3F56
  8
3
 10
50.0
 20
86.387495696544661
 30
0.0
 11
67.000000923871994
 21
86.387495696544661
 31
0.0
  0
LINE
  5
3F59
  8
3
 10
67.000000923871994
 20
86.864403635263457
 30
0.0
 11
50.0
 21
86.864403635263457
 31
0.0
  0
LINE
  5
3F5C
  8
3
 10
67.000000923871994
 20
50.947458669543259
 30
0.0
 11
50.0
 21
50.947458669543259
 31
0.0
  0
LINE
  5
3F5F
  8
3
 10
50.0
 20
50.664446502923958
 30
0.0
 11
67.000000923871994
 21
50.664446502923958
 31
0.0
  0
LINE
  5
3F62
  8
3
 10
50.0
 20
88.335554301738753
 30
0.0
 11
67.000000923871994
 21
88.335554301738753
 31
0.0
  0
LINE
  5
3F65
  8
3
 10
67.000000923871994
 20
88.569189608097091
 30
0.0
 11
50.0
 21
88.569189608097091
 31
0.0
  0
LINE
  5
3F68
  8
3
 10
67.000000923871994
 20
50.02555921673774
 30
0.0
 11
50.0
 21
50.02555921673774
 31
0.0
  0
LINE
  5
3F6B
  8
0
 10
50.0
 20
50.0
 30
0.0
 11
67.000000923871994
 21
50.0
 31
0.0
  0
LINE
  5
3F6C
  8
0
 10
67.000000923871994
 20
50.0
 30
0.0
 11
67.000000923872051
 21
89.000000804662704
 31
0.0
  0
LINE
  5
3F6D
  8
0
 10
50.0
 20
50.0
 30
0.0
 11
50.0
 21
89.000000804662704
 31
0.0
  0
LINE
  5
3F6E
  8
0
 10
50.0
 20
89.000000804662719
 30
0.0
 11
67.000000923871994
 21
89.000000804662719
 31
0.0
  0
LINE
  5
3F92
  8
2
 10
79.999999329447746
 20
75.156854651868343
 30
0.0
 11
50.0
 21
75.156854651868343
 31
0.0
  0
LINE
  5
3F9C
  8
2
 10
79.999999329447746
 20
77.300000190734863
 30
0.0
 11
50.0
 21
77.300000190734863
 31
0.0
  0
LINE
  5
4000
  8
2
 10
50.0
 20
63.500000350177281
 30
0.0
 11
79.999999329447746
 21
63.500000350177281
 31
0.0
  0
LINE
  5
400E
  8
1
 10
129.49999932944769
 20
93.000000402331338
 30
0.0
 11
129.49999932944769
 21
46.000000402331352
 31
0.0
  0
LINE
  5
400F
  8
1
 10
105.9999993294477
 20
69.500000402331352
 30
0.0
 11
152.99999932944769
 21
69.500000402331352
 31
0.0
  0
CIRCLE
  5
4018
  8
5
 10
129.49999932944769
 20
69.500000402331338
 30
0.0
 40
18.0
  0
LINE
  5
405A
  8
1
 10
83.999999329447746
 20
69.500000402331352
 30
0.0
 11
46.0
 21
69.500000402331352
 31
0.0
  0
ENDSEC
  0
EOF
