  0
SECTION
  2
HEADER
  9
$ACADVER
  1
AC1009
  9
$INSBASE
 10
0.0
 20
0.0
 30
0.0
  9
$EXTMIN
 10
0.0
 20
-2.960436562073669
 30
0.0
  9
$EXTMAX
 10
153.0
 20
87.991254610789497
 30
0.0
  9
$LIMMIN
 10
0.0
 20
0.0
  9
$LIMMAX
 10
275.0
 20
175.0
  9
$ORTHOMODE
 70
     1
  9
$REGENMODE
 70
     1
  9
$FILLMODE
 70
     1
  9
$QTEXTMODE
 70
     0
  9
$MIRRTEXT
 70
     0
  9
$DRAGMODE
 70
     2
  9
$LTSCALE
 40
5.0
  9
$OSMODE
 70
    37
  9
$ATTMODE
 70
     1
  9
$TEXTSIZE
 40
0.2
  9
$TRACEWID
 40
0.05
  9
$TEXTSTYLE
  7
STANDARD
  9
$CLAYER
  8
0
  9
$CELTYPE
  6
BYLAYER
  9
$CECOLOR
 62
   256
  9
$DIMSCALE
 40
1.0
  9
$DIMASZ
 40
3.0
  9
$DIMEXO
 40
1.0
  9
$DIMDLI
 40
6.0
  9
$DIMRND
 40
0.0
  9
$DIMDLE
 40
0.0
  9
$DIMEXE
 40
1.0
  9
$DIMTP
 40
495.0
  9
$DIMTM
 40
0.0
  9
$DIMTXT
 40
3.0
  9
$DIMCEN
 40
0.0
  9
$DIMTSZ
 40
0.0
  9
$DIMTOL
 70
     0
  9
$DIMLIM
 70
     0
  9
$DIMTIH
 70
     0
  9
$DIMTOH
 70
     0
  9
$DIMSE1
 70
     0
  9
$DIMSE2
 70
     0
  9
$DIMTAD
 70
     1
  9
$DIMZIN
 70
     8
  9
$DIMBLK
  1

  9
$DIMASO
 70
     0
  9
$DIMSHO
 70
     0
  9
$DIMPOST
  1

  9
$DIMAPOST
  1

  9
$DIMALT
 70
     0
  9
$DIMALTD
 70
     2
  9
$DIMALTF
 40
25.399999999999999
  9
$DIMLFAC
 40
1.0
  9
$DIMTOFL
 70
     1
  9
$DIMTVP
 40
0.0
  9
$DIMTIX
 70
     1
  9
$DIMSOXD
 70
     0
  9
$DIMSAH
 70
     0
  9
$DIMBLK1
  1

  9
$DIMBLK2
  1

  9
$DIMSTYLE
  2
STANDARD
  9
$DIMCLRD
 70
     0
  9
$DIMCLRE
 70
     0
  9
$DIMCLRT
 70
     0
  9
$DIMTFAC
 40
1.0
  9
$DIMGAP
 40
1.0
  9
$LUNITS
 70
     2
  9
$LUPREC
 70
     1
  9
$SKETCHINC
 40
0.1
  9
$FILLETRAD
 40
0.0
  9
$AUNITS
 70
     0
  9
$AUPREC
 70
     0
  9
$MENU
  1
E:\r13\win\SUPPORT\ACAD
  9
$ELEVATION
 40
0.0
  9
$PELEVATION
 40
0.0
  9
$THICKNESS
 40
0.0
  9
$LIMCHECK
 70
     0
  9
$BLIPMODE
 70
     0
  9
$CHAMFERA
 40
0.0
  9
$CHAMFERB
 40
0.0
  9
$SKPOLY
 70
     0
  9
$TDCREATE
 40
2450653.5278402781
  9
$TDUPDATE
 40
2459439.612789467
  9
$TDINDWG
 40
0.2943029398
  9
$TDUSRTIMER
 40
0.2943029398
  9
$USRTIMER
 70
     1
  9
$ANGBASE
 50
0.0
  9
$ANGDIR
 70
     0
  9
$PDMODE
 70
     0
  9
$PDSIZE
 40
0.0
  9
$PLINEWID
 40
0.0
  9
$COORDS
 70
     1
  9
$SPLFRAME
 70
     0
  9
$SPLINETYPE
 70
     6
  9
$SPLINESEGS
 70
     8
  9
$ATTDIA
 70
     0
  9
$ATTREQ
 70
     1
  9
$HANDLING
 70
     1
  9
$HANDSEED
  5
3257
  9
$SURFTAB1
 70
     6
  9
$SURFTAB2
 70
     6
  9
$SURFTYPE
 70
     6
  9
$SURFU
 70
     6
  9
$SURFV
 70
     6
  9
$UCSNAME
  2

  9
$UCSORG
 10
0.0
 20
0.0
 30
0.0
  9
$UCSXDIR
 10
1.0
 20
0.0
 30
0.0
  9
$UCSYDIR
 10
0.0
 20
1.0
 30
0.0
  9
$PUCSNAME
  2

  9
$PUCSORG
 10
0.0
 20
0.0
 30
0.0
  9
$PUCSXDIR
 10
1.0
 20
0.0
 30
0.0
  9
$PUCSYDIR
 10
0.0
 20
1.0
 30
0.0
  9
$USERI1
 70
     4
  9
$USERI2
 70
     1
  9
$USERI3
 70
     1
  9
$USERI4
 70
     0
  9
$USERI5
 70
     0
  9
$USERR1
 40
1.0
  9
$USERR2
 40
3.0
  9
$USERR3
 40
3.0
  9
$USERR4
 40
3.0
  9
$USERR5
 40
10.0
  9
$WORLDVIEW
 70
     1
  9
$SHADEDGE
 70
     3
  9
$SHADEDIF
 70
    70
  9
$TILEMODE
 70
     1
  9
$MAXACTVP
 70
    16
  9
$PLIMCHECK
 70
     0
  9
$PEXTMIN
 10
1.0000000000000000E+020
 20
1.0000000000000000E+020
 30
1.0000000000000000E+020
  9
$PEXTMAX
 10
-1.0000000000000000E+020
 20
-1.0000000000000000E+020
 30
-1.0000000000000000E+020
  9
$PLIMMIN
 10
0.0
 20
0.0
  9
$PLIMMAX
 10
12.0
 20
9.0
  9
$UNITMODE
 70
     0
  9
$VISRETAIN
 70
     0
  9
$PLINEGEN
 70
     0
  9
$PSLTSCALE
 70
     0
  0
ENDSEC
  0
SECTION
  2
TABLES
  0
TABLE
  2
VPORT
 70
     1
  0
VPORT
  2
*ACTIVE
 70
     0
 10
0.0
 20
0.0
 11
1.0
 21
1.0
 12
260.1957585644372
 22
100.0
 13
0.0
 23
0.0
 14
5.0
 24
5.0
 15
10.0
 25
10.0
 16
0.0
 26
0.0
 36
1.0
 17
0.0
 27
0.0
 37
0.0
 40
200.0
 41
2.6019575856443722
 42
50.0
 43
0.0
 44
0.0
 50
0.0
 51
0.0
 71
     0
 72
   100
 73
     1
 74
     0
 75
     0
 76
     0
 77
     0
 78
     0
  0
ENDTAB
  0
TABLE
  2
LTYPE
 70
     5
  0
LTYPE
  2
CONTINUOUS
 70
     0
  3
Solid Line
 72
    65
 73
     0
 40
0.0
  0
LTYPE
  2
CENTER
 70
     0
  3
____ _ ____ _ ____ _ ____ _ ____ _ ____ _ ____ 
 72
    65
 73
     4
 40
2.0
 49
1.25
 49
-0.25
 49
0.25
 49
-0.25
  0
LTYPE
  2
HIDDEN
 70
     0
  3
__ __ __ __ __ __ __ __ __ __ __ __ __ __ __ __
 72
    65
 73
     2
 40
0.375
 49
0.25
 49
-0.125
  0
LTYPE
  2
PHANTOM
 70
     0
  3
_____ _ _ _____ _ _ _____ _ _ _____ _ _ ____
 72
    65
 73
     6
 40
2.5
 49
1.25
 49
-0.25
 49
0.25
 49
-0.25
 49
0.25
 49
-0.25
  0
LTYPE
  2
PHANTOM2
 70
     0
  3
___ _ _ ___ _ _ ___ _ _ ___ _ _
 72
    65
 73
     6
 40
1.25
 49
0.625
 49
-0.125
 49
0.125
 49
-0.125
 49
0.125
 49
-0.125
  0
ENDTAB
  0
TABLE
  2
LAYER
 70
     6
  0
LAYER
  2
0
 70
     0
 62
     7
  6
CONTINUOUS
  0
LAYER
  2
1
 70
     0
 62
     1
  6
CENTER
  0
LAYER
  2
2
 70
     0
 62
     2
  6
HIDDEN
  0
LAYER
  2
5
 70
     0
 62
     3
  6
PHANTOM
  0
LAYER
  2
DEFPOINTS
 70
     0
 62
     7
  6
CONTINUOUS
  0
LAYER
  2
3
 70
     0
 62
     3
  6
CONTINUOUS
  0
ENDTAB
  0
TABLE
  2
STYLE
 70
     2
  0
STYLE
  2
STANDARD
 70
     0
 40
0.0
 41
1.0
 50
0.0
 71
     0
 42
0.2
  3
simplex
  4
bigfont
  0
STYLE
  2
STANDARD1
 70
     0
 40
0.0
 41
1.0
 50
0.0
 71
     0
 42
3.0
  3
txt
  4

  0
ENDTAB
  0
TABLE
  2
VIEW
 70
     0
  0
ENDTAB
  0
TABLE
  2
UCS
 70
     0
  0
ENDTAB
  0
TABLE
  2
APPID
 70
     9
  0
APPID
  2
ACAD
 70
     0
  0
APPID
  2
_CALL_MAC$
 70
     0
  0
APPID
  2
ACAD_MLEADERVER
 70
     0
  0
APPID
  2
ACAD_EXEMPT_FROM_CAD_STANDARDS
 70
     0
  0
APPID
  2
ACAD_NAV_VCDISPLAY
 70
     0
  0
APPID
  2
ACAD_DSTYLE_DIMJAG
 70
     0
  0
APPID
  2
ACAD_DSTYLE_DIMTALN
 70
     0
  0
APPID
  2
ACAECLAYERSTANDARD
 70
     0
  0
APPID
  2
ACCMTRANSPARENCY
 70
     0
  0
ENDTAB
  0
TABLE
  2
DIMSTYLE
 70
     1
  0
DIMSTYLE
  2
STANDARD
 70
     0
  3

  4

  5

  6

  7

 40
1.0
 41
0.18
 42
0.0625
 43
0.38
 44
0.18
 45
0.0
 46
0.0
 47
0.0
 48
0.0
140
0.18
141
0.09
142
0.0
143
25.399999999999999
144
1.0
145
0.0
146
1.0
147
0.09
 71
     0
 72
     0
 73
     1
 74
     1
 75
     0
 76
     0
 77
     0
 78
     0
170
     0
171
     2
172
     0
173
     0
174
     0
175
     0
176
     0
177
     0
178
     0
  0
ENDTAB
  0
ENDSEC
  0
SECTION
  2
BLOCKS
  0
BLOCK
  8
0
  2
$MODEL_SPACE
 70
     2
 10
0.0
 20
0.0
 30
0.0
  3
$MODEL_SPACE
  1

  0
ENDBLK
  5
7
  8
0
  0
BLOCK
 67
     1
  8
0
  2
$PAPER_SPACE
 70
     0
 10
0.0
 20
0.0
 30
0.0
  3
$PAPER_SPACE
  1

  0
ENDBLK
  5
A
 67
     1
  8
0
  0
ENDSEC
  0
SECTION
  2
ENTITIES
  0
TEXT
  5
2BF
  8
0
 62
     3
 10
0.0
 20
0.0
 30
0.0
 40
10.0
  1
ZCL-2.0-15-A10-K
  7
STANDARD1
  0
LINE
  5
2FFF
  8
0
 10
133.5
 20
71.760950617874229
 30
0.0
 11
133.5
 21
73.391254610789503
 31
0.0
  0
LINE
  5
3000
  8
0
 10
130.5
 20
73.391254610789503
 30
0.0
 11
130.5
 21
71.760950617874229
 31
0.0
  0
ARC
  5
3001
  8
0
 10
132.0
 20
66.991254610789497
 30
0.0
 40
5.0000000000000027
 50
107.45760312372271
 51
72.542396876277223
  0
CIRCLE
  5
3002
  8
0
 10
132.0
 20
66.991254610789497
 30
0.0
 40
11.0
  0
LINE
  5
3003
  8
0
 10
133.5
 20
73.391254610789503
 30
0.0
 11
130.5
 21
73.391254610789503
 31
0.0
  0
LINE
  5
3004
  8
0
 10
144.38006990147471
 20
66.18257034941179
 30
0.0
 11
144.40628362481371
 21
66.89985099662762
 31
0.0
  0
ARC
  5
3005
  8
0
 10
145.13600955410061
 20
66.192122395680599
 30
0.0
 40
0.7560000000000003
 50
180.7239503966002
 51
228.90395092473079
  0
ARC
  5
3006
  8
0
 10
145.62696372312399
 20
66.728450811868456
 30
0.0
 40
1.4830000000000121
 50
228.22990098412109
 51
252.1338982121014
  0
ARC
  5
3007
  8
0
 10
146.03862694952579
 20
68.039353232553594
 30
0.0
 40
2.85700000000001
 50
252.34176819118409
 51
269.210690062558
  0
ARC
  5
3008
  8
0
 10
144.8342754523288
 20
60.959361525261471
 30
0.0
 40
4.3809999999999487
 50
53.781083563647726
 51
74.578386698409915
  0
ARC
  5
3009
  8
0
 10
142.68586740991421
 20
57.767420456977703
 30
0.0
 40
8.2269999999996806
 50
43.752482625926277
 51
54.84507429878213
  0
ARC
  5
300A
  8
0
 10
132.0
 20
66.991254610789497
 30
0.0
 40
16.999999999999989
 50
343.83789781100131
 51
348.00000000000028
  0
ARC
  5
300B
  8
0
 10
145.79276892084241
 20
70.08264014573011
 30
0.0
 40
8.2240000000000002
 50
277.08402649179419
 51
287.95606401531359
  0
ARC
  5
300C
  8
0
 10
146.14611771861419
 20
66.255320561288016
 30
0.0
 40
4.3840000000000003
 50
257.82758457049692
 51
278.67021439651501
  0
ARC
  5
300D
  8
0
 10
143.8938895958544
 20
59.43568699379864
 30
0.0
 40
2.8609999999999429
 50
62.346806175830203
 51
79.7508996996837
  0
ARC
  5
300E
  8
0
 10
144.1391377578193
 20
60.791687490488307
 30
0.0
 40
1.4829999999999961
 50
79.753382956017674
 51
103.65265418542531
  0
ARC
  5
300F
  8
0
 10
143.95817495059541
 20
61.495933972751487
 30
0.0
 40
0.756000000000028
 50
102.9233540951287
 51
151.06816845153679
  0
LINE
  5
3010
  8
0
 10
142.98083510200911
 20
61.217056704371231
 30
0.0
 11
143.29652685248499
 21
61.861663099656788
 31
0.0
  0
ARC
  5
3011
  8
0
 10
143.6753055051513
 20
60.918314576174389
 30
0.0
 40
0.7560000000000119
 50
156.72395039659969
 51
204.90395092473059
  0
ARC
  5
3012
  8
0
 10
144.3419588757597
 20
61.208585913974829
 30
0.0
 40
1.483000000000043
 50
204.22990098411941
 51
228.13389821211049
  0
ARC
  5
3013
  8
0
 10
145.25122399630709
 20
62.238716347020009
 30
0.0
 40
2.857000000000073
 50
228.34176819118591
 51
245.21069006255701
  0
ARC
  5
3014
  8
0
 10
141.27130209660911
 20
56.260675967729192
 30
0.0
 40
4.380999999999962
 50
29.781083563650569
 51
50.578386698409943
  0
ARC
  5
3015
  8
0
 10
138.0103542932882
 20
54.218528978864157
 30
0.0
 40
8.2270000000004391
 50
19.752482625926849
 51
30.845074298781839
  0
ARC
  5
3016
  8
0
 10
132.0
 20
66.991254610789497
 30
0.0
 40
17.0
 50
319.8378978110008
 51
323.99999999999932
  0
ARC
  5
3017
  8
0
 10
145.85770117088441
 20
64.205351294472678
 30
0.0
 40
8.2239999999997924
 50
253.0840264917924
 51
263.95606401531433
  0
ARC
  5
3018
  8
0
 10
144.62379024029821
 20
60.565200969318617
 30
0.0
 40
4.3840000000000021
 50
233.82758457049411
 51
254.6702143965156
  0
ARC
  5
3019
  8
0
 10
139.79248260492821
 20
55.251219407043997
 30
0.0
 40
2.860999999999958
 50
38.346806175829883
 51
55.75089970035085
  0
ARC
  5
301A
  8
0
 10
140.56806303931921
 20
56.390236087237838
 30
0.0
 40
1.4829999999999659
 50
55.753382957304296
 51
79.65265418543369
  0
ARC
  5
301B
  8
0
 10
140.6891881388712
 20
57.107201466901962
 30
0.0
 40
0.7559999999999945
 50
78.923354095140823
 51
127.06816845153919
  0
LINE
  5
301C
  8
0
 10
139.68291415565099
 20
57.249954334291608
 30
0.0
 11
140.23349796163711
 21
57.710428175836782
 31
0.0
  0
ARC
  5
301D
  8
0
 10
140.1958350675406
 20
56.694573259581382
 30
0.0
 40
0.7560000000000083
 50
132.72395039659929
 51
180.9039509247373
  0
ARC
  5
301E
  8
0
 10
140.92291721560011
 20
56.688596967656281
 30
0.0
 40
1.482999999999965
 50
180.2299009841212
 51
204.13389821212951
  0
ARC
  5
301F
  8
0
 10
142.17256403053599
 20
57.259836502746793
 30
0.0
 40
2.8570000000000202
 50
204.34176819119611
 51
221.21069006255749
  0
ARC
  5
3020
  8
0
 10
136.10523638125019
 20
53.417404941828607
 30
0.0
 40
4.3810000000001059
 50
5.7810835636502578
 51
26.578386698408309
  0
ARC
  5
3021
  8
0
 10
132.29559631699871
 20
52.87815779908064
 30
0.0
 40
8.2270000000003147
 50
355.75248262592828
 51
6.8450742987821842
  0
ARC
  5
3022
  8
0
 10
132.0
 20
66.991254610789497
 30
0.0
 40
16.999999999999989
 50
295.83789781100262
 51
300.0
  0
ARC
  5
3023
  8
0
 10
143.52651099521751
 20
58.809770435743658
 30
0.0
 40
8.2239999999997337
 50
229.08402649179141
 51
239.95606401531509
  0
ARC
  5
3024
  8
0
 10
140.9186947459005
 20
55.986204430824159
 30
0.0
 40
4.3839999999999648
 50
209.8275845704965
 51
230.67021439651501
  0
ARC
  5
3025
  8
0
 10
134.34368457912791
 20
53.0967105618885
 30
0.0
 40
2.8609999999999589
 50
14.346806175831681
 51
31.750899700449772
  0
ARC
  5
3026
  8
0
 10
135.5154923829117
 20
53.821797093939232
 30
0.0
 40
1.4829999999999861
 50
31.753382957498889
 51
55.652654185433001
  0
ARC
  5
3027
  8
0
 10
135.91776175914021
 20
54.427511543434399
 30
0.0
 40
0.7560000000000126
 50
54.923354095141718
 51
103.06816845153941
  0
LINE
  5
3028
  8
0
 10
135.05654755469681
 20
54.967211278953201
 30
0.0
 11
135.74682247424141
 21
55.163932456281337
 31
0.0
  0
ARC
  5
3029
  8
0
 10
135.299230289928
 20
54.251221691025641
 30
0.0
 40
0.7560000000000016
 50
108.7239503966008
 51
156.90395092473051
  0
ARC
  5
302A
  8
0
 10
135.9610221067052
 20
53.950031124541873
 30
0.0
 40
1.4829999999999881
 50
156.2299009841187
 51
180.13389821213201
  0
ARC
  5
302B
  8
0
 10
137.33497532904241
 20
53.963607256512269
 30
0.0
 40
2.857000000000085
 50
180.3417681911987
 51
197.210690062558
  0
ARC
  5
302C
  8
0
 10
130.2293380006715
 20
52.92117583824438
 30
0.0
 40
4.3810000000001317
 50
341.7810835636509
 51
2.5783866984094139
  0
ARC
  5
302D
  8
0
 10
126.5297270520922
 20
53.978069271500829
 30
0.0
 40
8.2269999999999026
 50
331.75248262592669
 51
342.84507429878391
  0
ARC
  5
302E
  8
0
 10
132.0
 20
66.991254610789497
 30
0.0
 40
17.0
 50
271.8378978110016
 51
276.00000000000171
  0
ARC
  5
302F
  8
0
 10
139.20228235341239
 20
54.828842517330401
 30
0.0
 40
8.2239999999996023
 50
205.08402649179359
 51
215.9560640153158
  0
ARC
  5
3030
  8
0
 10
135.67147590613851
 20
53.31008104618796
 30
0.0
 40
4.3840000000000598
 50
185.8275845704955
 51
206.67021439651521
  0
ARC
  5
3031
  8
0
 10
128.48964219789039
 20
53.344694610757941
 30
0.0
 40
2.8610000000000708
 50
350.34680617583342
 51
7.7508997004490849
  0
ARC
  5
3032
  8
0
 10
129.8550611562531
 20
53.530476946069683
 30
0.0
 40
1.4829999999999861
 50
7.7533829574983919
 51
31.652654185434859
  0
ARC
  5
3033
  8
0
 10
130.46891877950549
 20
53.920206934335113
 30
0.0
 40
0.7560000000000167
 50
30.923354095143729
 51
79.068168451542121
  0
LINE
  5
3034
  8
0
 10
129.90167611367289
 20
54.763534550693713
 30
0.0
 11
130.6122873422357
 21
54.662488185088961
 31
0.0
  0
ARC
  5
3035
  8
0
 10
129.83215862262071
 20
54.010737553862711
 30
0.0
 40
0.7559999999999888
 50
84.7239503966005
 51
132.9039509247383
  0
ARC
  5
3036
  8
0
 10
130.31423029080489
 20
53.466411297995613
 30
0.0
 40
1.4830000000000889
 50
132.22990098412339
 51
156.13389821214119
  0
ARC
  5
3037
  8
0
 10
131.57492092642789
 20
52.919976590293032
 30
0.0
 40
2.8570000000000668
 50
156.34176819120381
 51
173.21069006255721
  0
ARC
  5
3038
  8
0
 10
124.6596031657361
 20
54.857791177086057
 30
0.0
 40
4.3810000000000757
 50
317.78108356365061
 51
338.57838669841158
  0
ARC
  5
3039
  8
0
 10
121.709717675748
 20
57.328078710161527
 30
0.0
 40
8.2270000000000323
 50
307.7524826259268
 51
318.84507429878192
  0
ARC
  5
303A
  8
0
 10
132.0
 20
66.991254610789497
 30
0.0
 40
16.999999999999979
 50
247.8378978110029
 51
252.00000000000111
  0
ARC
  5
303B
  8
0
 10
133.6327136620215
 20
52.950906141921472
 30
0.0
 40
8.2239999999998137
 50
181.0840264917928
 51
191.95606401531521
  0
ARC
  5
303C
  8
0
 10
129.7894255278936
 20
52.999556860431262
 30
0.0
 40
4.3839999999999701
 50
161.8275845704953
 51
182.67021439651501
  0
ARC
  5
303D
  8
0
 10
123.2425725712373
 20
55.952292858738403
 30
0.0
 40
2.86099999999997
 50
326.34680617583263
 51
343.75089970095019
  0
ARC
  5
303E
  8
0
 10
124.5655093418361
 20
55.566647543756218
 30
0.0
 40
1.482999999999983
 50
343.75338295846319
 51
7.652654185430471
  0
ARC
  5
303F
  8
0
 10
125.2848136523306
 20
55.673005215235058
 30
0.0
 40
0.7560000000000072
 50
6.923354095136105
 51
55.068168451543158
  0
LINE
  5
3040
  8
0
 10
125.1096239352689
 20
56.67414170617414
 30
0.0
 11
125.71770033573119
 21
56.292799632227002
 31
0.0
  0
ARC
  5
3041
  8
0
 10
124.7399264236829
 20
56.014702740137771
 30
0.0
 40
0.7560000000000176
 50
60.723950396596372
 51
108.90395092473
  0
ARC
  5
3042
  8
0
 10
124.9589233723613
 20
55.321359749575663
 30
0.0
 40
1.483000000000023
 50
108.2299009841189
 51
132.13389821211911
  0
ARC
  5
3043
  8
0
 10
125.88836655735621
 20
54.309397727365287
 30
0.0
 40
2.8569999999999749
 50
132.3417681911919
 51
149.21069006255701
  0
ARC
  5
3044
  8
0
 10
120.35908962885659
 20
58.89239257266982
 30
0.0
 40
4.3810000000000189
 50
293.78108356364982
 51
314.5783866984097
  0
ARC
  5
3045
  8
0
 10
118.6689915975473
 20
62.348939049237863
 30
0.0
 40
8.2270000000000181
 50
283.75248262592851
 51
294.84507429878062
  0
ARC
  5
3046
  8
0
 10
132.0
 20
66.991254610789497
 30
0.0
 40
17.0
 50
223.83789781100171
 51
227.9999999999998
  0
ARC
  5
3047
  8
0
 10
127.7808339457286
 20
53.500673569341359
 30
0.0
 40
8.2239999999994673
 50
157.0840264917918
 51
167.9560640153137
  0
ARC
  5
3048
  8
0
 10
124.2896035583145
 20
55.108324326295161
 30
0.0
 40
4.3839999999999044
 50
137.82758457049499
 51
158.67021439651441
  0
ARC
  5
3049
  8
0
 10
119.5097417057477
 20
60.468627879467711
 30
0.0
 40
2.8610000000000091
 50
302.34680617583223
 51
319.75089969958429
  0
ARC
  5
304A
  8
0
 10
120.5614485024429
 20
59.578236492629692
 30
0.0
 40
1.4829999999999359
 50
319.75338295582822
 51
343.65265418543191
  0
ARC
  5
304B
  8
0
 10
121.2618252502205
 20
59.382831639694132
 30
0.0
 40
0.755999999999983
 50
342.92335409513908
 51
31.068168451540409
  0
LINE
  5
304C
  8
0
 10
121.50898037555839
 20
60.368671410890812
 30
0.0
 11
121.9093800140795
 21
59.772971137570742
 31
0.0
  0
ARC
  5
304D
  8
0
 10
120.90302690178819
 20
59.916613463691768
 30
0.0
 40
0.7559999999999917
 50
36.723950396597353
 51
84.903950924735028
  0
ARC
  5
304E
  8
0
 10
120.8210825690096
 20
59.194139040326093
 30
0.0
 40
1.4830000000000201
 50
84.229900984120093
 51
108.1338982121413
  0
ARC
  5
304F
  8
0
 10
121.2585691329645
 20
57.891627130634369
 30
0.0
 40
2.857000000000077
 50
108.34176819120469
 51
125.2106900625558
  0
ARC
  5
3050
  8
0
 10
118.07139524949839
 20
64.327360790496357
 30
0.0
 40
4.3810000000000713
 50
269.7810835636501
 51
290.5783866984105
  0
ARC
  5
3051
  8
0
 10
117.9333179805398
 20
68.172497923019094
 30
0.0
 40
8.2269999999997641
 50
259.75248262592862
 51
270.84507429878408
  0
ARC
  5
3052
  8
0
 10
132.0
 20
66.991254610789497
 30
0.0
 40
17.0
 50
199.83789781100049
 51
204.0
  0
ARC
  5
3053
  8
0
 10
122.65848637014
 20
56.383085016908709
 30
0.0
 40
8.2239999999997444
 50
133.08402649179021
 51
143.9560640153135
  0
ARC
  5
3054
  8
0
 10
120.1229791802557
 20
59.271758391380637
 30
0.0
 40
4.3840000000000474
 50
113.827584570496
 51
134.6702143965131
  0
ARC
  5
3055
  8
0
 10
117.9365899697686
 20
66.112784318246213
 30
0.0
 40
2.8610000000000921
 50
278.3468061758312
 51
295.75089969971611
  0
ARC
  5
3056
  8
0
 10
118.5352171329552
 20
64.871603619288393
 30
0.0
 40
1.4829999999999659
 50
295.7533829560814
 51
319.65265418543407
  0
ARC
  5
3057
  8
0
 10
119.0955648156023
 20
64.408223516208352
 30
0.0
 40
0.7560000000000067
 50
318.923354095143
 51
7.0681684515405561
  0
LINE
  5
3058
  8
0
 10
119.722329416835
 20
65.208305915149595
 30
0.0
 11
119.8458195583982
 21
64.50124943148073
 31
0.0
  0
ARC
  5
3059
  8
0
 10
118.98489484141
 20
65.04179391267607
 30
0.0
 40
0.7560000000000219
 50
12.72395039659623
 51
60.903950924726168
  0
ARC
  5
305A
  8
0
 10
118.6161781467526
 20
64.415110447780833
 30
0.0
 40
1.4830000000000489
 50
60.229900984115929
 51
84.133898212127235
  0
ARC
  5
305B
  8
0
 10
118.48606268831909
 20
63.047264792742901
 30
0.0
 40
2.8569999999999842
 50
84.341768191195897
 51
101.2106900625574
  0
ARC
  5
305C
  8
0
 10
118.19208316890369
 20
70.222940450567123
 30
0.0
 40
4.3810000000000349
 50
245.78108356365109
 51
266.5783866984122
  0
ARC
  5
305D
  8
0
 10
119.6299014764916
 20
73.791809096857961
 30
0.0
 40
8.2270000000003147
 50
235.7524826259282
 51
246.84507429878181
  0
ARC
  5
305E
  8
0
 10
119.15137136614121
 20
61.099745359453443
 30
0.0
 40
8.2239999999997053
 50
109.0840264917918
 51
119.9560640153132
  0
ARC
  5
305F
  8
0
 10
118.0099996012773
 20
64.769963482223602
 30
0.0
 40
4.3839999999999346
 50
89.827584570495958
 51
110.6702143965136
  0
ARC
  5
3060
  8
0
 10
118.79512959008591
 20
71.908836251257384
 30
0.0
 40
2.861000000000002
 50
254.34680617583231
 51
271.75089969971589
  0
ARC
  5
3061
  8
0
 10
118.83716904489179
 20
70.531477658802359
 30
0.0
 40
1.4829999999999659
 50
271.75338295608333
 51
295.65265418542413
  0
ARC
  5
3062
  8
0
 10
119.16059845747979
 20
69.880244935076462
 30
0.0
 40
0.7559999999999795
 50
294.92335409512452
 51
343.06816845153821
  0
LINE
  5
3063
  8
0
 10
120.05859924107649
 20
70.356228446464954
 30
0.0
 11
119.88382731833271
 21
69.660072241880059
 31
0.0
  0
ARC
  5
3064
  8
0
 10
119.3171927014704
 20
70.504053826658662
 30
0.0
 40
0.7560000000000064
 50
348.72395039659949
 51
36.90395092472999
  0
ARC
  5
3065
  8
0
 10
118.7254581111267
 20
70.081520584554823
 30
0.0
 40
1.4830000000000081
 50
36.2299009841188
 51
60.133898212126709
  0
ARC
  5
3066
  8
0
 10
118.0502387751296
 20
68.884854124414176
 30
0.0
 40
2.8570000000000482
 50
60.341768191196401
 51
77.210690062555528
  0
ARC
  5
3067
  8
0
 10
120.700285349392
 20
75.559732269996232
 30
0.0
 40
4.3810000000000722
 50
221.78108356364899
 51
242.57838669840919
  0
ARC
  5
3068
  8
0
 10
123.46538738597521
 20
78.235242618957258
 30
0.0
 40
8.2270000000006061
 50
211.75248262592811
 51
222.8450742987817
  0
ARC
  5
3069
  8
0
 10
132.0
 20
66.991254610789497
 30
0.0
 40
17.000000000000021
 50
151.83789781100131
 51
156.00000000000051
  0
ARC
  5
306A
  8
0
 10
117.8659009790631
 20
66.835101174235177
 30
0.0
 40
8.2239999999999647
 50
85.084026491792059
 51
95.95606401531451
  0
ARC
  5
306B
  8
0
 10
118.31601818640171
 20
70.652249988991841
 30
0.0
 40
4.384000000000011
 50
65.827584570493116
 51
86.670214396512904
  0
ARC
  5
306C
  8
0
 10
121.9369112667588
 20
76.854593643804961
 30
0.0
 40
2.8609999999999181
 50
230.34680617583101
 51
247.7508997003157
  0
ARC
  5
306D
  8
0
 10
121.4150940095319
 20
75.579214971398258
 30
0.0
 40
1.483000000000033
 50
247.75338295724171
 51
271.65265418542799
  0
ARC
  5
306E
  8
0
 10
121.4456812683602
 20
74.852733681222205
 30
0.0
 40
0.7559999999999917
 50
270.92335409513072
 51
319.06816845154071
  0
LINE
  5
306F
  8
0
 10
122.459645740756
 20
74.922316431764344
 30
0.0
 11
122.01683140690081
 21
74.357432238416862
 31
0.0
  0
ARC
  5
3070
  8
0
 10
121.8424631631338
 20
75.358918843438431
 30
0.0
 40
0.7560000000000099
 50
324.7239503965979
 51
12.90395092471557
  0
ARC
  5
3071
  8
0
 10
121.130026963514
 20
75.213595660279751
 30
0.0
 40
1.482999999999981
 50
12.229900984110451
 51
36.13389821211311
  0
ARC
  5
3072
  8
0
 10
120.02645530732249
 20
74.395022897368364
 30
0.0
 40
2.8569999999999909
 50
36.341768191187541
 51
53.21069006255636
  0
ARC
  5
3073
  8
0
 10
125.16231084765521
 20
79.414956459972672
 30
0.0
 40
4.3810000000000757
 50
197.78108356364729
 51
218.57838669841229
  0
ARC
  5
3074
  8
0
 10
128.77658535094449
 20
80.734488466019684
 30
0.0
 40
8.2269999999999417
 50
187.752482625928
 51
198.8450742987801
  0
ARC
  5
3075
  8
0
 10
132.0
 20
66.991254610789497
 30
0.0
 40
17.000000000000011
 50
127.83789781099919
 51
132.0000000000002
  0
ARC
  5
3076
  8
0
 10
119.0243447169635
 20
72.597457336806698
 30
0.0
 40
8.2240000000001086
 50
61.08402649179115
 51
71.9560640153138
  0
ARC
  5
3077
  8
0
 10
120.9881215421694
 20
75.901517135770135
 30
0.0
 40
4.3839999999999302
 50
41.827584570495141
 51
62.670214396515298
  0
ARC
  5
3078
  8
0
 10
126.8186924057003
 20
80.094890111922183
 30
0.0
 40
2.8609999999999509
 50
206.3468061758328
 51
223.7508997001492
  0
ARC
  5
3079
  8
0
 10
125.823245380776
 20
79.142015918474286
 30
0.0
 40
1.483000000000074
 50
223.75338295692291
 51
247.65265418542731
  0
ARC
  5
307A
  8
0
 10
125.5557016709167
 20
78.465901276794895
 30
0.0
 40
0.7560000000000177
 50
246.92335409512819
 51
295.06816845154248
  0
LINE
  5
307B
  8
0
 10
126.5103061632563
 20
78.117051776782517
 30
0.0
 11
125.8760160394551
 21
77.781113203513954
 31
0.0
  0
ARC
  5
307C
  8
0
 10
126.1240640222165
 20
78.766938696550113
 30
0.0
 40
0.7560000000000048
 50
300.72395039659477
 51
348.90395092470902
  0
ARC
  5
307D
  8
0
 10
125.4141129045147
 20
78.923953270924358
 30
0.0
 40
1.483000000000007
 50
348.2299009841085
 51
12.133898212088949
  0
ARC
  5
307E
  8
0
 10
124.0730064931178
 20
78.625012872449602
 30
0.0
 40
2.857000000000129
 50
12.34176819117601
 51
29.210690062558179
  0
ARC
  5
307F
  8
0
 10
130.80663491881469
 20
81.122009734437299
 30
0.0
 40
4.3809999999999807
 50
173.78108356364541
 51
194.57838669841101
  0
ARC
  5
3080
  8
0
 10
134.6451409925389
 20
80.857404326153201
 30
0.0
 40
8.2270000000000536
 50
163.75248262592669
 51
174.84507429877971
  0
ARC
  5
3081
  8
0
 10
132.0
 20
66.991254610789497
 30
0.0
 40
17.000000000000021
 50
103.8378978110012
 51
107.99999999999881
  0
ARC
  5
3082
  8
0
 10
122.42639713342891
 20
77.390450117297561
 30
0.0
 40
8.2239999999994868
 50
37.084026491791199
 51
47.956064015315249
  0
ARC
  5
3083
  8
0
 10
125.5642787230712
 20
79.610118944785413
 30
0.0
 40
4.3839999999998982
 50
17.827584570493471
 51
38.670214396515213
  0
ARC
  5
3084
  8
0
 10
132.59636869839809
 20
81.069448959102203
 30
0.0
 40
2.8610000000000451
 50
182.3468061758328
 51
199.7508997000491
  0
ARC
  5
3085
  8
0
 10
131.2994137397379
 20
80.603839849250505
 30
0.0
 40
1.4830000000000241
 50
199.75338295672699
 51
223.65265418542779
  0
ARC
  5
3086
  8
0
 10
130.77999979918411
 20
80.094998219922886
 30
0.0
 40
0.7560000000000267
 50
222.923354095131
 51
271.06816845154418
  0
LINE
  5
3087
  8
0
 10
131.5101845224325
 20
79.388035717106405
 30
0.0
 11
130.7940931334355
 21
79.33912959514096
 31
0.0
  0
ARC
  5
3088
  8
0
 10
131.42166759306059
 20
80.138835792502348
 30
0.0
 40
0.7559999999999998
 50
276.72395039659432
 51
324.9039509247097
  0
ARC
  5
3089
  8
0
 10
130.83695855523069
 20
80.571038878067597
 30
0.0
 40
1.483000000000007
 50
324.22990098410651
 51
348.13389821209728
  0
ARC
  5
308A
  8
0
 10
129.49020687072851
 20
80.843420354714098
 30
0.0
 40
2.85699999999993
 50
348.34176819118051
 51
5.2106900625572861
  0
ARC
  5
308B
  8
0
 10
136.65730265389249
 20
80.385727074143063
 30
0.0
 40
4.3810000000000233
 50
149.78108356364839
 51
170.5783866984103
  0
ARC
  5
308C
  8
0
 10
140.05632772617179
 20
78.582736930484685
 30
0.0
 40
8.2270000000002863
 50
139.75248262592621
 51
150.8450742987807
  0
ARC
  5
308D
  8
0
 10
132.0
 20
66.991254610789497
 30
0.0
 40
17.000000000000011
 50
79.837897810999152
 51
84.000000000001535
  0
ARC
  5
308E
  8
0
 10
127.48381245897519
 20
80.385327520987062
 30
0.0
 40
8.2240000000001334
 50
13.084026491791731
 51
23.956064015314482
  0
ARC
  5
308F
  8
0
 10
131.2532305794461
 20
81.136804471669222
 30
0.0
 40
4.3840000000000341
 50
353.82758457049499
 51
14.670214396513019
  0
ARC
  5
3090
  8
0
 10
138.2709274253032
 20
79.609760107078401
 30
0.0
 40
2.8609999999999909
 50
158.3468061758322
 51
175.75089969988301
  0
ARC
  5
3091
  8
0
 10
136.89671982772549
 20
79.711924125842302
 30
0.0
 40
1.482999999999991
 50
175.7533829564062
 51
199.6526541854312
  0
ARC
  5
3092
  8
0
 10
136.2152470455265
 20
79.458338849258197
 30
0.0
 40
0.756000000000006
 50
198.92335409513569
 51
247.0681684515533
  0
LINE
  5
3093
  8
0
 10
136.59475642751389
 20
78.515503582927309
 30
0.0
 11
135.9206824799648
 21
78.76208622505095
 31
0.0
  0
ARC
  5
3094
  8
0
 10
136.8192700910495
 20
79.237396660111074
 30
0.0
 40
0.7559999999999948
 50
252.7239503965921
 51
300.9039509247188
  0
ARC
  5
3095
  8
0
 10
136.46090463764719
 20
79.870056416931362
 30
0.0
 40
1.483000000000029
 50
300.22990098411231
 51
324.13389821210751
  0
ARC
  5
3096
  8
0
 10
135.34137328114491
 20
80.66666253687886
 30
0.0
 40
2.857000000000061
 50
324.34176819118619
 51
341.21069006255777
  0
ARC
  5
3097
  8
0
 10
141.70268044984601
 20
77.333418439972746
 30
0.0
 40
4.3810000000000491
 50
125.7810835636494
 51
146.5783866984103
  0
ARC
  5
3098
  8
0
 10
144.07450220650929
 20
74.303796936430473
 30
0.0
 40
8.2269999999996593
 50
115.75248262592569
 51
126.8450742987814
  0
ARC
  5
3099
  8
0
 10
133.3221176386412
 20
81.064248037171467
 30
0.0
 40
8.2239999999998759
 50
349.08402649179311
 51
359.95606401531489
  0
ARC
  5
309A
  8
0
 10
137.0713056528223
 20
80.217595919320786
 30
0.0
 40
4.3840000000000412
 50
329.82758457049488
 51
350.67021439651433
  0
ARC
  5
309B
  8
0
 10
142.8611858307863
 20
75.96821701922255
 30
0.0
 40
2.861000000000117
 50
134.34680617583231
 51
151.750899699683
  0
ARC
  5
309C
  8
0
 10
141.64733857219639
 20
76.620489079626878
 30
0.0
 40
1.482999999999993
 50
151.75338295601841
 51
175.6526541854191
  0
ARC
  5
309D
  8
0
 10
140.9216397833801
 20
76.666007353857637
 30
0.0
 40
0.7560000000000137
 50
174.923354095115
 51
223.0681684515356
  0
LINE
  5
309E
  8
0
 10
140.8848532042266
 20
75.65032410695035
 30
0.0
 11
140.3693502074259
 21
76.149759134207144
 31
0.0
  0
ARC
  5
309F
  8
0
 10
141.38357700860149
 20
76.218488314684208
 30
0.0
 40
0.7560000000000043
 50
228.7239503965958
 51
276.90395092472369
  0
ARC
  5
30A0
  8
0
 10
141.3135197821681
 20
76.942212123271815
 30
0.0
 40
1.483000000000009
 50
276.22990098411577
 51
300.13389821207898
  0
ARC
  5
30A1
  8
0
 10
140.61478589582811
 20
78.125302451441925
 30
0.0
 40
2.8569999999999092
 50
300.34176819117278
 51
317.2106900625584
  0
ARC
  5
30A2
  8
0
 10
145.07037664993641
 20
72.492855724128077
 30
0.0
 40
4.3809999999999043
 50
101.7810835636526
 51
122.5783866984109
  0
ARC
  5
30A3
  8
0
 10
146.00488556193321
 20
68.760451941910347
 30
0.0
 40
8.2270000000004213
 50
91.752482625926419
 51
102.8450742987833
  0
ARC
  5
30A4
  8
0
 10
132.0
 20
66.991254610789497
 30
0.0
 40
17.0
 50
31.83789781100106
 51
36.000000000001052
  0
ARC
  5
30A5
  8
0
 10
138.9318166675242
 20
79.309820140802742
 30
0.0
 40
8.2239999999999345
 50
325.0840264917943
 51
335.95606401531398
  0
ARC
  5
30A6
  8
0
 10
142.01250590745991
 20
77.011432797188633
 30
0.0
 40
4.3839999999998911
 50
305.8275845704967
 51
326.67021439651597
  0
ARC
  5
30A7
  8
0
 10
145.5734465353506
 20
70.774475577805575
 30
0.0
 40
2.8609999999999478
 50
110.3468061758327
 51
127.750899699383
  0
ARC
  5
30A8
  8
0
 10
144.72984483421499
 20
71.864071914900578
 30
0.0
 40
1.4830000000000241
 50
127.7533829554403
 51
151.65265418542089
  0
ARC
  5
30A9
  8
0
 10
144.08539995213431
 20
72.200823216811173
 30
0.0
 40
0.7560000000000076
 50
150.9233540951202
 51
199.06816845153821
  0
LINE
  5
30AA
  8
0
 10
143.63867814557111
 20
71.287912849910441
 30
0.0
 11
143.37088125086339
 21
71.953843408862724
 31
0.0
  0
ARC
  5
30AB
  8
0
 10
144.32537821424549
 20
71.604107435067391
 30
0.0
 40
0.7559999999999861
 50
204.7239503965969
 51
252.90395092471749
  0
ARC
  5
30AC
  8
0
 10
144.55574274568119
 20
72.293756874093134
 30
0.0
 40
1.4830000000000161
 50
252.22990098411299
 51
276.13389821210302
  0
ARC
  5
30AD
  8
0
 10
144.3986237662497
 20
73.658764344707095
 30
0.0
 40
2.8569999999999478
 50
276.34176819118449
 51
293.21069006255908
  0
ARC
  5
30AE
  8
0
 10
146.17808598660869
 20
66.701016195309805
 30
0.0
 40
4.3810000000000464
 50
77.78108356365091
 51
98.578386698410284
  0
ARC
  5
30AF
  8
0
 10
145.5136969733075
 20
62.91119665618767
 30
0.0
 40
8.2269999999996362
 50
67.752482625927485
 51
78.845074298783928
  0
ARC
  5
30B0
  8
0
 10
132.0
 20
66.991254610789497
 30
0.0
 40
17.000000000000011
 50
7.8378978110007651
 51
12.00000000000033
  0
ARC
  5
30B1
  8
0
 10
143.34294162101489
 20
75.425400353640043
 30
0.0
 40
8.2239999999998048
 50
301.08402649179482
 51
311.95606401531649
  0
ARC
  5
30B2
  8
0
 10
145.22245292993699
 20
72.072689836167186
 30
0.0
 40
4.3840000000000483
 50
281.82758457049658
 51
302.67021439651433
  0
ARC
  5
30B3
  8
0
 10
145.93873502306241
 20
64.926580861707819
 30
0.0
 40
2.8610000000000531
 50
86.346806175830366
 51
103.75089969938389
  0
ARC
  5
30B4
  8
0
 10
145.61124527738809
 20
66.265100370138015
 30
0.0
 40
1.483000000000035
 50
103.7533829554412
 51
127.65265418542511
  0
ARC
  5
30B5
  8
0
 10
145.1594846767527
 20
66.834857340338559
 30
0.0
 40
0.7560000000000091
 50
126.9233540951238
 51
175.06816845153551
  0
ARC
  5
30B6
  8
0
 10
132.0
 20
66.991254610789497
 30
0.0
 40
16.999999999999989
 50
55.837897811001568
 51
60.000000000000021
  0
ARC
  5
30B7
  8
0
 10
132.0
 20
66.991254610789497
 30
0.0
 40
17.0
 50
175.8378978110008
 51
180.0000000000008
  0
LINE
  5
30BB
  8
0
 10
70.0
 20
55.991254610789511
 30
0.0
 11
85.0
 21
55.991254610789511
 31
0.0
  0
LINE
  5
30BC
  8
0
 10
85.0
 20
77.991254610789497
 30
0.0
 11
70.0
 21
77.991254610789497
 31
0.0
  0
LINE
  5
30BF
  8
3
 10
50.0
 20
66.991254610789483
 30
0.0
 11
70.0
 21
66.991254610789483
 31
0.0
  0
LINE
  5
30C1
  8
3
 10
70.0
 20
68.225089380917197
 30
0.0
 11
50.0
 21
68.225089380917197
 31
0.0
  0
LINE
  5
30C7
  8
3
 10
70.0
 20
61.22213148680575
 30
0.0
 11
50.0
 21
61.22213148680575
 31
0.0
  0
LINE
  5
30CB
  8
3
 10
50.0
 20
60.076731678500899
 30
0.0
 11
70.0
 21
60.076731678500892
 31
0.0
  0
LINE
  5
30D5
  8
3
 10
50.0
 20
73.905777543078102
 30
0.0
 11
70.0
 21
73.905777543078088
 31
0.0
  0
LINE
  5
30D8
  8
3
 10
70.0
 20
75.014706034236582
 30
0.0
 11
50.0
 21
75.014706034236582
 31
0.0
  0
LINE
  5
30FC
  8
3
 10
70.0
 20
55.216707391669303
 30
0.0
 11
50.0
 21
55.216707391669303
 31
0.0
  0
LINE
  5
3100
  8
3
 10
50.0
 20
54.357792577673798
 30
0.0
 11
70.0
 21
54.357792577673798
 31
0.0
  0
LINE
  5
310C
  8
3
 10
50.0
 20
79.624716643905202
 30
0.0
 11
70.0
 21
79.624716643905202
 31
0.0
  0
LINE
  5
310F
  8
3
 10
70.0
 20
80.416995045674085
 30
0.0
 11
50.0
 21
80.416995045674085
 31
0.0
  0
LINE
  5
3115
  8
0
 10
85.0
 20
55.991254610789511
 30
0.0
 11
85.0
 21
77.991254610789497
 31
0.0
  0
LINE
  5
3128
  8
3
 10
70.0
 20
51.247209479122098
 30
0.0
 11
50.0
 21
51.247209479122098
 31
0.0
  0
LINE
  5
312B
  8
3
 10
50.0
 20
50.823293833771899
 30
0.0
 11
70.0
 21
50.823293833771899
 31
0.0
  0
LINE
  5
3131
  8
3
 10
50.0
 20
83.159215387807095
 30
0.0
 11
70.0
 21
83.159215387807095
 31
0.0
  0
LINE
  5
3134
  8
3
 10
70.0
 20
83.497851566897239
 30
0.0
 11
50.0
 21
83.497851566897239
 31
0.0
  0
LINE
  5
3137
  8
0
 10
70.0
 20
50.0
 30
0.0
 11
50.0
 21
50.0
 31
0.0
  0
LINE
  5
3138
  8
0
 10
70.0
 20
83.898126832050153
 30
0.0
 11
70.0
 21
50.0
 31
0.0
  0
LINE
  5
3139
  8
0
 10
50.0
 20
83.898126832050153
 30
0.0
 11
50.0
 21
50.0
 31
0.0
  0
LINE
  5
313A
  8
0
 10
50.0
 20
83.898126832050153
 30
0.0
 11
70.0
 21
83.898126832050153
 31
0.0
  0
LINE
  5
314E
  8
2
 10
85.0
 20
71.760950617874229
 30
0.0
 11
50.0
 21
71.760950617874229
 31
0.0
  0
LINE
  5
3156
  8
2
 10
85.0
 20
73.391254610789503
 30
0.0
 11
50.0
 21
73.391254610789503
 31
0.0
  0
LINE
  5
319B
  8
2
 10
50.0
 20
61.99125461078949
 30
0.0
 11
85.0
 21
61.99125461078949
 31
0.0
  0
LINE
  5
31A6
  8
1
 10
132.0
 20
87.991254610789497
 30
0.0
 11
132.0
 21
45.991254610789497
 31
0.0
  0
LINE
  5
31A7
  8
1
 10
153.0
 20
66.991254610789497
 30
0.0
 11
111.0
 21
66.991254610789497
 31
0.0
  0
CIRCLE
  5
31B0
  8
5
 10
132.0
 20
66.991254610789497
 30
0.0
 40
15.0
  0
LINE
  5
31E9
  8
1
 10
89.0
 20
66.991254610789497
 30
0.0
 11
46.0
 21
66.991254610789497
 31
0.0
  0
ENDSEC
  0
EOF
