  0
SECTION
  2
HEADER
  9
$ACADVER
  1
AC1009
  9
$INSBASE
 10
0.0
 20
0.0
 30
0.0
  9
$EXTMIN
 10
0.0
 20
-2.960436562073669
 30
0.0
  9
$EXTMAX
 10
159.0
 20
93.829101396398755
 30
0.0
  9
$LIMMIN
 10
0.0
 20
0.0
  9
$LIMMAX
 10
275.0
 20
175.0
  9
$ORTHOMODE
 70
     1
  9
$REGENMODE
 70
     1
  9
$FILLMODE
 70
     1
  9
$QTEXTMODE
 70
     0
  9
$MIRRTEXT
 70
     0
  9
$DRAGMODE
 70
     2
  9
$LTSCALE
 40
5.0
  9
$OSMODE
 70
    37
  9
$ATTMODE
 70
     1
  9
$TEXTSIZE
 40
0.2
  9
$TRACEWID
 40
0.05
  9
$TEXTSTYLE
  7
STANDARD
  9
$CLAYER
  8
0
  9
$CELTYPE
  6
BYLAYER
  9
$CECOLOR
 62
   256
  9
$DIMSCALE
 40
1.0
  9
$DIMASZ
 40
3.0
  9
$DIMEXO
 40
1.0
  9
$DIMDLI
 40
6.0
  9
$DIMRND
 40
0.0
  9
$DIMDLE
 40
0.0
  9
$DIMEXE
 40
1.0
  9
$DIMTP
 40
495.0
  9
$DIMTM
 40
0.0
  9
$DIMTXT
 40
3.0
  9
$DIMCEN
 40
0.0
  9
$DIMTSZ
 40
0.0
  9
$DIMTOL
 70
     0
  9
$DIMLIM
 70
     0
  9
$DIMTIH
 70
     0
  9
$DIMTOH
 70
     0
  9
$DIMSE1
 70
     0
  9
$DIMSE2
 70
     0
  9
$DIMTAD
 70
     1
  9
$DIMZIN
 70
     8
  9
$DIMBLK
  1

  9
$DIMASO
 70
     0
  9
$DIMSHO
 70
     0
  9
$DIMPOST
  1

  9
$DIMAPOST
  1

  9
$DIMALT
 70
     0
  9
$DIMALTD
 70
     2
  9
$DIMALTF
 40
25.399999999999999
  9
$DIMLFAC
 40
1.0
  9
$DIMTOFL
 70
     1
  9
$DIMTVP
 40
0.0
  9
$DIMTIX
 70
     1
  9
$DIMSOXD
 70
     0
  9
$DIMSAH
 70
     0
  9
$DIMBLK1
  1

  9
$DIMBLK2
  1

  9
$DIMSTYLE
  2
STANDARD
  9
$DIMCLRD
 70
     0
  9
$DIMCLRE
 70
     0
  9
$DIMCLRT
 70
     0
  9
$DIMTFAC
 40
1.0
  9
$DIMGAP
 40
1.0
  9
$LUNITS
 70
     2
  9
$LUPREC
 70
     1
  9
$SKETCHINC
 40
0.1
  9
$FILLETRAD
 40
0.0
  9
$AUNITS
 70
     0
  9
$AUPREC
 70
     0
  9
$MENU
  1
E:\r13\win\SUPPORT\ACAD
  9
$ELEVATION
 40
0.0
  9
$PELEVATION
 40
0.0
  9
$THICKNESS
 40
0.0
  9
$LIMCHECK
 70
     0
  9
$BLIPMODE
 70
     0
  9
$CHAMFERA
 40
0.0
  9
$CHAMFERB
 40
0.0
  9
$SKPOLY
 70
     0
  9
$TDCREATE
 40
2450653.5278402781
  9
$TDUPDATE
 40
2459439.6127972449
  9
$TDINDWG
 40
0.3400775463
  9
$TDUSRTIMER
 40
0.3400775463
  9
$USRTIMER
 70
     1
  9
$ANGBASE
 50
0.0
  9
$ANGDIR
 70
     0
  9
$PDMODE
 70
     0
  9
$PDSIZE
 40
0.0
  9
$PLINEWID
 40
0.0
  9
$COORDS
 70
     1
  9
$SPLFRAME
 70
     0
  9
$SPLINETYPE
 70
     6
  9
$SPLINESEGS
 70
     8
  9
$ATTDIA
 70
     0
  9
$ATTREQ
 70
     1
  9
$HANDLING
 70
     1
  9
$HANDSEED
  5
4A06
  9
$SURFTAB1
 70
     6
  9
$SURFTAB2
 70
     6
  9
$SURFTYPE
 70
     6
  9
$SURFU
 70
     6
  9
$SURFV
 70
     6
  9
$UCSNAME
  2

  9
$UCSORG
 10
0.0
 20
0.0
 30
0.0
  9
$UCSXDIR
 10
1.0
 20
0.0
 30
0.0
  9
$UCSYDIR
 10
0.0
 20
1.0
 30
0.0
  9
$PUCSNAME
  2

  9
$PUCSORG
 10
0.0
 20
0.0
 30
0.0
  9
$PUCSXDIR
 10
1.0
 20
0.0
 30
0.0
  9
$PUCSYDIR
 10
0.0
 20
1.0
 30
0.0
  9
$USERI1
 70
     4
  9
$USERI2
 70
     1
  9
$USERI3
 70
     1
  9
$USERI4
 70
     0
  9
$USERI5
 70
     0
  9
$USERR1
 40
1.0
  9
$USERR2
 40
3.0
  9
$USERR3
 40
3.0
  9
$USERR4
 40
3.0
  9
$USERR5
 40
10.0
  9
$WORLDVIEW
 70
     1
  9
$SHADEDGE
 70
     3
  9
$SHADEDIF
 70
    70
  9
$TILEMODE
 70
     1
  9
$MAXACTVP
 70
    16
  9
$PLIMCHECK
 70
     0
  9
$PEXTMIN
 10
1.0000000000000000E+020
 20
1.0000000000000000E+020
 30
1.0000000000000000E+020
  9
$PEXTMAX
 10
-1.0000000000000000E+020
 20
-1.0000000000000000E+020
 30
-1.0000000000000000E+020
  9
$PLIMMIN
 10
0.0
 20
0.0
  9
$PLIMMAX
 10
12.0
 20
9.0
  9
$UNITMODE
 70
     0
  9
$VISRETAIN
 70
     0
  9
$PLINEGEN
 70
     0
  9
$PSLTSCALE
 70
     0
  0
ENDSEC
  0
SECTION
  2
TABLES
  0
TABLE
  2
VPORT
 70
     1
  0
VPORT
  2
*ACTIVE
 70
     0
 10
0.0
 20
0.0
 11
1.0
 21
1.0
 12
260.1957585644372
 22
100.0
 13
0.0
 23
0.0
 14
5.0
 24
5.0
 15
10.0
 25
10.0
 16
0.0
 26
0.0
 36
1.0
 17
0.0
 27
0.0
 37
0.0
 40
200.0
 41
2.6019575856443722
 42
50.0
 43
0.0
 44
0.0
 50
0.0
 51
0.0
 71
     0
 72
   100
 73
     1
 74
     0
 75
     0
 76
     0
 77
     0
 78
     0
  0
ENDTAB
  0
TABLE
  2
LTYPE
 70
     5
  0
LTYPE
  2
CONTINUOUS
 70
     0
  3
Solid Line
 72
    65
 73
     0
 40
0.0
  0
LTYPE
  2
CENTER
 70
     0
  3
____ _ ____ _ ____ _ ____ _ ____ _ ____ _ ____ 
 72
    65
 73
     4
 40
2.0
 49
1.25
 49
-0.25
 49
0.25
 49
-0.25
  0
LTYPE
  2
HIDDEN
 70
     0
  3
__ __ __ __ __ __ __ __ __ __ __ __ __ __ __ __
 72
    65
 73
     2
 40
0.375
 49
0.25
 49
-0.125
  0
LTYPE
  2
PHANTOM
 70
     0
  3
_____ _ _ _____ _ _ _____ _ _ _____ _ _ ____
 72
    65
 73
     6
 40
2.5
 49
1.25
 49
-0.25
 49
0.25
 49
-0.25
 49
0.25
 49
-0.25
  0
LTYPE
  2
PHANTOM2
 70
     0
  3
___ _ _ ___ _ _ ___ _ _ ___ _ _
 72
    65
 73
     6
 40
1.25
 49
0.625
 49
-0.125
 49
0.125
 49
-0.125
 49
0.125
 49
-0.125
  0
ENDTAB
  0
TABLE
  2
LAYER
 70
     6
  0
LAYER
  2
0
 70
     0
 62
     7
  6
CONTINUOUS
  0
LAYER
  2
1
 70
     0
 62
     1
  6
CENTER
  0
LAYER
  2
2
 70
     0
 62
     2
  6
HIDDEN
  0
LAYER
  2
5
 70
     0
 62
     3
  6
PHANTOM
  0
LAYER
  2
DEFPOINTS
 70
     0
 62
     7
  6
CONTINUOUS
  0
LAYER
  2
3
 70
     0
 62
     3
  6
CONTINUOUS
  0
ENDTAB
  0
TABLE
  2
STYLE
 70
     2
  0
STYLE
  2
STANDARD
 70
     0
 40
0.0
 41
1.0
 50
0.0
 71
     0
 42
0.2
  3
simplex
  4
bigfont
  0
STYLE
  2
STANDARD1
 70
     0
 40
0.0
 41
1.0
 50
0.0
 71
     0
 42
3.0
  3
txt
  4

  0
ENDTAB
  0
TABLE
  2
VIEW
 70
     0
  0
ENDTAB
  0
TABLE
  2
UCS
 70
     0
  0
ENDTAB
  0
TABLE
  2
APPID
 70
     9
  0
APPID
  2
ACAD
 70
     0
  0
APPID
  2
_CALL_MAC$
 70
     0
  0
APPID
  2
ACAD_MLEADERVER
 70
     0
  0
APPID
  2
ACAD_EXEMPT_FROM_CAD_STANDARDS
 70
     0
  0
APPID
  2
ACAD_NAV_VCDISPLAY
 70
     0
  0
APPID
  2
ACAD_DSTYLE_DIMJAG
 70
     0
  0
APPID
  2
ACAD_DSTYLE_DIMTALN
 70
     0
  0
APPID
  2
ACAECLAYERSTANDARD
 70
     0
  0
APPID
  2
ACCMTRANSPARENCY
 70
     0
  0
ENDTAB
  0
TABLE
  2
DIMSTYLE
 70
     1
  0
DIMSTYLE
  2
STANDARD
 70
     0
  3

  4

  5

  6

  7

 40
1.0
 41
0.18
 42
0.0625
 43
0.38
 44
0.18
 45
0.0
 46
0.0
 47
0.0
 48
0.0
140
0.18
141
0.09
142
0.0
143
25.399999999999999
144
1.0
145
0.0
146
1.0
147
0.09
 71
     0
 72
     0
 73
     1
 74
     1
 75
     0
 76
     0
 77
     0
 78
     0
170
     0
171
     2
172
     0
173
     0
174
     0
175
     0
176
     0
177
     0
178
     0
  0
ENDTAB
  0
ENDSEC
  0
SECTION
  2
BLOCKS
  0
BLOCK
  8
0
  2
$MODEL_SPACE
 70
     2
 10
0.0
 20
0.0
 30
0.0
  3
$MODEL_SPACE
  1

  0
ENDBLK
  5
7
  8
0
  0
BLOCK
 67
     1
  8
0
  2
$PAPER_SPACE
 70
     0
 10
0.0
 20
0.0
 30
0.0
  3
$PAPER_SPACE
  1

  0
ENDBLK
  5
A
 67
     1
  8
0
  0
ENDSEC
  0
SECTION
  2
ENTITIES
  0
TEXT
  5
2BF
  8
0
 62
     3
 10
0.0
 20
0.0
 30
0.0
 40
10.0
  1
ZCL-2.0-18-A12-K
  7
STANDARD1
  0
LINE
  5
486B
  8
0
 10
70.0
 20
54.829101396398762
 30
0.0
 11
85.0
 21
54.829101396398762
 31
0.0
  0
LINE
  5
486C
  8
0
 10
85.0
 20
84.829101396398755
 30
0.0
 11
70.0
 21
84.829101396398755
 31
0.0
  0
LINE
  5
486D
  8
3
 10
50.0
 20
68.9554386677178
 30
0.0
 11
70.0
 21
68.9554386677178
 31
0.0
  0
LINE
  5
486E
  8
3
 10
70.0
 20
70.702962582271525
 30
0.0
 11
50.0
 21
70.702962582271525
 31
0.0
  0
LINE
  5
4877
  8
3
 10
70.0
 20
77.482941841733719
 30
0.0
 11
50.0
 21
77.482941841733719
 31
0.0
  0
LINE
  5
4878
  8
3
 10
50.0
 20
75.840648424024295
 30
0.0
 11
70.0
 21
75.84064842402428
 31
0.0
  0
LINE
  5
487E
  8
3
 10
70.0
 20
63.817312192835168
 30
0.0
 11
50.0
 21
63.817312192835189
 31
0.0
  0
LINE
  5
4882
  8
3
 10
50.0
 20
62.175614507685772
 30
0.0
 11
70.0
 21
62.175614507685772
 31
0.0
  0
LINE
  5
4889
  8
3
 10
70.0
 20
83.339968053716277
 30
0.0
 11
50.0
 21
83.339968053716277
 31
0.0
  0
LINE
  5
488A
  8
3
 10
50.0
 20
82.001248005237557
 30
0.0
 11
70.0
 21
82.001248005237557
 31
0.0
  0
LINE
  5
4890
  8
3
 10
70.0
 20
57.656224399265639
 30
0.0
 11
50.0
 21
57.656224399265639
 31
0.0
  0
LINE
  5
4894
  8
3
 10
50.0
 20
56.318438316918289
 30
0.0
 11
70.0
 21
56.318438316918261
 31
0.0
  0
LINE
  5
489B
  8
0
 10
85.0
 20
54.829101396398762
 30
0.0
 11
85.0
 21
84.829101396398755
 31
0.0
  0
LINE
  5
48A0
  8
3
 10
70.0
 20
87.568061093003749
 30
0.0
 11
50.0
 21
87.568061093003749
 31
0.0
  0
LINE
  5
48A1
  8
3
 10
50.0
 20
86.694401778647915
 30
0.0
 11
70.0
 21
86.694401778647915
 31
0.0
  0
LINE
  5
48A6
  8
3
 10
70.0
 20
52.962876162199507
 30
0.0
 11
50.0
 21
52.962876162199507
 31
0.0
  0
LINE
  5
48A7
  8
3
 10
50.0
 20
52.090091731757262
 30
0.0
 11
70.0
 21
52.090091731757262
 31
0.0
  0
LINE
  5
48AC
  8
3
 10
50.0
 20
89.353926476577598
 30
0.0
 11
70.0
 21
89.353926476577598
 31
0.0
  0
LINE
  5
48AF
  8
3
 10
70.0
 20
50.303722158068609
 30
0.0
 11
50.0
 21
50.303722158068652
 31
0.0
  0
LINE
  5
48B2
  8
3
 10
70.0
 20
89.657477414145859
 30
0.0
 11
50.0
 21
89.657477414145859
 31
0.0
  0
LINE
  5
48B9
  8
3
 10
50.0
 20
50.000630768579661
 30
0.0
 11
70.0
 21
50.000630768579661
 31
0.0
  0
LINE
  5
48BA
  8
0
 10
70.0
 20
50.0
 30
0.0
 11
70.0
 21
89.65863711584862
 31
0.0
  0
LINE
  5
48BB
  8
0
 10
50.0
 20
50.0
 30
0.0
 11
50.0
 21
89.65863711584862
 31
0.0
  0
LINE
  5
48BC
  8
0
 10
70.0
 20
50.0
 30
0.0
 11
50.0
 21
50.0
 31
0.0
  0
LINE
  5
48BD
  8
0
 10
50.0
 20
89.658637115848606
 30
0.0
 11
70.0
 21
89.658637115848606
 31
0.0
  0
LINE
  5
48C4
  8
2
 10
85.0
 20
75.485955645891124
 30
0.0
 11
50.0
 21
75.485955645891124
 31
0.0
  0
LINE
  5
48C9
  8
2
 10
85.0
 20
77.629101396398752
 30
0.0
 11
50.0
 21
77.629101396398752
 31
0.0
  0
LINE
  5
48F8
  8
2
 10
50.0
 20
63.829101396398748
 30
0.0
 11
85.0
 21
63.829101396398748
 31
0.0
  0
LINE
  5
4915
  8
0
 10
137.0
 20
77.629101396398767
 30
0.0
 11
133.0
 21
77.629101396398767
 31
0.0
  0
CIRCLE
  5
4916
  8
0
 10
135.0
 20
69.829101396398755
 30
0.0
 40
15.0
  0
ARC
  5
4917
  8
0
 10
135.0
 20
69.829101396398755
 30
0.0
 40
6.0000000000000018
 50
109.4712206344894
 51
70.528779365510516
  0
LINE
  5
4918
  8
0
 10
133.0
 20
77.629101396398767
 30
0.0
 11
133.0
 21
75.485955645891153
 31
0.0
  0
LINE
  5
4919
  8
0
 10
137.0
 20
75.485955645891153
 30
0.0
 11
137.0
 21
77.629101396398767
 31
0.0
  0
ARC
  5
491A
  8
0
 10
148.91472824974761
 20
83.421726099010229
 30
0.0
 40
15.68199999999972
 50
275.30144382147392
 51
292.75794240326712
  0
ARC
  5
491B
  8
0
 10
134.99631195433199
 20
69.830191849641949
 30
0.0
 40
15.500000000000689
 50
347.49842142661282
 51
352.49914999727889
  0
ARC
  5
491C
  8
0
 10
143.4338703906258
 20
52.293884106686868
 30
0.0
 40
15.68199999999989
 50
47.273902534088123
 51
64.727835898014575
  0
ARC
  5
491D
  8
0
 10
135.0
 20
69.829101396398755
 30
0.0
 40
20.0
 50
337.5074845322842
 51
342.49694849097779
  0
ARC
  5
4920
  8
0
 10
152.72392353214511
 20
77.841677552708205
 30
0.0
 40
15.681999999999841
 50
255.30144382147699
 51
272.75831696749327
  0
ARC
  5
4921
  8
0
 10
134.99631195433369
 20
69.830191849641267
 30
0.0
 40
15.49999999999881
 50
327.4984214266135
 51
332.49914999727969
  0
ARC
  5
4922
  8
0
 10
136.9272528667187
 20
50.465637922056608
 30
0.0
 40
15.681999999999819
 50
27.274934866311231
 51
44.727835898015897
  0
ARC
  5
4923
  8
0
 10
135.0
 20
69.829101396398755
 30
0.0
 40
20.0
 50
317.50330862975648
 51
322.49353774956461
  0
ARC
  5
4926
  8
0
 10
154.39490722657621
 20
71.295325593679934
 30
0.0
 40
15.68199999999988
 50
235.301443821476
 51
252.75682765428081
  0
ARC
  5
4927
  8
0
 10
134.99631195433281
 20
69.830191849641636
 30
0.0
 40
15.49999999999975
 50
307.4984214266114
 51
312.49914999728043
  0
ARC
  5
4928
  8
0
 10
130.1877353711246
 20
50.973042731471423
 30
0.0
 40
15.682000000000279
 50
7.2777158817596668
 51
24.727835898013591
  0
ARC
  5
4929
  8
0
 10
135.0
 20
69.829101396398755
 30
0.0
 40
19.999999999999989
 50
297.49915246591598
 51
302.49118814861612
  0
ARC
  5
492C
  8
0
 10
153.72613403839989
 20
64.572256882049771
 30
0.0
 40
15.68200000000032
 50
215.30144382147469
 51
232.75365409070631
  0
ARC
  5
492D
  8
0
 10
134.99631195433241
 20
69.830191849642446
 30
0.0
 40
15.500000000000639
 50
287.49842142661311
 51
292.49914999728071
  0
ARC
  5
492E
  8
0
 10
124.0282031784986
 20
53.754898026418772
 30
0.0
 40
15.681999999999739
 50
347.2819098447037
 51
4.7278358980150959
  0
ARC
  5
492F
  8
0
 10
135.0
 20
69.829101396398755
 30
0.0
 40
20.000000000000011
 50
277.49551756849252
 51
282.49018282632301
  0
ARC
  5
4932
  8
0
 10
150.79826788415019
 20
58.483372726366262
 30
0.0
 40
15.68199999999986
 50
195.301443821476
 51
212.74917924733529
  0
ARC
  5
4933
  8
0
 10
134.9963119543327
 20
69.83019184964165
 30
0.0
 40
15.499999999999829
 50
267.49842142661163
 51
272.49914999727957
  0
ARC
  5
4934
  8
0
 10
135.0
 20
69.829101396398755
 30
0.0
 40
19.999999999999979
 50
257.49284262461879
 51
262.49064279410459
  0
ARC
  5
4937
  8
0
 10
145.96445263273321
 20
53.763082418165233
 30
0.0
 40
15.68199999999996
 50
175.30144382147481
 51
192.74394315646001
  0
ARC
  5
4938
  8
0
 10
134.99631195433241
 20
69.830191849641167
 30
0.0
 40
15.499999999999289
 50
247.4984214266108
 51
252.49914999728031
  0
ARC
  5
4939
  8
0
 10
116.26125348344181
 20
64.56596676765767
 30
0.0
 40
15.68200000000026
 50
307.2924031440142
 51
324.72783589801679
  0
ARC
  5
493A
  8
0
 10
135.0
 20
69.829101396398755
 30
0.0
 40
20.000000000000028
 50
237.4914504446854
 51
242.49251245557929
  0
ARC
  5
493B
  8
0
 10
139.80771774298461
 20
50.980722632680923
 30
0.0
 40
15.68199999999991
 50
155.30144382147421
 51
172.7385776357024
  0
ARC
  5
493C
  8
0
 10
134.9963119543321
 20
69.830191849641196
 30
0.0
 40
15.499999999999149
 50
227.49842142661279
 51
232.49914999728091
  0
ARC
  5
493D
  8
0
 10
115.5906447422052
 20
71.291205769374002
 30
0.0
 40
15.682000000000141
 50
287.29743698427347
 51
304.72783589801412
  0
ARC
  5
493E
  8
0
 10
135.0
 20
69.829101396398755
 30
0.0
 40
20.000000000000021
 50
217.4915089458421
 51
222.4955663672003
  0
ARC
  5
493F
  8
0
 10
133.0706563063377
 20
50.471887023299871
 30
0.0
 40
15.681999999999871
 50
135.30144382147549
 51
152.73372995615301
  0
ARC
  5
4940
  8
0
 10
134.9963119543321
 20
69.830191849641551
 30
0.0
 40
15.49999999999943
 50
207.49842142661359
 51
212.4991499972792
  0
ARC
  5
4941
  8
0
 10
117.260645863897
 20
77.840224930101655
 30
0.0
 40
15.68200000000008
 50
267.30150534674118
 51
284.72783589801497
  0
ARC
  5
4942
  8
0
 10
135.0
 20
69.829101396398755
 30
0.0
 40
20.000000000000021
 50
197.49301089887959
 51
202.49943639952809
  0
ARC
  5
4943
  8
0
 10
126.5658573604896
 20
52.297948674127113
 30
0.0
 40
15.68199999999992
 50
115.3014438214759
 51
132.72998472041709
  0
ARC
  5
4944
  8
0
 10
134.9963119543325
 20
69.830191849641793
 30
0.0
 40
15.499999999999851
 50
187.49842142661251
 51
192.49914999727929
  0
ARC
  5
4945
  8
0
 10
121.0698300666496
 20
83.423115885827784
 30
0.0
 40
15.68199999999996
 50
247.30411780313489
 51
264.72783589801497
  0
ARC
  5
4946
  8
0
 10
121.0778956589178
 20
56.238657600273271
 30
0.0
 40
15.68199999999994
 50
95.301443821473924
 51
112.7277933973823
  0
ARC
  5
4947
  8
0
 10
134.9963119543296
 20
69.830191849642361
 30
0.0
 40
15.499999999996939
 50
167.4984214266112
 51
172.49914999727849
  0
ARC
  5
4948
  8
0
 10
126.55875351803959
 20
87.366499592596881
 30
0.0
 40
15.681999999999981
 50
227.30495938080449
 51
244.72783589801449
  0
ARC
  5
4949
  8
0
 10
117.2687003765201
 20
61.818706146575629
 30
0.0
 40
15.681999999999681
 50
75.30144382147364
 51
92.727419990955468
  0
ARC
  5
494A
  8
0
 10
134.9963119543321
 20
69.830191849642233
 30
0.0
 40
15.499999999999339
 50
147.4984214266135
 51
152.49914999727889
  0
ARC
  5
494B
  8
0
 10
133.06537104194669
 20
89.194745777227183
 30
0.0
 40
15.682000000000031
 50
207.3039284931065
 51
224.72783589801591
  0
ARC
  5
494C
  8
0
 10
135.0
 20
69.829101396398755
 30
0.0
 40
20.0
 50
137.5036426551689
 51
142.51112813073809
  0
ARC
  5
494D
  8
0
 10
115.597716682089
 20
68.365058105603694
 30
0.0
 40
15.681999999999981
 50
55.301443821475999
 51
72.728909338567234
  0
ARC
  5
494E
  8
0
 10
134.99631195433281
 20
69.83019184964165
 30
0.0
 40
15.500000000000229
 50
127.4984214266109
 51
132.49914999727989
  0
ARC
  5
494F
  8
0
 10
139.80488853754059
 20
88.687340967812261
 30
0.0
 40
15.682000000000279
 50
187.30114922961991
 51
204.72783589801679
  0
ARC
  5
4950
  8
0
 10
135.0
 20
69.829101396398755
 30
0.0
 40
20.000000000000021
 50
117.50779747758931
 51
122.5134792191857
  0
ARC
  5
4951
  8
0
 10
116.2664898702659
 20
75.088126817234311
 30
0.0
 40
15.68199999999978
 50
35.301443821474059
 51
52.732081797041943
  0
ARC
  5
4952
  8
0
 10
134.99631195433159
 20
69.830191849644635
 30
0.0
 40
15.499999999997041
 50
107.49842142661301
 51
112.4991499972807
  0
ARC
  5
4953
  8
0
 10
145.96442073016681
 20
85.905485672864884
 30
0.0
 40
15.681999999999841
 50
167.2969565063114
 51
184.72783589801551
  0
ARC
  5
4954
  8
0
 10
119.1943560245148
 20
81.177010972917316
 30
0.0
 40
15.68200000000015
 50
15.30144382147561
 51
32.736554912900701
  0
ARC
  5
4955
  8
0
 10
134.9963119543327
 20
69.830191849642404
 30
0.0
 40
15.499999999999471
 50
87.498421426611628
 51
92.499149997279574
  0
ARC
  5
4956
  8
0
 10
150.80103713238219
 20
81.184712696767434
 30
0.0
 40
15.682
 50
147.29185581209799
 51
164.72783589801429
  0
ARC
  5
4957
  8
0
 10
135.0
 20
69.829101396398755
 30
0.0
 40
19.999999999999972
 50
77.514104800100213
 51
82.514026663995054
  0
ARC
  5
4958
  8
0
 10
124.02817127593219
 20
85.897301281118473
 30
0.0
 40
15.68199999999972
 50
355.30144382147529
 51
12.74178946218095
  0
ARC
  5
4959
  8
0
 10
134.996311954334
 20
69.830191849645814
 30
0.0
 40
15.499999999995801
 50
67.498421426610761
 51
72.499149997280242
  0
ARC
  5
495A
  8
0
 10
153.73137042522339
 20
75.094416931626142
 30
0.0
 40
15.68200000000005
 50
127.2864623402638
 51
144.7278358980133
  0
ARC
  5
495B
  8
0
 10
135.0
 20
69.829101396398755
 30
0.0
 40
20.000000000000011
 50
57.51549698123074
 51
62.512156627250832
  0
ARC
  5
495E
  8
0
 10
130.18490616568079
 20
88.679661066602762
 30
0.0
 40
15.681999999999849
 50
335.301443821475
 51
352.74715434858291
  0
ARC
  5
495F
  8
0
 10
134.99631195433369
 20
69.830191849643114
 30
0.0
 40
15.49999999999835
 50
47.498421426612779
 51
52.49914999727757
  0
ARC
  5
4960
  8
0
 10
154.40197916645991
 20
68.369177929909952
 30
0.0
 40
15.681999999999841
 50
107.28142679919129
 51
124.72783589801389
  0
ARC
  5
4961
  8
0
 10
135.0
 20
69.829101396398755
 30
0.0
 40
20.000000000000011
 50
37.515439476186621
 51
42.509101463362697
  0
ARC
  5
4964
  8
0
 10
136.9219676023275
 20
89.188496675983913
 30
0.0
 40
15.68200000000002
 50
315.3014438214758
 51
332.7520025978435
  0
ARC
  5
4965
  8
0
 10
134.99631195433221
 20
69.830191849641565
 30
0.0
 40
15.500000000000551
 50
27.498421426613572
 51
32.49914999727887
  0
ARC
  5
4966
  8
0
 10
152.7319780447682
 20
61.820158769182029
 30
0.0
 40
15.682000000000089
 50
87.277356844930864
 51
104.727835898015
  0
ARC
  5
4967
  8
0
 10
135.0
 20
69.829101396398755
 30
0.0
 40
20.000000000000011
 50
17.513939048078001
 51
22.50522988772142
  0
ARC
  5
496A
  8
0
 10
143.42676654817561
 20
87.362435025156685
 30
0.0
 40
15.681999999999981
 50
295.30144382147569
 51
312.7557493407773
  0
ARC
  5
496B
  8
0
 10
134.99631195433369
 20
69.83019184964202
 30
0.0
 40
15.499999999998989
 50
7.4984214266117091
 51
12.499149997278909
  0
ARC
  5
496C
  8
0
 10
148.92279384201561
 20
56.237267813455603
 30
0.0
 40
15.68200000000024
 50
67.274743650578415
 51
84.727835898015016
  0
ARC
  5
496D
  8
0
 10
135.0
 20
69.829101396398755
 30
0.0
 40
20.000000000000011
 50
357.51117640591252
 51
2.5010091376112702
  0
ARC
  5
4970
  8
0
 10
135.0
 20
69.829101396398755
 30
0.0
 40
19.999999999999989
 50
157.4994672832967
 51
162.50771652333111
  0
ARC
  5
4971
  8
0
 10
135.0
 20
69.829101396398755
 30
0.0
 40
19.999999999999989
 50
177.4957748812638
 51
182.50365603741389
  0
ARC
  5
4972
  8
0
 10
135.0
 20
69.829101396398755
 30
0.0
 40
20.000000000000011
 50
97.511430850497433
 51
102.51448595446
  0
ARC
  5
4973
  8
0
 10
119.1915867762831
 20
58.475671002516229
 30
0.0
 40
15.68199999999997
 50
327.28701068618699
 51
344.72783589801509
  0
LINE
  5
4974
  8
1
 10
135.0
 20
93.829101396398755
 30
0.0
 11
135.0
 21
45.829101396398769
 31
0.0
  0
LINE
  5
4975
  8
1
 10
159.0
 20
69.829101396398755
 30
0.0
 11
111.0
 21
69.829101396398755
 31
0.0
  0
CIRCLE
  5
4976
  8
5
 10
135.0
 20
69.829101396398755
 30
0.0
 40
18.0
  0
LINE
  5
499E
  8
1
 10
46.0
 20
69.829101396398755
 30
0.0
 11
89.0
 21
69.829101396398755
 31
0.0
  0
ENDSEC
  0
EOF
