  0
SECTION
  2
HEADER
  9
$ACADVER
  1
AC1009
  9
$INSBASE
 10
0.0
 20
0.0
 30
0.0
  9
$EXTMIN
 10
0.0
 20
-2.960436562073669
 30
0.0
  9
$EXTMAX
 10
159.0
 20
89.0
 30
0.0
  9
$LIMMIN
 10
0.0
 20
0.0
  9
$LIMMAX
 10
275.0
 20
175.0
  9
$ORTHOMODE
 70
     1
  9
$REGENMODE
 70
     1
  9
$FILLMODE
 70
     1
  9
$QTEXTMODE
 70
     0
  9
$MIRRTEXT
 70
     0
  9
$DRAGMODE
 70
     2
  9
$LTSCALE
 40
5.0
  9
$OSMODE
 70
    37
  9
$ATTMODE
 70
     1
  9
$TEXTSIZE
 40
0.2
  9
$TRACEWID
 40
0.05
  9
$TEXTSTYLE
  7
STANDARD
  9
$CLAYER
  8
0
  9
$CELTYPE
  6
BYLAYER
  9
$CECOLOR
 62
   256
  9
$DIMSCALE
 40
1.0
  9
$DIMASZ
 40
3.0
  9
$DIMEXO
 40
1.0
  9
$DIMDLI
 40
6.0
  9
$DIMRND
 40
0.0
  9
$DIMDLE
 40
0.0
  9
$DIMEXE
 40
1.0
  9
$DIMTP
 40
495.0
  9
$DIMTM
 40
0.0
  9
$DIMTXT
 40
3.0
  9
$DIMCEN
 40
0.0
  9
$DIMTSZ
 40
0.0
  9
$DIMTOL
 70
     0
  9
$DIMLIM
 70
     0
  9
$DIMTIH
 70
     0
  9
$DIMTOH
 70
     0
  9
$DIMSE1
 70
     0
  9
$DIMSE2
 70
     0
  9
$DIMTAD
 70
     1
  9
$DIMZIN
 70
     8
  9
$DIMBLK
  1

  9
$DIMASO
 70
     0
  9
$DIMSHO
 70
     0
  9
$DIMPOST
  1

  9
$DIMAPOST
  1

  9
$DIMALT
 70
     0
  9
$DIMALTD
 70
     2
  9
$DIMALTF
 40
25.399999999999999
  9
$DIMLFAC
 40
1.0
  9
$DIMTOFL
 70
     1
  9
$DIMTVP
 40
0.0
  9
$DIMTIX
 70
     1
  9
$DIMSOXD
 70
     0
  9
$DIMSAH
 70
     0
  9
$DIMBLK1
  1

  9
$DIMBLK2
  1

  9
$DIMSTYLE
  2
STANDARD
  9
$DIMCLRD
 70
     0
  9
$DIMCLRE
 70
     0
  9
$DIMCLRT
 70
     0
  9
$DIMTFAC
 40
1.0
  9
$DIMGAP
 40
1.0
  9
$LUNITS
 70
     2
  9
$LUPREC
 70
     1
  9
$SKETCHINC
 40
0.1
  9
$FILLETRAD
 40
0.0
  9
$AUNITS
 70
     0
  9
$AUPREC
 70
     0
  9
$MENU
  1
E:\r13\win\SUPPORT\ACAD
  9
$ELEVATION
 40
0.0
  9
$PELEVATION
 40
0.0
  9
$THICKNESS
 40
0.0
  9
$LIMCHECK
 70
     0
  9
$BLIPMODE
 70
     0
  9
$CHAMFERA
 40
0.0
  9
$CHAMFERB
 40
0.0
  9
$SKPOLY
 70
     0
  9
$TDCREATE
 40
2450653.5278402781
  9
$TDUPDATE
 40
2459439.6128386459
  9
$TDINDWG
 40
0.4065365509
  9
$TDUSRTIMER
 40
0.4065365509
  9
$USRTIMER
 70
     1
  9
$ANGBASE
 50
0.0
  9
$ANGDIR
 70
     0
  9
$PDMODE
 70
     0
  9
$PDSIZE
 40
0.0
  9
$PLINEWID
 40
0.0
  9
$COORDS
 70
     1
  9
$SPLFRAME
 70
     0
  9
$SPLINETYPE
 70
     6
  9
$SPLINESEGS
 70
     8
  9
$ATTDIA
 70
     0
  9
$ATTREQ
 70
     1
  9
$HANDLING
 70
     1
  9
$HANDSEED
  5
3D6B
  9
$SURFTAB1
 70
     6
  9
$SURFTAB2
 70
     6
  9
$SURFTYPE
 70
     6
  9
$SURFU
 70
     6
  9
$SURFV
 70
     6
  9
$UCSNAME
  2

  9
$UCSORG
 10
0.0
 20
0.0
 30
0.0
  9
$UCSXDIR
 10
1.0
 20
0.0
 30
0.0
  9
$UCSYDIR
 10
0.0
 20
1.0
 30
0.0
  9
$PUCSNAME
  2

  9
$PUCSORG
 10
0.0
 20
0.0
 30
0.0
  9
$PUCSXDIR
 10
1.0
 20
0.0
 30
0.0
  9
$PUCSYDIR
 10
0.0
 20
1.0
 30
0.0
  9
$USERI1
 70
     4
  9
$USERI2
 70
     1
  9
$USERI3
 70
     1
  9
$USERI4
 70
     0
  9
$USERI5
 70
     0
  9
$USERR1
 40
1.0
  9
$USERR2
 40
3.0
  9
$USERR3
 40
3.0
  9
$USERR4
 40
3.0
  9
$USERR5
 40
10.0
  9
$WORLDVIEW
 70
     1
  9
$SHADEDGE
 70
     3
  9
$SHADEDIF
 70
    70
  9
$TILEMODE
 70
     1
  9
$MAXACTVP
 70
    16
  9
$PLIMCHECK
 70
     0
  9
$PEXTMIN
 10
1.0000000000000000E+020
 20
1.0000000000000000E+020
 30
1.0000000000000000E+020
  9
$PEXTMAX
 10
-1.0000000000000000E+020
 20
-1.0000000000000000E+020
 30
-1.0000000000000000E+020
  9
$PLIMMIN
 10
0.0
 20
0.0
  9
$PLIMMAX
 10
12.0
 20
9.0
  9
$UNITMODE
 70
     0
  9
$VISRETAIN
 70
     0
  9
$PLINEGEN
 70
     0
  9
$PSLTSCALE
 70
     0
  0
ENDSEC
  0
SECTION
  2
TABLES
  0
TABLE
  2
VPORT
 70
     1
  0
VPORT
  2
*ACTIVE
 70
     0
 10
0.0
 20
0.0
 11
1.0
 21
1.0
 12
260.1957585644372
 22
100.0
 13
0.0
 23
0.0
 14
5.0
 24
5.0
 15
10.0
 25
10.0
 16
0.0
 26
0.0
 36
1.0
 17
0.0
 27
0.0
 37
0.0
 40
200.0
 41
2.6019575856443722
 42
50.0
 43
0.0
 44
0.0
 50
0.0
 51
0.0
 71
     0
 72
   100
 73
     1
 74
     0
 75
     0
 76
     0
 77
     0
 78
     0
  0
ENDTAB
  0
TABLE
  2
LTYPE
 70
     5
  0
LTYPE
  2
CONTINUOUS
 70
     0
  3
Solid Line
 72
    65
 73
     0
 40
0.0
  0
LTYPE
  2
CENTER
 70
     0
  3
____ _ ____ _ ____ _ ____ _ ____ _ ____ _ ____ 
 72
    65
 73
     4
 40
2.0
 49
1.25
 49
-0.25
 49
0.25
 49
-0.25
  0
LTYPE
  2
HIDDEN
 70
     0
  3
__ __ __ __ __ __ __ __ __ __ __ __ __ __ __ __
 72
    65
 73
     2
 40
0.375
 49
0.25
 49
-0.125
  0
LTYPE
  2
PHANTOM
 70
     0
  3
_____ _ _ _____ _ _ _____ _ _ _____ _ _ ____
 72
    65
 73
     6
 40
2.5
 49
1.25
 49
-0.25
 49
0.25
 49
-0.25
 49
0.25
 49
-0.25
  0
LTYPE
  2
PHANTOM2
 70
     0
  3
___ _ _ ___ _ _ ___ _ _ ___ _ _
 72
    65
 73
     6
 40
1.25
 49
0.625
 49
-0.125
 49
0.125
 49
-0.125
 49
0.125
 49
-0.125
  0
ENDTAB
  0
TABLE
  2
LAYER
 70
     6
  0
LAYER
  2
0
 70
     0
 62
     7
  6
CONTINUOUS
  0
LAYER
  2
1
 70
     0
 62
     1
  6
CENTER
  0
LAYER
  2
2
 70
     0
 62
     2
  6
HIDDEN
  0
LAYER
  2
5
 70
     0
 62
     3
  6
PHANTOM
  0
LAYER
  2
DEFPOINTS
 70
     0
 62
     7
  6
CONTINUOUS
  0
LAYER
  2
3
 70
     0
 62
     3
  6
CONTINUOUS
  0
ENDTAB
  0
TABLE
  2
STYLE
 70
     2
  0
STYLE
  2
STANDARD
 70
     0
 40
0.0
 41
1.0
 50
0.0
 71
     0
 42
0.2
  3
simplex
  4
bigfont
  0
STYLE
  2
STANDARD1
 70
     0
 40
0.0
 41
1.0
 50
0.0
 71
     0
 42
3.0
  3
txt
  4

  0
ENDTAB
  0
TABLE
  2
VIEW
 70
     0
  0
ENDTAB
  0
TABLE
  2
UCS
 70
     0
  0
ENDTAB
  0
TABLE
  2
APPID
 70
     9
  0
APPID
  2
ACAD
 70
     0
  0
APPID
  2
_CALL_MAC$
 70
     0
  0
APPID
  2
ACAD_MLEADERVER
 70
     0
  0
APPID
  2
ACAD_EXEMPT_FROM_CAD_STANDARDS
 70
     0
  0
APPID
  2
ACAD_NAV_VCDISPLAY
 70
     0
  0
APPID
  2
ACAD_DSTYLE_DIMJAG
 70
     0
  0
APPID
  2
ACAD_DSTYLE_DIMTALN
 70
     0
  0
APPID
  2
ACAECLAYERSTANDARD
 70
     0
  0
APPID
  2
ACCMTRANSPARENCY
 70
     0
  0
ENDTAB
  0
TABLE
  2
DIMSTYLE
 70
     1
  0
DIMSTYLE
  2
STANDARD
 70
     0
  3

  4

  5

  6

  7

 40
1.0
 41
0.18
 42
0.0625
 43
0.38
 44
0.18
 45
0.0
 46
0.0
 47
0.0
 48
0.0
140
0.18
141
0.09
142
0.0
143
25.399999999999999
144
1.0
145
0.0
146
1.0
147
0.09
 71
     0
 72
     0
 73
     1
 74
     1
 75
     0
 76
     0
 77
     0
 78
     0
170
     0
171
     2
172
     0
173
     0
174
     0
175
     0
176
     0
177
     0
178
     0
  0
ENDTAB
  0
ENDSEC
  0
SECTION
  2
BLOCKS
  0
BLOCK
  8
0
  2
$MODEL_SPACE
 70
     2
 10
0.0
 20
0.0
 30
0.0
  3
$MODEL_SPACE
  1

  0
ENDBLK
  5
7
  8
0
  0
BLOCK
 67
     1
  8
0
  2
$PAPER_SPACE
 70
     0
 10
0.0
 20
0.0
 30
0.0
  3
$PAPER_SPACE
  1

  0
ENDBLK
  5
A
 67
     1
  8
0
  0
ENDSEC
  0
SECTION
  2
ENTITIES
  0
TEXT
  5
2BF
  8
0
 62
     3
 10
0.0
 20
0.0
 30
0.0
 40
10.0
  1
ZCL-2.5-12-A10-K
  7
STANDARD1
  0
LINE
  5
3BAF
  8
0
 10
139.0
 20
73.900000000000006
 30
0.0
 11
136.0
 21
73.900000000000006
 31
0.0
  0
LINE
  5
3BB0
  8
0
 10
136.0
 20
73.900000000000006
 30
0.0
 11
136.0
 21
72.269696007084704
 31
0.0
  0
LINE
  5
3BB1
  8
0
 10
139.0
 20
72.269696007084704
 30
0.0
 11
139.0
 21
73.900000000000006
 31
0.0
  0
ARC
  5
3BB2
  8
0
 10
137.5
 20
67.5
 30
0.0
 40
4.9999999999999902
 50
107.45760312372271
 51
72.542396876277252
  0
CIRCLE
  5
3BB3
  8
0
 10
137.5
 20
67.5
 30
0.0
 40
11.0
  0
ARC
  5
3BB4
  8
0
 10
150.66782877207939
 20
63.26953600977437
 30
0.0
 40
2.9487757883615462
 50
71.741242629165072
 51
107.4423475081621
  0
ARC
  5
3BB5
  8
0
 10
150.1015382325478
 20
65.080163198730062
 30
0.0
 40
1.051662560600868
 50
107.577258430131
 51
169.7981148302315
  0
LINE
  5
3BB6
  8
0
 10
148.9175812875834
 20
64.599714837937341
 30
0.0
 11
149.06650268742811
 21
65.266430645452331
 31
0.0
  0
ARC
  5
3BB7
  8
0
 10
149.9335016110883
 20
64.327869224290325
 30
0.0
 40
1.0516625606008509
 50
165.0194404549799
 51
227.2402968548565
  0
ARC
  5
3BB8
  8
0
 10
151.21639601691501
 20
65.725452043320146
 30
0.0
 40
2.9487757883615422
 50
227.3752077770643
 51
263.07631265619767
  0
ARC
  5
3BB9
  8
0
 10
147.2513469885065
 20
57.052943576169781
 30
0.0
 40
6.7850441771411054
 50
26.24832889474931
 51
57.859924751958943
  0
ARC
  5
3BBA
  8
0
 10
137.5
 20
67.5
 30
0.0
 40
17.5
 50
330.0
 51
334.81755528536138
  0
ARC
  5
3BBB
  8
0
 10
151.64444407920121
 20
65.45929970272509
 30
0.0
 40
6.7850441771409882
 50
246.95763053340249
 51
278.5692263906119
  0
ARC
  5
3BBC
  8
0
 10
146.78844223419159
 20
57.252396328629622
 30
0.0
 40
2.9487757883615542
 50
41.741242629165662
 51
77.442347508174578
  0
ARC
  5
3BBD
  8
0
 10
147.20333383551221
 20
59.103590740813878
 30
0.0
 40
1.0516625606008629
 50
77.577258430169053
 51
139.79811483023511
  0
LINE
  5
3BBE
  8
0
 10
145.93777286378969
 20
59.279488727642999
 30
0.0
 11
146.40010048297981
 21
59.7824208541332
 31
0.0
  0
ARC
  5
3BBF
  8
0
 10
146.68166286534239
 20
58.536103358564809
 30
0.0
 40
1.051662560600831
 50
135.01944045497689
 51
197.24029685489481
  0
ARC
  5
3BC0
  8
0
 10
148.4914734206761
 20
59.104998380823979
 30
0.0
 40
2.9487757883615511
 50
197.3752077770792
 51
233.07631265619909
  0
ARC
  5
3BC1
  8
0
 10
140.7213860012485
 20
53.576910247940361
 30
0.0
 40
6.7850441771410388
 50
356.24832889474982
 51
27.859924751958658
  0
ARC
  5
3BC2
  8
0
 10
148.7290977463592
 20
58.660479661448939
 30
0.0
 40
6.7850441771410948
 50
216.95763053340431
 51
248.5692263906125
  0
ARC
  5
3BC3
  8
0
 10
140.42022510070899
 20
53.981093775582771
 30
0.0
 40
2.9487757883615711
 50
11.741242629164599
 51
47.442347508179431
  0
ARC
  5
3BC4
  8
0
 10
141.70512897336161
 20
55.37682936321783
 30
0.0
 40
1.0516625606008461
 50
47.577258430184479
 51
109.7981148302385
  0
LINE
  5
3BC5
  8
0
 10
140.69707001522639
 20
56.161941974147616
 30
0.0
 11
141.34892354156119
 21
56.366330162472387
 31
0.0
  0
ARC
  5
3BC6
  8
0
 10
140.9696049696532
 20
55.146206358947929
 30
0.0
 40
1.051662560600825
 50
105.01944045498
 51
167.24029685494531
  0
ARC
  5
3BC7
  8
0
 10
142.821394397739
 20
54.733978622644003
 30
0.0
 40
2.948775788361552
 50
167.37520777709551
 51
203.07631265619821
  0
ARC
  5
3BC8
  8
0
 10
133.32825723644689
 20
53.831557574921362
 30
0.0
 40
6.7850441771410894
 50
326.24832889475039
 51
357.85992475195849
  0
ARC
  5
3BC9
  8
0
 10
142.80492374065011
 20
54.230201956365967
 30
0.0
 40
6.7850441771410503
 50
186.9576305334038
 51
218.5692263906129
  0
ARC
  5
3BCA
  8
0
 10
133.2695360097743
 20
54.332171227920597
 30
0.0
 40
2.94877578836156
 50
341.74124262916541
 51
17.442347508163511
  0
ARC
  5
3BCB
  8
0
 10
135.08016319873011
 20
54.898461767452282
 30
0.0
 40
1.051662560600847
 50
17.577258430137199
 51
79.798114830233843
  0
LINE
  5
3BCC
  8
0
 10
134.5997148379374
 20
56.082418712416612
 30
0.0
 11
135.2664306454522
 21
55.93349731257188
 31
0.0
  0
ARC
  5
3BCD
  8
0
 10
134.32786922429031
 20
55.066498388911683
 30
0.0
 40
1.051662560600845
 50
75.019440454981506
 51
137.2402968549458
  0
ARC
  5
3BCE
  8
0
 10
135.7254520433201
 20
53.783603983085001
 30
0.0
 40
2.9487757883615728
 50
137.37520777709651
 51
173.0763126561971
  0
ARC
  5
3BCF
  8
0
 10
127.0529435761698
 20
57.748653011493467
 30
0.0
 40
6.7850441771411161
 50
296.24832889474828
 51
327.85992475195792
  0
ARC
  5
3BD0
  8
0
 10
135.45929970272519
 20
53.355555920798842
 30
0.0
 40
6.7850441771411187
 50
156.9576305334036
 51
188.56922639061341
  0
ARC
  5
3BD1
  8
0
 10
127.2523963286296
 20
58.211557765808386
 30
0.0
 40
2.948775788361528
 50
311.74124262916501
 51
347.4423475081594
  0
ARC
  5
3BD2
  8
0
 10
129.1035907408139
 20
57.796666164487768
 30
0.0
 40
1.051662560600841
 50
347.57725843012452
 51
49.798114830234411
  0
LINE
  5
3BD3
  8
0
 10
129.27948872764301
 20
59.062227136210247
 30
0.0
 11
129.78242085413319
 21
58.599899517020148
 31
0.0
  0
ARC
  5
3BD4
  8
0
 10
128.53610335856479
 20
58.31833713465759
 30
0.0
 40
1.0516625606008509
 50
45.019440454977371
 51
107.2402968549323
  0
ARC
  5
3BD5
  8
0
 10
129.10499838082399
 20
56.508526579323842
 30
0.0
 40
2.9487757883615711
 50
107.37520777709329
 51
143.07631265619619
  0
ARC
  5
3BD6
  8
0
 10
123.5769102479404
 20
64.278613998751581
 30
0.0
 40
6.7850441771411099
 50
266.2483288947513
 51
297.85992475195809
  0
ARC
  5
3BD7
  8
0
 10
128.6604796614489
 20
56.270902253640841
 30
0.0
 40
6.7850441771410397
 50
126.9576305334035
 51
158.5692263906127
  0
ARC
  5
3BD8
  8
0
 10
123.98109377558281
 20
64.579774899290996
 30
0.0
 40
2.9487757883615742
 50
281.74124262916598
 51
317.44234750815599
  0
ARC
  5
3BD9
  8
0
 10
125.37682936321789
 20
63.294871026638369
 30
0.0
 40
1.051662560600849
 50
317.57725843011491
 51
19.798114830234969
  0
LINE
  5
3BDA
  8
0
 10
126.1619419741476
 20
64.302929984773613
 30
0.0
 11
126.36633016247239
 21
63.651076458438702
 31
0.0
  0
ARC
  5
3BDB
  8
0
 10
125.14620635894789
 20
64.030395030346824
 30
0.0
 40
1.05166256060087
 50
15.019440454978881
 51
77.240296854930179
  0
ARC
  5
3BDC
  8
0
 10
124.733978622644
 20
62.17860560226103
 30
0.0
 40
2.9487757883615329
 50
77.375207777089912
 51
113.076312656196
  0
ARC
  5
3BDD
  8
0
 10
123.83155757492131
 20
71.671742763553041
 30
0.0
 40
6.7850441771410308
 50
236.2483288947507
 51
267.85992475196139
  0
ARC
  5
3BDE
  8
0
 10
124.230201956366
 20
62.195076259349911
 30
0.0
 40
6.785044177141037
 50
96.957630533402266
 51
128.5692263906133
  0
ARC
  5
3BDF
  8
0
 10
124.3321712279206
 20
71.73046399022563
 30
0.0
 40
2.94877578836156
 50
251.7412426291653
 51
287.44234750815218
  0
ARC
  5
3BE0
  8
0
 10
124.8984617674523
 20
69.919836801269938
 30
0.0
 40
1.051662560600837
 50
287.57725843010712
 51
349.798114830234
  0
LINE
  5
3BE1
  8
0
 10
126.0824187124166
 20
70.400285162062602
 30
0.0
 11
125.9334973125719
 21
69.733569354547697
 31
0.0
  0
ARC
  5
3BE2
  8
0
 10
125.0664983889116
 20
70.672130775709661
 30
0.0
 40
1.0516625606008521
 50
345.01944045497839
 51
47.2402968549709
  0
ARC
  5
3BE3
  8
0
 10
123.783603983085
 20
69.274547956679825
 30
0.0
 40
2.9487757883615502
 50
47.375207777104187
 51
83.076312656197729
  0
ARC
  5
3BE4
  8
0
 10
127.7486530114934
 20
77.947056423830162
 30
0.0
 40
6.7850441771410077
 50
206.2483288947499
 51
237.8599247519594
  0
ARC
  5
3BE5
  8
0
 10
123.35555592079891
 20
69.540700297274853
 30
0.0
 40
6.7850441771410273
 50
66.957630533402281
 51
98.569226390615086
  0
ARC
  5
3BE6
  8
0
 10
128.21155776580841
 20
77.747603671370356
 30
0.0
 40
2.9487757883615369
 50
221.7412426291657
 51
257.44234750815127
  0
ARC
  5
3BE7
  8
0
 10
127.7966661644878
 20
75.896409259186115
 30
0.0
 40
1.0516625606008581
 50
257.57725843010252
 51
319.79811483023479
  0
LINE
  5
3BE8
  8
0
 10
129.0622271362102
 20
75.720511272356944
 30
0.0
 11
128.59989951702011
 21
75.217579145866779
 31
0.0
  0
ARC
  5
3BE9
  8
0
 10
128.31833713465761
 20
76.463896641435156
 30
0.0
 40
1.051662560600831
 50
315.01944045497657
 51
17.240296854932861
  0
ARC
  5
3BEA
  8
0
 10
126.5085265793238
 20
75.895001619176028
 30
0.0
 40
2.9487757883615222
 50
17.375207777091038
 51
53.076312656196372
  0
ARC
  5
3BEB
  8
0
 10
134.27861399875161
 20
81.423089752059653
 30
0.0
 40
6.7850441771411241
 50
176.24832889474911
 51
207.859924751959
  0
ARC
  5
3BEC
  8
0
 10
126.2709022536408
 20
76.339520338550983
 30
0.0
 40
6.7850441771411347
 50
36.957630533404128
 51
68.5692263906123
  0
ARC
  5
3BED
  8
0
 10
134.57977489929101
 20
81.018906224417194
 30
0.0
 40
2.948775788361564
 50
191.74124262916479
 51
227.44234750815991
  0
ARC
  5
3BEE
  8
0
 10
133.29487102663839
 20
79.623170636782163
 30
0.0
 40
1.0516625606008541
 50
227.5772584301227
 51
289.79811483023502
  0
LINE
  5
3BEF
  8
0
 10
134.30292998477361
 20
78.838058025852362
 30
0.0
 11
133.65107645843869
 21
78.633669837527577
 31
0.0
  0
ARC
  5
3BF0
  8
0
 10
134.03039503034691
 20
79.853793641052079
 30
0.0
 40
1.0516625606008601
 50
285.0194404549801
 51
347.240296854907
  0
ARC
  5
3BF1
  8
0
 10
132.178605602261
 20
80.266021377355983
 30
0.0
 40
2.9487757883615782
 50
347.3752077770834
 51
23.07631265619764
  0
ARC
  5
3BF2
  8
0
 10
141.671742763553
 20
81.168442425078638
 30
0.0
 40
6.785044177141045
 50
146.248328894748
 51
177.85992475195789
  0
ARC
  5
3BF3
  8
0
 10
137.5
 20
67.5
 30
0.0
 40
17.500000000000011
 50
90.0
 51
94.817555285359219
  0
ARC
  5
3BF4
  8
0
 10
132.19507625934989
 20
80.769798043633998
 30
0.0
 40
6.7850441771410992
 50
6.9576305334032389
 51
38.569226390612087
  0
ARC
  5
3BF5
  8
0
 10
141.73046399022559
 20
80.667828772079389
 30
0.0
 40
2.9487757883615449
 50
161.7412426291643
 51
197.44234750815261
  0
ARC
  5
3BF6
  8
0
 10
139.91983680127001
 20
80.101538232547725
 30
0.0
 40
1.0516625606008609
 50
197.57725843010451
 51
259.79811483023059
  0
LINE
  5
3BF7
  8
0
 10
140.40028516206269
 20
78.917581287583403
 30
0.0
 11
139.73356935454771
 21
79.066502687428112
 31
0.0
  0
ARC
  5
3BF8
  8
0
 10
140.67213077570969
 20
79.933501611088317
 30
0.0
 40
1.051662560600841
 50
255.01944045497831
 51
317.24029685485692
  0
ARC
  5
3BF9
  8
0
 10
139.27454795667981
 20
81.216396016914999
 30
0.0
 40
2.9487757883615759
 50
317.3752077770651
 51
353.0763126561975
  0
ARC
  5
3BFA
  8
0
 10
147.94705642383019
 20
77.251346988506555
 30
0.0
 40
6.7850441771410912
 50
116.2483288947483
 51
147.85992475195769
  0
ARC
  5
3BFB
  8
0
 10
137.5
 20
67.5
 30
0.0
 40
17.500000000000021
 50
59.999999999999972
 51
64.817555285362332
  0
ARC
  5
3BFC
  8
0
 10
139.5407002972749
 20
81.644444079201165
 30
0.0
 40
6.7850441771410326
 50
336.95763053340397
 51
8.5692263906126556
  0
ARC
  5
3BFD
  8
0
 10
147.74760367137031
 20
76.788442234191592
 30
0.0
 40
2.9487757883615391
 50
131.74124262916479
 51
167.44234750815519
  0
ARC
  5
3BFE
  8
0
 10
145.8964092591861
 20
77.203333835512211
 30
0.0
 40
1.0516625606008261
 50
167.5772584301142
 51
229.7981148302394
  0
LINE
  5
3BFF
  8
0
 10
145.72051127235699
 20
75.937772863789746
 30
0.0
 11
145.21757914586689
 21
76.400100482979795
 31
0.0
  0
ARC
  5
3C00
  8
0
 10
146.46389664143521
 20
76.681662865342389
 30
0.0
 40
1.051662560600841
 50
225.0194404549774
 51
287.24029685485738
  0
ARC
  5
3C01
  8
0
 10
145.89500161917601
 20
78.491473420676158
 30
0.0
 40
2.94877578836156
 50
287.37520777706618
 51
323.07631265619631
  0
ARC
  5
3C02
  8
0
 10
151.4230897520597
 20
70.721386001248433
 30
0.0
 40
6.7850441771410956
 50
86.248328894751367
 51
117.8599247519581
  0
ARC
  5
3C03
  8
0
 10
137.5
 20
67.5
 30
0.0
 40
17.5
 50
30.000000000000369
 51
34.81755528536106
  0
ARC
  5
3C04
  8
0
 10
146.3395203385511
 20
78.729097746359159
 30
0.0
 40
6.785044177141045
 50
306.95763053340397
 51
338.56922639061298
  0
ARC
  5
3C05
  8
0
 10
151.01890622441721
 20
70.42022510070899
 30
0.0
 40
2.9487757883615622
 50
101.7412426291627
 51
137.4423475081787
  0
ARC
  5
3C06
  8
0
 10
149.62317063678211
 20
71.70512897336161
 30
0.0
 40
1.051662560600819
 50
137.5772584301765
 51
199.79811483023701
  0
LINE
  5
3C07
  8
0
 10
148.8380580258524
 20
70.697070015226387
 30
0.0
 11
148.63366983752749
 21
71.348923541561277
 31
0.0
  0
ARC
  5
3C08
  8
0
 10
149.85379364105211
 20
70.969604969653147
 30
0.0
 40
1.0516625606008381
 50
195.0194404549803
 51
257.24029685485669
  0
ARC
  5
3C09
  8
0
 10
151.16844242507861
 20
63.328257236446923
 30
0.0
 40
6.785044177141061
 50
56.248328894747843
 51
87.859924751958175
  0
ARC
  5
3C0A
  8
0
 10
137.5
 20
67.5
 30
0.0
 40
17.500000000000028
 50
0.0
 51
4.8175552853611148
  0
ARC
  5
3C0B
  8
0
 10
150.76979804363401
 20
72.804923740650125
 30
0.0
 40
6.7850441771411063
 50
276.95763053340232
 51
308.56922639061389
  0
ARC
  5
3C0C
  8
0
 10
137.5
 20
67.5
 30
0.0
 40
17.5
 50
180.0
 51
184.81755528536189
  0
ARC
  5
3C0D
  8
0
 10
150.266021377356
 20
72.821394397738985
 30
0.0
 40
2.9487757883615728
 50
257.37520777706328
 51
293.07631265619898
  0
ARC
  5
3C0E
  8
0
 10
137.5
 20
67.5
 30
0.0
 40
17.5
 50
270.0
 51
274.8175552853624
  0
ARC
  5
3C0F
  8
0
 10
137.5
 20
67.5
 30
0.0
 40
17.500000000000011
 50
210.00000000000151
 51
214.81755528536141
  0
ARC
  5
3C10
  8
0
 10
137.5
 20
67.5
 30
0.0
 40
17.500000000000028
 50
240.00000000000011
 51
244.8175552853626
  0
ARC
  5
3C11
  8
0
 10
137.5
 20
67.5
 30
0.0
 40
17.500000000000021
 50
120.0
 51
124.81755528536161
  0
ARC
  5
3C12
  8
0
 10
137.5
 20
67.5
 30
0.0
 40
17.500000000000028
 50
300.0
 51
304.81755528536178
  0
ARC
  5
3C13
  8
0
 10
137.5
 20
67.5
 30
0.0
 40
17.5
 50
149.9999999999996
 51
154.81755528536081
  0
LINE
  5
3C17
  8
0
 10
75.0
 20
56.5
 30
0.0
 11
90.0
 21
56.5
 31
0.0
  0
LINE
  5
3C18
  8
0
 10
90.0
 20
78.5
 30
0.0
 11
75.0
 21
78.5
 31
0.0
  0
LINE
  5
3C19
  8
3
 10
75.0
 20
66.030294658855126
 30
0.0
 11
50.0
 21
66.030294658855126
 31
0.0
  0
LINE
  5
3C1B
  8
3
 10
75.0
 20
67.5
 30
0.0
 11
50.0
 21
67.5
 31
0.0
  0
LINE
  5
3C23
  8
3
 10
75.0
 20
74.946285609155424
 30
0.0
 11
50.0
 21
74.946285609155424
 31
0.0
  0
LINE
  5
3C27
  8
3
 10
75.0
 20
76.249999999999986
 30
0.0
 11
50.0
 21
76.249999999999986
 31
0.0
  0
LINE
  5
3C2A
  8
3
 10
75.0
 20
58.75
 30
0.0
 11
50.0
 21
58.75
 31
0.0
  0
LINE
  5
3C2B
  8
3
 10
75.0
 20
57.50811006782628
 30
0.0
 11
50.0
 21
57.50811006782628
 31
0.0
  0
LINE
  5
3C49
  8
0
 10
90.0
 20
56.5
 30
0.0
 11
90.0
 21
78.5
 31
0.0
  0
LINE
  5
3C4A
  8
3
 10
75.0
 20
81.867050343871043
 30
0.0
 11
50.0
 21
81.867050343871043
 31
0.0
  0
LINE
  5
3C4E
  8
3
 10
75.0
 20
82.6554445662277
 30
0.0
 11
50.0
 21
82.6554445662277
 31
0.0
  0
LINE
  5
3C54
  8
3
 10
75.0
 20
52.344555433772292
 30
0.0
 11
50.0
 21
52.344555433772292
 31
0.0
  0
LINE
  5
3C57
  8
3
 10
75.0
 20
51.663244314984041
 30
0.0
 11
50.0
 21
51.663244314984041
 31
0.0
  0
LINE
  5
3C5E
  8
3
 10
75.0
 20
84.938175541329144
 30
0.0
 11
50.0
 21
84.938175541329144
 31
0.0
  0
LINE
  5
3C61
  8
0
 10
75.0
 20
85.000000000000014
 30
0.0
 11
50.0
 21
85.000000000000014
 31
0.0
  0
LINE
  5
3C64
  8
0
 10
75.0
 20
50.0
 30
0.0
 11
50.0
 21
50.0
 31
0.0
  0
LINE
  5
3C65
  8
0
 10
75.000000000000057
 20
85.000000000000014
 30
0.0
 11
75.0
 21
50.0
 31
0.0
  0
LINE
  5
3C66
  8
0
 10
49.999999999999943
 20
85.000000000000014
 30
0.0
 11
50.0
 21
50.0
 31
0.0
  0
LINE
  5
3C6E
  8
2
 10
90.0
 20
72.269696007084704
 30
0.0
 11
50.0
 21
72.269696007084704
 31
0.0
  0
LINE
  5
3C75
  8
2
 10
90.0
 20
73.900000000000006
 30
0.0
 11
50.0
 21
73.900000000000006
 31
0.0
  0
LINE
  5
3C99
  8
2
 10
50.0
 20
62.5
 30
0.0
 11
90.0
 21
62.5
 31
0.0
  0
LINE
  5
3CBA
  8
1
 10
159.0
 20
67.5
 30
0.0
 11
116.0
 21
67.5
 31
0.0
  0
LINE
  5
3CBB
  8
1
 10
137.5
 20
89.0
 30
0.0
 11
137.5
 21
46.0
 31
0.0
  0
CIRCLE
  5
3CCA
  8
5
 10
137.5
 20
67.5
 30
0.0
 40
15.0
  0
LINE
  5
3CF9
  8
1
 10
94.0
 20
67.5
 30
0.0
 11
46.0
 21
67.5
 31
0.0
  0
ENDSEC
  0
EOF
