  0
SECTION
  2
HEADER
  9
$ACADVER
  1
AC1009
  9
$INSBASE
 10
0.0
 20
0.0
 30
0.0
  9
$EXTMIN
 10
0.0
 20
-2.960436562073669
 30
0.0
  9
$EXTMAX
 10
179.0
 20
109.0
 30
0.0
  9
$LIMMIN
 10
0.0
 20
0.0
  9
$LIMMAX
 10
275.0
 20
175.0
  9
$ORTHOMODE
 70
     1
  9
$REGENMODE
 70
     1
  9
$FILLMODE
 70
     1
  9
$QTEXTMODE
 70
     0
  9
$MIRRTEXT
 70
     0
  9
$DRAGMODE
 70
     2
  9
$LTSCALE
 40
5.0
  9
$OSMODE
 70
    37
  9
$ATTMODE
 70
     1
  9
$TEXTSIZE
 40
0.2
  9
$TRACEWID
 40
0.05
  9
$TEXTSTYLE
  7
STANDARD
  9
$CLAYER
  8
0
  9
$CELTYPE
  6
BYLAYER
  9
$CECOLOR
 62
   256
  9
$DIMSCALE
 40
1.0
  9
$DIMASZ
 40
3.0
  9
$DIMEXO
 40
1.0
  9
$DIMDLI
 40
6.0
  9
$DIMRND
 40
0.0
  9
$DIMDLE
 40
0.0
  9
$DIMEXE
 40
1.0
  9
$DIMTP
 40
495.0
  9
$DIMTM
 40
0.0
  9
$DIMTXT
 40
3.0
  9
$DIMCEN
 40
0.0
  9
$DIMTSZ
 40
0.0
  9
$DIMTOL
 70
     0
  9
$DIMLIM
 70
     0
  9
$DIMTIH
 70
     0
  9
$DIMTOH
 70
     0
  9
$DIMSE1
 70
     0
  9
$DIMSE2
 70
     0
  9
$DIMTAD
 70
     1
  9
$DIMZIN
 70
     8
  9
$DIMBLK
  1

  9
$DIMASO
 70
     0
  9
$DIMSHO
 70
     0
  9
$DIMPOST
  1

  9
$DIMAPOST
  1

  9
$DIMALT
 70
     0
  9
$DIMALTD
 70
     2
  9
$DIMALTF
 40
25.399999999999999
  9
$DIMLFAC
 40
1.0
  9
$DIMTOFL
 70
     1
  9
$DIMTVP
 40
0.0
  9
$DIMTIX
 70
     1
  9
$DIMSOXD
 70
     0
  9
$DIMSAH
 70
     0
  9
$DIMBLK1
  1

  9
$DIMBLK2
  1

  9
$DIMSTYLE
  2
STANDARD
  9
$DIMCLRD
 70
     0
  9
$DIMCLRE
 70
     0
  9
$DIMCLRT
 70
     0
  9
$DIMTFAC
 40
1.0
  9
$DIMGAP
 40
1.0
  9
$LUNITS
 70
     2
  9
$LUPREC
 70
     1
  9
$SKETCHINC
 40
0.1
  9
$FILLETRAD
 40
0.0
  9
$AUNITS
 70
     0
  9
$AUPREC
 70
     0
  9
$MENU
  1
E:\r13\win\SUPPORT\ACAD
  9
$ELEVATION
 40
0.0
  9
$PELEVATION
 40
0.0
  9
$THICKNESS
 40
0.0
  9
$LIMCHECK
 70
     0
  9
$BLIPMODE
 70
     0
  9
$CHAMFERA
 40
0.0
  9
$CHAMFERB
 40
0.0
  9
$SKPOLY
 70
     0
  9
$TDCREATE
 40
2450653.5278402781
  9
$TDUPDATE
 40
2459439.6128464122
  9
$TDINDWG
 40
0.4607212037
  9
$TDUSRTIMER
 40
0.4607212037
  9
$USRTIMER
 70
     1
  9
$ANGBASE
 50
0.0
  9
$ANGDIR
 70
     0
  9
$PDMODE
 70
     0
  9
$PDSIZE
 40
0.0
  9
$PLINEWID
 40
0.0
  9
$COORDS
 70
     1
  9
$SPLFRAME
 70
     0
  9
$SPLINETYPE
 70
     6
  9
$SPLINESEGS
 70
     8
  9
$ATTDIA
 70
     0
  9
$ATTREQ
 70
     1
  9
$HANDLING
 70
     1
  9
$HANDSEED
  5
55F9
  9
$SURFTAB1
 70
     6
  9
$SURFTAB2
 70
     6
  9
$SURFTYPE
 70
     6
  9
$SURFU
 70
     6
  9
$SURFV
 70
     6
  9
$UCSNAME
  2

  9
$UCSORG
 10
0.0
 20
0.0
 30
0.0
  9
$UCSXDIR
 10
1.0
 20
0.0
 30
0.0
  9
$UCSYDIR
 10
0.0
 20
1.0
 30
0.0
  9
$PUCSNAME
  2

  9
$PUCSORG
 10
0.0
 20
0.0
 30
0.0
  9
$PUCSXDIR
 10
1.0
 20
0.0
 30
0.0
  9
$PUCSYDIR
 10
0.0
 20
1.0
 30
0.0
  9
$USERI1
 70
     4
  9
$USERI2
 70
     1
  9
$USERI3
 70
     1
  9
$USERI4
 70
     0
  9
$USERI5
 70
     0
  9
$USERR1
 40
1.0
  9
$USERR2
 40
3.0
  9
$USERR3
 40
3.0
  9
$USERR4
 40
3.0
  9
$USERR5
 40
10.0
  9
$WORLDVIEW
 70
     1
  9
$SHADEDGE
 70
     3
  9
$SHADEDIF
 70
    70
  9
$TILEMODE
 70
     1
  9
$MAXACTVP
 70
    16
  9
$PLIMCHECK
 70
     0
  9
$PEXTMIN
 10
1.0000000000000000E+020
 20
1.0000000000000000E+020
 30
1.0000000000000000E+020
  9
$PEXTMAX
 10
-1.0000000000000000E+020
 20
-1.0000000000000000E+020
 30
-1.0000000000000000E+020
  9
$PLIMMIN
 10
0.0
 20
0.0
  9
$PLIMMAX
 10
12.0
 20
9.0
  9
$UNITMODE
 70
     0
  9
$VISRETAIN
 70
     0
  9
$PLINEGEN
 70
     0
  9
$PSLTSCALE
 70
     0
  0
ENDSEC
  0
SECTION
  2
TABLES
  0
TABLE
  2
VPORT
 70
     1
  0
VPORT
  2
*ACTIVE
 70
     0
 10
0.0
 20
0.0
 11
1.0
 21
1.0
 12
260.1957585644372
 22
100.0
 13
0.0
 23
0.0
 14
5.0
 24
5.0
 15
10.0
 25
10.0
 16
0.0
 26
0.0
 36
1.0
 17
0.0
 27
0.0
 37
0.0
 40
200.0
 41
2.6019575856443722
 42
50.0
 43
0.0
 44
0.0
 50
0.0
 51
0.0
 71
     0
 72
   100
 73
     1
 74
     0
 75
     0
 76
     0
 77
     0
 78
     0
  0
ENDTAB
  0
TABLE
  2
LTYPE
 70
     5
  0
LTYPE
  2
CONTINUOUS
 70
     0
  3
Solid Line
 72
    65
 73
     0
 40
0.0
  0
LTYPE
  2
CENTER
 70
     0
  3
____ _ ____ _ ____ _ ____ _ ____ _ ____ _ ____ 
 72
    65
 73
     4
 40
2.0
 49
1.25
 49
-0.25
 49
0.25
 49
-0.25
  0
LTYPE
  2
HIDDEN
 70
     0
  3
__ __ __ __ __ __ __ __ __ __ __ __ __ __ __ __
 72
    65
 73
     2
 40
0.375
 49
0.25
 49
-0.125
  0
LTYPE
  2
PHANTOM
 70
     0
  3
_____ _ _ _____ _ _ _____ _ _ _____ _ _ ____
 72
    65
 73
     6
 40
2.5
 49
1.25
 49
-0.25
 49
0.25
 49
-0.25
 49
0.25
 49
-0.25
  0
LTYPE
  2
PHANTOM2
 70
     0
  3
___ _ _ ___ _ _ ___ _ _ ___ _ _
 72
    65
 73
     6
 40
1.25
 49
0.625
 49
-0.125
 49
0.125
 49
-0.125
 49
0.125
 49
-0.125
  0
ENDTAB
  0
TABLE
  2
LAYER
 70
     6
  0
LAYER
  2
0
 70
     0
 62
     7
  6
CONTINUOUS
  0
LAYER
  2
1
 70
     0
 62
     1
  6
CENTER
  0
LAYER
  2
2
 70
     0
 62
     2
  6
HIDDEN
  0
LAYER
  2
5
 70
     0
 62
     3
  6
PHANTOM
  0
LAYER
  2
DEFPOINTS
 70
     0
 62
     7
  6
CONTINUOUS
  0
LAYER
  2
3
 70
     0
 62
     3
  6
CONTINUOUS
  0
ENDTAB
  0
TABLE
  2
STYLE
 70
     2
  0
STYLE
  2
STANDARD
 70
     0
 40
0.0
 41
1.0
 50
0.0
 71
     0
 42
0.2
  3
simplex
  4
bigfont
  0
STYLE
  2
STANDARD1
 70
     0
 40
0.0
 41
1.0
 50
0.0
 71
     0
 42
3.0
  3
txt
  4

  0
ENDTAB
  0
TABLE
  2
VIEW
 70
     0
  0
ENDTAB
  0
TABLE
  2
UCS
 70
     0
  0
ENDTAB
  0
TABLE
  2
APPID
 70
     9
  0
APPID
  2
ACAD
 70
     0
  0
APPID
  2
_CALL_MAC$
 70
     0
  0
APPID
  2
ACAD_MLEADERVER
 70
     0
  0
APPID
  2
ACAD_EXEMPT_FROM_CAD_STANDARDS
 70
     0
  0
APPID
  2
ACAD_NAV_VCDISPLAY
 70
     0
  0
APPID
  2
ACAD_DSTYLE_DIMJAG
 70
     0
  0
APPID
  2
ACAD_DSTYLE_DIMTALN
 70
     0
  0
APPID
  2
ACAECLAYERSTANDARD
 70
     0
  0
APPID
  2
ACCMTRANSPARENCY
 70
     0
  0
ENDTAB
  0
TABLE
  2
DIMSTYLE
 70
     1
  0
DIMSTYLE
  2
STANDARD
 70
     0
  3

  4

  5

  6

  7

 40
1.0
 41
0.18
 42
0.0625
 43
0.38
 44
0.18
 45
0.0
 46
0.0
 47
0.0
 48
0.0
140
0.18
141
0.09
142
0.0
143
25.399999999999999
144
1.0
145
0.0
146
1.0
147
0.09
 71
     0
 72
     0
 73
     1
 74
     1
 75
     0
 76
     0
 77
     0
 78
     0
170
     0
171
     2
172
     0
173
     0
174
     0
175
     0
176
     0
177
     0
178
     0
  0
ENDTAB
  0
ENDSEC
  0
SECTION
  2
BLOCKS
  0
BLOCK
  8
0
  2
$MODEL_SPACE
 70
     2
 10
0.0
 20
0.0
 30
0.0
  3
$MODEL_SPACE
  1

  0
ENDBLK
  5
7
  8
0
  0
BLOCK
 67
     1
  8
0
  2
$PAPER_SPACE
 70
     0
 10
0.0
 20
0.0
 30
0.0
  3
$PAPER_SPACE
  1

  0
ENDBLK
  5
A
 67
     1
  8
0
  0
ENDSEC
  0
SECTION
  2
ENTITIES
  0
TEXT
  5
2BF
  8
0
 62
     3
 10
0.0
 20
0.0
 30
0.0
 40
10.0
  1
ZCL-2.5-20-A15-K
  7
STANDARD1
  0
LINE
  5
538B
  8
0
 10
150.0
 20
87.299999999999997
 30
0.0
 11
145.0
 21
87.299999999999997
 31
0.0
  0
LINE
  5
538C
  8
0
 10
150.0
 20
84.571067811865476
 30
0.0
 11
150.0
 21
87.299999999999997
 31
0.0
  0
ARC
  5
538D
  8
0
 10
147.5
 20
77.5
 30
0.0
 40
7.5
 50
109.4712206344895
 51
70.528779365510459
  0
LINE
  5
538E
  8
0
 10
145.0
 20
87.299999999999997
 30
0.0
 11
145.0
 21
84.571067811865476
 31
0.0
  0
CIRCLE
  5
538F
  8
0
 10
147.5
 20
77.5
 30
0.0
 40
17.500000000000011
  0
ARC
  5
5390
  8
0
 10
170.65697375815461
 20
73.72853313730073
 30
0.0
 40
2.337209090736001
 50
82.857353736173266
 51
113.564003855116
  0
ARC
  5
5391
  8
0
 10
170.05230056578611
 20
75.024915790244123
 30
0.0
 40
0.9079080728602669
 50
111.29199073270711
 51
173.22949437227149
  0
LINE
  5
5392
  8
0
 10
169.10513607743391
 20
74.74396478474992
 30
0.0
 11
169.15072394620171
 21
75.131951615011715
 31
0.0
  0
LINE
  5
5393
  8
0
 10
169.0518627884093
 20
74.356958336601906
 30
0.0
 11
169.10513607743391
 21
74.74396478474992
 31
0.0
  0
ARC
  5
5394
  8
0
 10
169.95143789580891
 20
74.234232239492229
 30
0.0
 40
0.9079080728602748
 50
172.23128458007471
 51
234.16878821956419
  0
ARC
  5
5395
  8
0
 10
170.8621944180158
 20
75.337300782094815
 30
0.0
 40
2.3372090907360761
 50
231.89677509720499
 51
262.60342521617889
  0
ARC
  5
5396
  8
0
 10
167.33741512808211
 20
64.462107401490371
 30
0.0
 40
9.1445696707433424
 50
42.12919093051876
 51
69.356786116317181
  0
ARC
  5
5397
  8
0
 10
171.23618622227809
 20
77.821163502708771
 30
0.0
 40
9.1445696707434685
 50
258.10399283602891
 51
285.33158802182658
  0
ARC
  5
5398
  8
0
 10
168.35814343607271
 20
66.757223434674202
 30
0.0
 40
2.3372090907359881
 50
64.857353736171461
 51
95.564003855112603
  0
ARC
  5
5399
  8
0
 10
168.1836700729786
 20
68.177010939749024
 30
0.0
 40
0.9079080728602802
 50
93.292037873808013
 51
155.2985813185222
  0
LINE
  5
539A
  8
0
 10
167.19604373327891
 20
68.202500535687264
 30
0.0
 11
167.3588375584167
 21
68.556416252951621
 31
0.0
  0
LINE
  5
539B
  8
0
 10
167.02626322164249
 20
67.851882877411853
 30
0.0
 11
167.19604373327891
 21
68.202500535687264
 31
0.0
  0
ARC
  5
539C
  8
0
 10
167.84340901417841
 20
67.456193829666262
 30
0.0
 40
0.9079080728602766
 50
154.16219763381571
 51
216.16874107846729
  0
ARC
  5
539D
  8
0
 10
169.05045642415399
 20
68.223835714966341
 30
0.0
 40
2.3372090907359442
 50
213.8967750972042
 51
244.60342521617869
  0
ARC
  5
539E
  8
0
 10
162.33757254023971
 20
58.970128886383002
 30
0.0
 40
9.1445696707433832
 50
24.129190930517211
 51
51.356786116316542
  0
ARC
  5
539F
  8
0
 10
170.1736995590027
 20
70.470559717714721
 30
0.0
 40
9.1445696707432322
 50
240.10399283603019
 51
267.33158802182737
  0
ARC
  5
53A0
  8
0
 10
164.01757270723729
 20
60.837491551587242
 30
0.0
 40
2.3372090907360912
 50
46.857353736172989
 51
77.564003855115814
  0
ARC
  5
53A1
  8
0
 10
164.29037714581619
 20
62.241704944304999
 30
0.0
 40
0.9079080728602811
 50
75.292037873818927
 51
137.29858131852001
  0
LINE
  5
53A2
  8
0
 10
163.35896539810491
 20
62.571140313679393
 30
0.0
 11
163.62315749752571
 21
62.857428104255987
 31
0.0
  0
LINE
  5
53A3
  8
0
 10
163.08914772123791
 20
62.290148168457648
 30
0.0
 11
163.35896539810491
 21
62.571140313679393
 31
0.0
  0
ARC
  5
53A4
  8
0
 10
163.74402491175081
 20
61.661313584396993
 30
0.0
 40
0.9079080728602916
 50
136.16219763381301
 51
198.16874107845641
  0
ARC
  5
53A5
  8
0
 10
165.1292096046372
 20
62.018386238894088
 30
0.0
 40
2.3372090907360299
 50
195.89677509720161
 51
226.60342521617881
  0
ARC
  5
53A6
  8
0
 10
155.885324972712
 20
55.291983261080098
 30
0.0
 40
9.1445696707433974
 50
6.1291909305178951
 51
33.356786116315
  0
ARC
  5
53A7
  8
0
 10
166.8917532059383
 20
63.808046524541467
 30
0.0
 40
9.1445696707433655
 50
222.10399283602951
 51
249.33158802182589
  0
ARC
  5
53A8
  8
0
 10
158.0601468771213
 20
56.548802089953902
 30
0.0
 40
2.3372090907360592
 50
28.857353736172101
 51
59.564003855120752
  0
ARC
  5
53A9
  8
0
 10
158.7535251181846
 20
57.799987179705241
 30
0.0
 40
0.9079080728603024
 50
57.292037873827461
 51
119.2985813185247
  0
LINE
  5
53AA
  8
0
 10
157.96950103385481
 20
58.401120893250102
 30
0.0
 11
158.30923044413299
 21
58.591756913513102
 31
0.0
  0
LINE
  5
53AB
  8
0
 10
157.62605782589961
 20
58.217259730043899
 30
0.0
 11
157.96950103385481
 21
58.401120893250102
 31
0.0
  0
ARC
  5
53AC
  8
0
 10
158.0545624721845
 20
57.416834320104243
 30
0.0
 40
0.90790807286028
 50
118.16219763381091
 51
180.168741078458
  0
ARC
  5
53AD
  8
0
 10
159.48229291909249
 20
57.328384984504588
 30
0.0
 40
2.337209090736033
 50
177.8967750972011
 51
208.6034252161796
  0
ARC
  5
53AE
  8
0
 10
148.6122633728607
 20
53.787713046533753
 30
0.0
 40
9.1445696707433832
 50
348.12919093051852
 51
15.356786116315901
  0
ARC
  5
53AF
  8
0
 10
161.7116069387871
 20
58.485797134995288
 30
0.0
 40
9.1445696707433388
 50
204.10399283602891
 51
231.33158802182629
  0
ARC
  5
53B0
  8
0
 10
151.06902029380311
 20
54.310961855335186
 30
0.0
 40
2.3372090907360752
 50
10.857353736172779
 51
41.564003855115899
  0
ARC
  5
53B1
  8
0
 10
152.1150991710121
 20
55.2866445061387
 30
0.0
 40
0.9079080728602786
 50
39.291990732707823
 51
101.2294943722713
  0
LINE
  5
53B2
  8
0
 10
151.5552089631081
 20
56.100632829505003
 30
0.0
 11
151.9382937924517
 21
56.177170713993902
 31
0.0
  0
LINE
  5
53B3
  8
0
 10
151.1706816070936
 20
56.031707168765848
 30
0.0
 11
151.5552089631081
 21
56.100632829505003
 31
0.0
  0
ARC
  5
53B4
  8
0
 10
151.33194614862111
 20
55.138235951316346
 30
0.0
 40
0.9079080728602605
 50
100.23128458007299
 51
162.1687882195649
  0
ARC
  5
53B5
  8
0
 10
152.66246591708321
 20
54.612921951737754
 30
0.0
 40
2.3372090907360761
 50
159.8967750972009
 51
190.6034252161781
  0
ARC
  5
53B6
  8
0
 10
141.2303256844792
 20
54.604566692210639
 30
0.0
 40
9.1445696707433264
 50
330.12919093051732
 51
357.35678611631653
  0
ARC
  5
53B7
  8
0
 10
155.14032956637971
 20
55.024790401617203
 30
0.0
 40
9.1445696707433903
 50
186.10399283602899
 51
213.33158802182609
  0
ARC
  5
53B8
  8
0
 10
143.7285331373007
 20
54.3430262418455
 30
0.0
 40
2.3372090907360028
 50
352.85735373617263
 51
23.564003855115509
  0
ARC
  5
53B9
  8
0
 10
145.02491579024431
 20
54.947699434214002
 30
0.0
 40
0.9079080728602663
 50
21.291990732708189
 51
83.229494372271645
  0
LINE
  5
53BA
  8
0
 10
144.7439647847502
 20
55.894863922566138
 30
0.0
 11
145.13195161501179
 21
55.849276053798363
 31
0.0
  0
LINE
  5
53BB
  8
0
 10
144.35695833660191
 20
55.94813721159079
 30
0.0
 11
144.7439647847502
 21
55.894863922566138
 31
0.0
  0
ARC
  5
53BC
  8
0
 10
144.23423223949229
 20
55.048562104191149
 30
0.0
 40
0.9079080728602912
 50
82.231284580073236
 51
144.16878821956419
  0
ARC
  5
53BD
  8
0
 10
145.3373007820949
 20
54.137805581984253
 30
0.0
 40
2.3372090907360921
 50
141.8967750972011
 51
172.6034252161767
  0
ARC
  5
53BE
  8
0
 10
134.46210740149041
 20
57.66258487191795
 30
0.0
 40
9.1445696707434401
 50
312.12919093051858
 51
339.35678611631562
  0
ARC
  5
53BF
  8
0
 10
147.82116350270871
 20
53.76381377772195
 30
0.0
 40
9.1445696707434259
 50
168.10399283602729
 51
195.33158802182669
  0
ARC
  5
53C0
  8
0
 10
136.75722343467419
 20
56.641856563927348
 30
0.0
 40
2.3372090907360228
 50
334.85735373617467
 51
5.564003855115053
  0
ARC
  5
53C1
  8
0
 10
138.1770109397491
 20
56.8163299270214
 30
0.0
 40
0.9079080728603232
 50
3.292037873814976
 51
65.298581318521173
  0
LINE
  5
53C2
  8
0
 10
138.20250053568731
 20
57.803956266721087
 30
0.0
 11
138.55641625295169
 21
57.64116244158334
 31
0.0
  0
LINE
  5
53C3
  8
0
 10
137.8518828774119
 20
57.973736778357498
 30
0.0
 11
138.20250053568731
 21
57.803956266721087
 31
0.0
  0
ARC
  5
53C4
  8
0
 10
137.45619382966629
 20
57.156590985821651
 30
0.0
 40
0.9079080728602937
 50
64.162197633818309
 51
126.1687410784664
  0
ARC
  5
53C5
  8
0
 10
138.2238357149665
 20
55.94954357584605
 30
0.0
 40
2.3372090907359921
 50
123.89677509720271
 51
154.60342521617949
  0
ARC
  5
53C6
  8
0
 10
128.97012888638301
 20
62.662427459760259
 30
0.0
 40
9.1445696707433193
 50
294.12919093051829
 51
321.35678611631499
  0
ARC
  5
53C7
  8
0
 10
140.47055971771491
 20
54.826300440997251
 30
0.0
 40
9.1445696707433743
 50
150.10399283602709
 51
177.33158802182641
  0
ARC
  5
53C8
  8
0
 10
130.83749155158731
 20
60.982427292762686
 30
0.0
 40
2.3372090907359939
 50
316.85735373617558
 51
347.56400385511841
  0
ARC
  5
53C9
  8
0
 10
132.24170494430501
 20
60.709622854183948
 30
0.0
 40
0.9079080728602706
 50
345.29203787381817
 51
47.298581318519012
  0
LINE
  5
53CA
  8
0
 10
132.57114031367939
 20
61.641034601895292
 30
0.0
 11
132.857428104256
 21
61.376842502474382
 31
0.0
  0
LINE
  5
53CB
  8
0
 10
132.2901481684577
 20
61.910852278762142
 30
0.0
 11
132.57114031367939
 21
61.641034601895292
 31
0.0
  0
ARC
  5
53CC
  8
0
 10
131.66131358439699
 20
61.255975088249201
 30
0.0
 40
0.9079080728602615
 50
46.162197633814422
 51
108.1687410784545
  0
ARC
  5
53CD
  8
0
 10
132.0183862388941
 20
59.870790395362903
 30
0.0
 40
2.3372090907360699
 50
105.8967750972012
 51
136.60342521617861
  0
ARC
  5
53CE
  8
0
 10
125.2919832610802
 20
69.114675027287987
 30
0.0
 40
9.1445696707432322
 50
276.12919093051812
 51
303.35678611631511
  0
ARC
  5
53CF
  8
0
 10
133.80804652454151
 20
58.108246794061778
 30
0.0
 40
9.1445696707434152
 50
132.1039928360268
 51
159.3315880218274
  0
ARC
  5
53D0
  8
0
 10
126.54880208995399
 20
66.93985312287866
 30
0.0
 40
2.3372090907360441
 50
298.85735373617371
 51
329.56400385512001
  0
ARC
  5
53D1
  8
0
 10
127.7999871797053
 20
66.246474881815402
 30
0.0
 40
0.907908072860304
 50
327.29203787382448
 51
29.298581318519609
  0
LINE
  5
53D2
  8
0
 10
128.40112089325021
 20
67.030498966145203
 30
0.0
 11
128.59175691351311
 21
66.690769555867092
 31
0.0
  0
LINE
  5
53D3
  8
0
 10
128.21725973004391
 20
67.373942174100506
 30
0.0
 11
128.40112089325021
 21
67.030498966145203
 31
0.0
  0
ARC
  5
53D4
  8
0
 10
127.4168343201043
 20
66.945437527815542
 30
0.0
 40
0.9079080728602869
 50
28.162197633813069
 51
90.168741078456804
  0
ARC
  5
53D5
  8
0
 10
127.32838498450459
 20
65.51770708090757
 30
0.0
 40
2.3372090907360392
 50
87.896775097199566
 51
118.6034252161791
  0
ARC
  5
53D6
  8
0
 10
123.7877130465338
 20
76.387736627139617
 30
0.0
 40
9.1445696707435822
 50
258.1291909305175
 51
285.3567861163159
  0
ARC
  5
53D7
  8
0
 10
128.48579713499529
 20
63.288393061212901
 30
0.0
 40
9.1445696707433317
 50
114.1039928360282
 51
141.33158802182811
  0
ARC
  5
53D8
  8
0
 10
124.31096185533529
 20
73.930979706197007
 30
0.0
 40
2.3372090907360881
 50
280.8573537361749
 51
311.56400385511893
  0
ARC
  5
53D9
  8
0
 10
125.2866445061388
 20
72.884900828987952
 30
0.0
 40
0.9079080728602759
 50
309.2919907327157
 51
11.22949437227115
  0
LINE
  5
53DA
  8
0
 10
126.100632829505
 20
73.444791036891772
 30
0.0
 11
126.177170713994
 21
73.061706207548369
 31
0.0
  0
LINE
  5
53DB
  8
0
 10
126.031707168766
 20
73.829318392906416
 30
0.0
 11
126.100632829505
 21
73.444791036891772
 31
0.0
  0
ARC
  5
53DC
  8
0
 10
125.1382359513164
 20
73.6680538513789
 30
0.0
 40
0.9079080728602849
 50
10.231284580074069
 51
72.168788219559517
  0
ARC
  5
53DD
  8
0
 10
124.6129219517377
 20
72.33753408291679
 30
0.0
 40
2.3372090907360721
 50
69.896775097201925
 51
100.6034252161775
  0
ARC
  5
53DE
  8
0
 10
124.6045666922107
 20
83.769674315520902
 30
0.0
 40
9.1445696707433513
 50
240.12919093052
 51
267.35678611631619
  0
ARC
  5
53DF
  8
0
 10
125.0247904016172
 20
69.859670433620366
 30
0.0
 40
9.1445696707433282
 50
96.103992836026805
 51
123.3315880218254
  0
ARC
  5
53E0
  8
0
 10
124.34302624184561
 20
81.271466862699285
 30
0.0
 40
2.3372090907360219
 50
262.85735373617331
 51
293.56400385511603
  0
ARC
  5
53E1
  8
0
 10
124.947699434214
 20
79.975084209755877
 30
0.0
 40
0.907908072860264
 50
291.29199073271059
 51
353.22949437227118
  0
LINE
  5
53E2
  8
0
 10
125.8948639225662
 20
80.256035215249554
 30
0.0
 11
125.84927605379841
 21
79.868048384988256
 31
0.0
  0
LINE
  5
53E3
  8
0
 10
125.9481372115908
 20
80.643041663398094
 30
0.0
 11
125.8948639225662
 21
80.256035215249554
 31
0.0
  0
ARC
  5
53E4
  8
0
 10
125.04856210419121
 20
80.765767760507757
 30
0.0
 40
0.9079080728602798
 50
352.23128458007528
 51
54.168788219563908
  0
ARC
  5
53E5
  8
0
 10
124.1378055819843
 20
79.662699217905171
 30
0.0
 40
2.3372090907361041
 50
51.8967750972012
 51
82.603425216178906
  0
ARC
  5
53E6
  8
0
 10
127.662584871918
 20
90.537892598509714
 30
0.0
 40
9.1445696707434205
 50
222.12919093051909
 51
249.35678611631721
  0
ARC
  5
53E7
  8
0
 10
147.5
 20
77.5
 30
0.0
 40
27.500000000000021
 50
161.99999999999901
 51
165.4607789523445
  0
ARC
  5
53E8
  8
0
 10
123.76381377772189
 20
77.178836497291272
 30
0.0
 40
9.1445696707434152
 50
78.103992836028951
 51
105.3315880218266
  0
ARC
  5
53E9
  8
0
 10
126.6418565639274
 20
88.242776565325926
 30
0.0
 40
2.337209090736112
 50
244.85735373617501
 51
275.56400385511591
  0
ARC
  5
53EA
  8
0
 10
126.8163299270215
 20
86.822989060250947
 30
0.0
 40
0.9079080728602598
 50
273.29203787381778
 51
335.29858131852342
  0
LINE
  5
53EB
  8
0
 10
127.8039562667209
 20
86.797499464312409
 30
0.0
 11
127.6411624415834
 21
86.443583747048379
 31
0.0
  0
LINE
  5
53EC
  8
0
 10
127.9737367783576
 20
87.148117122588161
 30
0.0
 11
127.8039562667209
 21
86.797499464312409
 31
0.0
  0
ARC
  5
53ED
  8
0
 10
127.15659098582159
 20
87.543806170333738
 30
0.0
 40
0.9079080728602962
 50
334.16219763381741
 51
36.168741078468322
  0
ARC
  5
53EE
  8
0
 10
125.94954357584611
 20
86.776164285033644
 30
0.0
 40
2.3372090907359611
 50
33.896775097204433
 51
64.603425216178621
  0
ARC
  5
53EF
  8
0
 10
132.66242745976049
 20
96.029871113617062
 30
0.0
 40
9.1445696707434827
 50
204.12919093051789
 51
231.3567861163167
  0
ARC
  5
53F0
  8
0
 10
147.5
 20
77.5
 30
0.0
 40
27.500000000000021
 50
143.99999999999889
 51
147.46077895234399
  0
ARC
  5
53F1
  8
0
 10
124.8263004409974
 20
84.529440282285236
 30
0.0
 40
9.1445696707432749
 50
60.103992836026599
 51
87.331588021827415
  0
ARC
  5
53F2
  8
0
 10
130.98242729276279
 20
94.162508448412751
 30
0.0
 40
2.3372090907360499
 50
226.85735373617729
 51
257.56400385511921
  0
ARC
  5
53F3
  8
0
 10
130.709622854184
 20
92.758295055695001
 30
0.0
 40
0.9079080728602836
 50
255.29203787381559
 51
317.29858131852041
  0
LINE
  5
53F4
  8
0
 10
131.64103460189509
 20
92.428859686320394
 30
0.0
 11
131.3768425024744
 21
92.142571895744041
 31
0.0
  0
LINE
  5
53F5
  8
0
 10
131.91085227876221
 20
92.709851831542395
 30
0.0
 11
131.64103460189509
 21
92.428859686320394
 31
0.0
  0
ARC
  5
53F6
  8
0
 10
131.25597508824919
 20
93.338686415602979
 30
0.0
 40
0.9079080728602521
 50
316.16219763381741
 51
18.168741078461871
  0
ARC
  5
53F7
  8
0
 10
129.87079039536289
 20
92.981613761105905
 30
0.0
 40
2.3372090907360961
 50
15.896775097202941
 51
46.60342521617433
  0
ARC
  5
53F8
  8
0
 10
139.11467502728831
 20
99.708016738919937
 30
0.0
 40
9.1445696707434845
 50
186.129190930519
 51
213.3567861163157
  0
ARC
  5
53F9
  8
0
 10
147.5
 20
77.5
 30
0.0
 40
27.499999999999989
 50
125.9999999999993
 51
129.46077895234461
  0
ARC
  5
53FA
  8
0
 10
128.10824679406181
 20
91.191953475458448
 30
0.0
 40
9.1445696707434738
 50
42.103992836029292
 51
69.331588021825908
  0
ARC
  5
53FB
  8
0
 10
136.93985312287879
 20
98.451197910046133
 30
0.0
 40
2.337209090736073
 50
208.85735373617271
 51
239.5640038551208
  0
ARC
  5
53FC
  8
0
 10
136.2464748818154
 20
97.200012820294759
 30
0.0
 40
0.9079080728602885
 50
237.29203787382369
 51
299.2985813185212
  0
LINE
  5
53FD
  8
0
 10
137.0304989661451
 20
96.598879106749735
 30
0.0
 11
136.69076955586709
 21
96.408243086486905
 31
0.0
  0
LINE
  5
53FE
  8
0
 10
137.37394217410059
 20
96.782740269956136
 30
0.0
 11
137.0304989661451
 21
96.598879106749735
 31
0.0
  0
ARC
  5
53FF
  8
0
 10
136.94543752781561
 20
97.583165679895743
 30
0.0
 40
0.9079080728602267
 50
298.1621976338144
 51
0.1687410784606749
  0
ARC
  5
5400
  8
0
 10
135.5177070809076
 20
97.671615015495433
 30
0.0
 40
2.337209090735993
 50
357.89677509720173
 51
28.603425216177861
  0
ARC
  5
5401
  8
0
 10
146.38773662713959
 20
101.2122869534662
 30
0.0
 40
9.1445696707434845
 50
168.12919093051789
 51
195.35678611631661
  0
ARC
  5
5402
  8
0
 10
147.5
 20
77.5
 30
0.0
 40
27.5
 50
107.99999999999881
 51
111.46077895234519
  0
ARC
  5
5403
  8
0
 10
133.2883930612129
 20
96.514202865004691
 30
0.0
 40
9.1445696707433743
 50
24.10399283602796
 51
51.331588021826128
  0
ARC
  5
5404
  8
0
 10
143.93097970619709
 20
100.68903814466481
 30
0.0
 40
2.3372090907360721
 50
190.85735373617439
 51
221.56400385511651
  0
ARC
  5
5405
  8
0
 10
142.88490082898801
 20
99.713355493861314
 30
0.0
 40
0.907908072860282
 50
219.29199073271209
 51
281.22949437227129
  0
LINE
  5
5406
  8
0
 10
143.44479103689179
 20
98.899367170494983
 30
0.0
 11
143.06170620754841
 21
98.822829286006154
 31
0.0
  0
LINE
  5
5407
  8
0
 10
143.82931839290649
 20
98.968292831234137
 30
0.0
 11
143.44479103689179
 21
98.899367170494983
 31
0.0
  0
ARC
  5
5408
  8
0
 10
143.668053851379
 20
99.861764048683696
 30
0.0
 40
0.9079080728602798
 50
280.23128458007301
 51
342.1687882195651
  0
ARC
  5
5409
  8
0
 10
142.33753408291679
 20
100.3870780482622
 30
0.0
 40
2.3372090907360592
 50
339.89677509720252
 51
10.6034252161763
  0
ARC
  5
540A
  8
0
 10
153.76967431552089
 20
100.3954333077893
 30
0.0
 40
9.1445696707433513
 50
150.1291909305169
 51
177.3567861163159
  0
ARC
  5
540B
  8
0
 10
139.85967043362029
 20
99.97520959838279
 30
0.0
 40
9.1445696707434241
 50
6.1039928360278832
 51
33.331588021825752
  0
ARC
  5
540C
  8
0
 10
151.2714668626993
 20
100.65697375815451
 30
0.0
 40
2.3372090907359961
 50
172.85735373617359
 51
203.5640038551158
  0
ARC
  5
540D
  8
0
 10
149.97508420975589
 20
100.052300565786
 30
0.0
 40
0.9079080728602804
 50
201.29199073270831
 51
263.22949437227493
  0
LINE
  5
540E
  8
0
 10
150.25603521524849
 20
99.105136077434025
 30
0.0
 11
149.8680483849883
 21
99.150723946201637
 31
0.0
  0
LINE
  5
540F
  8
0
 10
150.64304166339809
 20
99.051862788409196
 30
0.0
 11
150.25603521524849
 21
99.105136077434025
 31
0.0
  0
ARC
  5
5410
  8
0
 10
150.7657677605078
 20
99.951437895808837
 30
0.0
 40
0.9079080728602706
 50
262.23128458007648
 51
324.16878821955868
  0
ARC
  5
5411
  8
0
 10
149.66269921790541
 20
100.8621944180157
 30
0.0
 40
2.3372090907359979
 50
321.8967750972003
 51
352.60342521617821
  0
ARC
  5
5412
  8
0
 10
160.5378925985097
 20
97.3374151280821
 30
0.0
 40
9.1445696707433033
 50
132.12919093051829
 51
159.35678611631491
  0
ARC
  5
5413
  8
0
 10
147.17883649729129
 20
101.23618622227799
 30
0.0
 40
9.1445696707434561
 50
348.1039928360297
 51
15.331588021826221
  0
ARC
  5
5414
  8
0
 10
158.2427765653259
 20
98.35814343607268
 30
0.0
 40
2.337209090736057
 50
154.85735373617101
 51
185.56400385511481
  0
ARC
  5
5415
  8
0
 10
156.82298906025099
 20
98.183670072978529
 30
0.0
 40
0.907908072860266
 50
183.29203787380791
 51
245.29858131852109
  0
LINE
  5
5416
  8
0
 10
156.79749946431269
 20
97.196043733278955
 30
0.0
 11
156.44358374704839
 21
97.358837558416653
 31
0.0
  0
LINE
  5
5417
  8
0
 10
157.14811712258819
 20
97.026263221642495
 30
0.0
 11
156.79749946431269
 21
97.196043733278955
 31
0.0
  0
ARC
  5
5418
  8
0
 10
157.54380617033371
 20
97.843409014178334
 30
0.0
 40
0.9079080728602704
 50
244.1621976338148
 51
306.16874107846229
  0
ARC
  5
5419
  8
0
 10
156.7761642850337
 20
99.050456424153893
 30
0.0
 40
2.3372090907359442
 50
303.89677509720258
 51
334.60342521617952
  0
ARC
  5
541A
  8
0
 10
166.02987111361699
 20
92.337572540239634
 30
0.0
 40
9.144569670743385
 50
114.12919093051821
 51
141.35678611631471
  0
ARC
  5
541B
  8
0
 10
154.52944028228521
 20
100.1736995590027
 30
0.0
 40
9.1445696707433495
 50
330.103992836028
 51
357.3315880218272
  0
ARC
  5
541C
  8
0
 10
164.16250844841281
 20
94.017572707237292
 30
0.0
 40
2.3372090907360308
 50
136.8573537361714
 51
167.56400385511611
  0
ARC
  5
541D
  8
0
 10
162.7582950556951
 20
94.290377145816066
 30
0.0
 40
0.9079080728603045
 50
165.29203787381559
 51
227.29858131852299
  0
LINE
  5
541E
  8
0
 10
162.42885968632069
 20
93.358965398104544
 30
0.0
 11
162.14257189574411
 21
93.623157497525597
 31
0.0
  0
LINE
  5
541F
  8
0
 10
162.70985183154249
 20
93.089147721237865
 30
0.0
 11
162.42885968632069
 21
93.358965398104544
 31
0.0
  0
ARC
  5
5420
  8
0
 10
163.33868641560301
 20
93.744024911750799
 30
0.0
 40
0.9079080728602484
 50
226.16219763381471
 51
288.16874107845803
  0
ARC
  5
5421
  8
0
 10
162.9816137611059
 20
95.129209604637083
 30
0.0
 40
2.3372090907360881
 50
285.89677509720121
 51
316.60342521617849
  0
ARC
  5
5422
  8
0
 10
169.70801673891989
 20
85.885324972711928
 30
0.0
 40
9.1445696707433228
 50
96.129190930518135
 51
123.35678611631501
  0
ARC
  5
5423
  8
0
 10
161.1919534754586
 20
96.891753205938201
 30
0.0
 40
9.1445696707433637
 50
312.10399283602698
 51
339.33158802182783
  0
ARC
  5
5424
  8
0
 10
168.45119791004609
 20
88.060146877121355
 30
0.0
 40
2.3372090907360001
 50
118.85735373617349
 51
149.56400385511711
  0
ARC
  5
5425
  8
0
 10
167.2000128202948
 20
88.753525118184569
 30
0.0
 40
0.9079080728602852
 50
147.2920378738124
 51
209.29858131852009
  0
LINE
  5
5426
  8
0
 10
166.5988791067501
 20
87.969501033854456
 30
0.0
 11
166.40824308648689
 21
88.309230444132893
 31
0.0
  0
LINE
  5
5427
  8
0
 10
166.78274026995609
 20
87.626057825899494
 30
0.0
 11
166.5988791067501
 21
87.969501033854456
 31
0.0
  0
ARC
  5
5428
  8
0
 10
167.58316567989581
 20
88.054562472184415
 30
0.0
 40
0.9079080728602733
 50
208.16219763381261
 51
270.16874107846661
  0
ARC
  5
5429
  8
0
 10
167.67161501549549
 20
89.482292919092373
 30
0.0
 40
2.3372090907359868
 50
267.8967750972061
 51
298.60342521617912
  0
ARC
  5
542A
  8
0
 10
171.2122869534663
 20
78.612263372860539
 30
0.0
 40
9.1445696707434116
 50
78.129190930517481
 51
105.3567861163159
  0
ARC
  5
542B
  8
0
 10
170.68903814466481
 20
81.069020293803021
 30
0.0
 40
2.3372090907360392
 50
100.8573537361715
 51
131.56400385511441
  0
ARC
  5
542C
  8
0
 10
169.71335549386129
 20
82.115099171012062
 30
0.0
 40
0.9079080728602786
 50
129.2919907327032
 51
191.22949437227271
  0
LINE
  5
542D
  8
0
 10
168.899367170495
 20
81.555208963107816
 30
0.0
 11
168.8228292860062
 21
81.938293792451645
 31
0.0
  0
LINE
  5
542E
  8
0
 10
168.96829283123421
 20
81.170681607093556
 30
0.0
 11
168.899367170495
 21
81.555208963107816
 31
0.0
  0
ARC
  5
542F
  8
0
 10
169.86176404868371
 20
81.331946148621086
 30
0.0
 40
0.9079080728602849
 50
190.2312845800748
 51
252.16878821956641
  0
ARC
  5
5430
  8
0
 10
170.38707804826231
 20
82.662465917083225
 30
0.0
 40
2.3372090907360792
 50
249.89677509720201
 51
280.60342521617753
  0
ARC
  5
5431
  8
0
 10
170.39543330778929
 20
71.230325684479055
 30
0.0
 40
9.1445696707433903
 50
60.129190930516422
 51
87.356786116316286
  0
ARC
  5
5432
  8
0
 10
147.5
 20
77.5
 30
0.0
 40
27.5
 50
0.0000000000008142
 51
3.4607789523448989
  0
ARC
  5
5433
  8
0
 10
169.9752095983828
 20
85.140329566379691
 30
0.0
 40
9.1445696707434241
 50
276.1039928360301
 51
303.33158802182902
  0
ARC
  5
5434
  8
0
 10
147.5
 20
77.5
 30
0.0
 40
27.500000000000021
 50
342.00000000000148
 51
345.46077895234532
  0
ARC
  5
5435
  8
0
 10
166.51420286500479
 20
91.711606938787085
 30
0.0
 40
9.1445696707433335
 50
294.10399283602828
 51
321.33158802182828
  0
ARC
  5
5436
  8
0
 10
147.5
 20
77.5
 30
0.0
 40
27.5
 50
36.000000000001052
 51
39.46077895234626
  0
ARC
  5
5437
  8
0
 10
147.5
 20
77.5
 30
0.0
 40
27.500000000000039
 50
198.00000000000159
 51
201.46077895234589
  0
ARC
  5
5438
  8
0
 10
147.5
 20
77.5
 30
0.0
 40
27.5
 50
216.00000000000139
 51
219.46077895234649
  0
ARC
  5
5439
  8
0
 10
147.5
 20
77.5
 30
0.0
 40
27.500000000000021
 50
234.0000000000008
 51
237.46077895234669
  0
ARC
  5
543A
  8
0
 10
147.5
 20
77.5
 30
0.0
 40
27.500000000000021
 50
252.00000000000111
 51
255.4607789523462
  0
ARC
  5
543B
  8
0
 10
147.5
 20
77.5
 30
0.0
 40
27.500000000000021
 50
270.0
 51
273.46077895234589
  0
ARC
  5
543C
  8
0
 10
147.5
 20
77.5
 30
0.0
 40
27.500000000000028
 50
288.00000000000222
 51
291.46077895234521
  0
ARC
  5
543D
  8
0
 10
147.5
 20
77.5
 30
0.0
 40
27.5
 50
305.99999999999937
 51
309.46077895234458
  0
ARC
  5
543E
  8
0
 10
147.5
 20
77.5
 30
0.0
 40
27.5
 50
323.99999999999932
 51
327.46077895234441
  0
ARC
  5
543F
  8
0
 10
147.5
 20
77.5
 30
0.0
 40
27.500000000000021
 50
90.0
 51
93.460778952345933
  0
ARC
  5
5440
  8
0
 10
147.5
 20
77.5
 30
0.0
 40
27.500000000000011
 50
18.000000000000941
 51
21.460778952345219
  0
ARC
  5
5441
  8
0
 10
147.5
 20
77.5
 30
0.0
 40
27.500000000000028
 50
72.000000000001123
 51
75.460778952346175
  0
ARC
  5
5442
  8
0
 10
147.5
 20
77.5
 30
0.0
 40
27.500000000000011
 50
54.000000000000632
 51
57.46077895234307
  0
ARC
  5
5443
  8
0
 10
147.5
 20
77.5
 30
0.0
 40
27.5
 50
180.0
 51
183.46077895234569
  0
LINE
  5
5447
  8
0
 10
75.000000000000057
 20
60.0
 30
0.0
 11
90.000000000000057
 21
60.0
 31
0.0
  0
LINE
  5
5448
  8
0
 10
90.000000000000057
 20
95.000000000000028
 30
0.0
 11
75.000000000000057
 21
95.000000000000028
 31
0.0
  0
LINE
  5
5449
  8
3
 10
50.0
 20
75.839955194196321
 30
0.0
 11
75.000000000000057
 21
75.839955194196293
 31
0.0
  0
LINE
  5
544B
  8
3
 10
75.000000000000057
 20
77.500000000000014
 30
0.0
 11
50.0
 21
77.500000000000014
 31
0.0
  0
LINE
  5
5454
  8
3
 10
50.0
 20
84.403673635578627
 30
0.0
 11
75.000000000000057
 21
84.403673635578627
 31
0.0
  0
LINE
  5
5457
  8
3
 10
75.000000000000057
 20
85.997967345311054
 30
0.0
 11
50.0
 21
85.997967345311054
 31
0.0
  0
LINE
  5
545A
  8
3
 10
75.000000000000057
 20
69.002032654688946
 30
0.0
 11
50.0
 21
69.002032654688946
 31
0.0
  0
LINE
  5
545B
  8
3
 10
50.0
 20
67.438733504618327
 30
0.0
 11
75.000000000000057
 21
67.438733504618313
 31
0.0
  0
LINE
  5
546C
  8
3
 10
50.0
 20
92.291612400787912
 30
0.0
 11
75.000000000000057
 21
92.291612400787912
 31
0.0
  0
LINE
  5
546F
  8
3
 10
75.000000000000057
 20
93.664094438042994
 30
0.0
 11
50.0
 21
93.664094438042994
 31
0.0
  0
LINE
  5
5478
  8
3
 10
75.000000000000057
 20
61.335905561956992
 30
0.0
 11
50.0
 21
61.335905561956992
 31
0.0
  0
LINE
  5
547C
  8
3
 10
50.0
 20
60.022378680573993
 30
0.0
 11
75.000000000000057
 21
60.022378680573993
 31
0.0
  0
LINE
  5
54A7
  8
0
 10
90.000000000000057
 20
60.0
 30
0.0
 11
90.000000000000057
 21
95.000000000000028
 31
0.0
  0
LINE
  5
54A9
  8
3
 10
50.0
 20
98.731645084984464
 30
0.0
 11
75.000000000000057
 21
98.731645084984464
 31
0.0
  0
LINE
  5
54AC
  8
3
 10
75.000000000000057
 20
99.747967345311025
 30
0.0
 11
50.0
 21
99.747967345311025
 31
0.0
  0
LINE
  5
54AF
  8
3
 10
75.000000000000057
 20
55.252032654688954
 30
0.0
 11
50.0
 21
55.252032654688954
 31
0.0
  0
LINE
  5
54B3
  8
3
 10
50.0
 20
54.316855205023238
 30
0.0
 11
75.000000000000057
 21
54.316855205023238
 31
0.0
  0
LINE
  5
54BA
  8
3
 10
50.0
 20
103.093376418693
 30
0.0
 11
75.000000000000057
 21
103.093376418693
 31
0.0
  0
LINE
  5
54BD
  8
3
 10
75.000000000000057
 20
103.6540541981167
 30
0.0
 11
50.0
 21
103.6540541981167
 31
0.0
  0
LINE
  5
54C0
  8
3
 10
75.000000000000057
 20
51.34594580188331
 30
0.0
 11
50.0
 21
51.34594580188331
 31
0.0
  0
LINE
  5
54C3
  8
3
 10
50.0
 20
50.880659468472601
 30
0.0
 11
75.000000000000057
 21
50.880659468472601
 31
0.0
  0
LINE
  5
54C6
  8
3
 10
50.0
 20
104.9498497490009
 30
0.0
 11
75.000000000000057
 21
104.9498497490009
 31
0.0
  0
LINE
  5
54C9
  8
0
 10
75.000000000000057
 20
105.0
 30
0.0
 11
50.0
 21
105.0
 31
0.0
  0
LINE
  5
54CC
  8
0
 10
75.000000000000057
 20
50.0
 30
0.0
 11
50.0
 21
50.0
 31
0.0
  0
LINE
  5
54CD
  8
0
 10
75.000000000000114
 20
105.0
 30
0.0
 11
75.000000000000057
 21
50.0
 31
0.0
  0
LINE
  5
54CE
  8
0
 10
50.000000000000057
 20
105.0
 30
0.0
 11
50.0
 21
50.0
 31
0.0
  0
LINE
  5
54E5
  8
2
 10
90.000000000000057
 20
84.571067811865476
 30
0.0
 11
50.0
 21
84.571067811865476
 31
0.0
  0
LINE
  5
54EE
  8
2
 10
90.000000000000057
 20
87.299999999999997
 30
0.0
 11
50.0
 21
87.299999999999997
 31
0.0
  0
LINE
  5
5535
  8
2
 10
50.0
 20
70.0
 30
0.0
 11
90.000000000000057
 21
70.0
 31
0.0
  0
LINE
  5
5544
  8
1
 10
147.5
 20
109.0
 30
0.0
 11
147.5
 21
46.0
 31
0.0
  0
LINE
  5
5545
  8
1
 10
179.0
 20
77.5
 30
0.0
 11
116.0
 21
77.5
 31
0.0
  0
CIRCLE
  5
5546
  8
5
 10
147.5
 20
77.5
 30
0.0
 40
25.0
  0
LINE
  5
558A
  8
1
 10
46.00000000000005
 20
77.500000000000014
 30
0.0
 11
94.000000000000057
 21
77.500000000000014
 31
0.0
  0
ENDSEC
  0
EOF
