  0
SECTION
  2
HEADER
  9
$ACADVER
  1
AC1009
  9
$INSBASE
 10
0.0
 20
0.0
 30
0.0
  9
$EXTMIN
 10
0.0
 20
-2.960436562073669
 30
0.0
  9
$EXTMAX
 10
183.9999991059303
 20
113.8858974128961
 30
0.0
  9
$LIMMIN
 10
0.0
 20
0.0
  9
$LIMMAX
 10
275.0
 20
175.0
  9
$ORTHOMODE
 70
     1
  9
$REGENMODE
 70
     1
  9
$FILLMODE
 70
     1
  9
$QTEXTMODE
 70
     0
  9
$MIRRTEXT
 70
     0
  9
$DRAGMODE
 70
     2
  9
$LTSCALE
 40
5.0
  9
$OSMODE
 70
    37
  9
$ATTMODE
 70
     1
  9
$TEXTSIZE
 40
0.2
  9
$TRACEWID
 40
0.05
  9
$TEXTSTYLE
  7
STANDARD
  9
$CLAYER
  8
0
  9
$CELTYPE
  6
BYLAYER
  9
$CECOLOR
 62
   256
  9
$DIMSCALE
 40
1.0
  9
$DIMASZ
 40
3.0
  9
$DIMEXO
 40
1.0
  9
$DIMDLI
 40
6.0
  9
$DIMRND
 40
0.0
  9
$DIMDLE
 40
0.0
  9
$DIMEXE
 40
1.0
  9
$DIMTP
 40
495.0
  9
$DIMTM
 40
0.0
  9
$DIMTXT
 40
3.0
  9
$DIMCEN
 40
0.0
  9
$DIMTSZ
 40
0.0
  9
$DIMTOL
 70
     0
  9
$DIMLIM
 70
     0
  9
$DIMTIH
 70
     0
  9
$DIMTOH
 70
     0
  9
$DIMSE1
 70
     0
  9
$DIMSE2
 70
     0
  9
$DIMTAD
 70
     1
  9
$DIMZIN
 70
     8
  9
$DIMBLK
  1

  9
$DIMASO
 70
     0
  9
$DIMSHO
 70
     0
  9
$DIMPOST
  1

  9
$DIMAPOST
  1

  9
$DIMALT
 70
     0
  9
$DIMALTD
 70
     2
  9
$DIMALTF
 40
25.399999999999999
  9
$DIMLFAC
 40
1.0
  9
$DIMTOFL
 70
     1
  9
$DIMTVP
 40
0.0
  9
$DIMTIX
 70
     1
  9
$DIMSOXD
 70
     0
  9
$DIMSAH
 70
     0
  9
$DIMBLK1
  1

  9
$DIMBLK2
  1

  9
$DIMSTYLE
  2
STANDARD
  9
$DIMCLRD
 70
     0
  9
$DIMCLRE
 70
     0
  9
$DIMCLRT
 70
     0
  9
$DIMTFAC
 40
1.0
  9
$DIMGAP
 40
1.0
  9
$LUNITS
 70
     2
  9
$LUPREC
 70
     1
  9
$SKETCHINC
 40
0.1
  9
$FILLETRAD
 40
0.0
  9
$AUNITS
 70
     0
  9
$AUPREC
 70
     0
  9
$MENU
  1
E:\r13\win\SUPPORT\ACAD
  9
$ELEVATION
 40
0.0
  9
$PELEVATION
 40
0.0
  9
$THICKNESS
 40
0.0
  9
$LIMCHECK
 70
     0
  9
$BLIPMODE
 70
     0
  9
$CHAMFERA
 40
0.0
  9
$CHAMFERB
 40
0.0
  9
$SKPOLY
 70
     0
  9
$TDCREATE
 40
2450653.5278402781
  9
$TDUPDATE
 40
2459439.6128503941
  9
$TDINDWG
 40
0.4858869444
  9
$TDUSRTIMER
 40
0.4858869444
  9
$USRTIMER
 70
     1
  9
$ANGBASE
 50
0.0
  9
$ANGDIR
 70
     0
  9
$PDMODE
 70
     0
  9
$PDSIZE
 40
0.0
  9
$PLINEWID
 40
0.0
  9
$COORDS
 70
     1
  9
$SPLFRAME
 70
     0
  9
$SPLINETYPE
 70
     6
  9
$SPLINESEGS
 70
     8
  9
$ATTDIA
 70
     0
  9
$ATTREQ
 70
     1
  9
$HANDLING
 70
     1
  9
$HANDSEED
  5
6745
  9
$SURFTAB1
 70
     6
  9
$SURFTAB2
 70
     6
  9
$SURFTYPE
 70
     6
  9
$SURFU
 70
     6
  9
$SURFV
 70
     6
  9
$UCSNAME
  2

  9
$UCSORG
 10
0.0
 20
0.0
 30
0.0
  9
$UCSXDIR
 10
1.0
 20
0.0
 30
0.0
  9
$UCSYDIR
 10
0.0
 20
1.0
 30
0.0
  9
$PUCSNAME
  2

  9
$PUCSORG
 10
0.0
 20
0.0
 30
0.0
  9
$PUCSXDIR
 10
1.0
 20
0.0
 30
0.0
  9
$PUCSYDIR
 10
0.0
 20
1.0
 30
0.0
  9
$USERI1
 70
     4
  9
$USERI2
 70
     1
  9
$USERI3
 70
     1
  9
$USERI4
 70
     0
  9
$USERI5
 70
     0
  9
$USERR1
 40
1.0
  9
$USERR2
 40
3.0
  9
$USERR3
 40
3.0
  9
$USERR4
 40
3.0
  9
$USERR5
 40
10.0
  9
$WORLDVIEW
 70
     1
  9
$SHADEDGE
 70
     3
  9
$SHADEDIF
 70
    70
  9
$TILEMODE
 70
     1
  9
$MAXACTVP
 70
    16
  9
$PLIMCHECK
 70
     0
  9
$PEXTMIN
 10
1.0000000000000000E+020
 20
1.0000000000000000E+020
 30
1.0000000000000000E+020
  9
$PEXTMAX
 10
-1.0000000000000000E+020
 20
-1.0000000000000000E+020
 30
-1.0000000000000000E+020
  9
$PLIMMIN
 10
0.0
 20
0.0
  9
$PLIMMAX
 10
12.0
 20
9.0
  9
$UNITMODE
 70
     0
  9
$VISRETAIN
 70
     0
  9
$PLINEGEN
 70
     0
  9
$PSLTSCALE
 70
     0
  0
ENDSEC
  0
SECTION
  2
TABLES
  0
TABLE
  2
VPORT
 70
     1
  0
VPORT
  2
*ACTIVE
 70
     0
 10
0.0
 20
0.0
 11
1.0
 21
1.0
 12
260.1957585644372
 22
100.0
 13
0.0
 23
0.0
 14
5.0
 24
5.0
 15
10.0
 25
10.0
 16
0.0
 26
0.0
 36
1.0
 17
0.0
 27
0.0
 37
0.0
 40
200.0
 41
2.6019575856443722
 42
50.0
 43
0.0
 44
0.0
 50
0.0
 51
0.0
 71
     0
 72
   100
 73
     1
 74
     0
 75
     0
 76
     0
 77
     0
 78
     0
  0
ENDTAB
  0
TABLE
  2
LTYPE
 70
     5
  0
LTYPE
  2
CONTINUOUS
 70
     0
  3
Solid Line
 72
    65
 73
     0
 40
0.0
  0
LTYPE
  2
CENTER
 70
     0
  3
____ _ ____ _ ____ _ ____ _ ____ _ ____ _ ____ 
 72
    65
 73
     4
 40
2.0
 49
1.25
 49
-0.25
 49
0.25
 49
-0.25
  0
LTYPE
  2
HIDDEN
 70
     0
  3
__ __ __ __ __ __ __ __ __ __ __ __ __ __ __ __
 72
    65
 73
     2
 40
0.375
 49
0.25
 49
-0.125
  0
LTYPE
  2
PHANTOM
 70
     0
  3
_____ _ _ _____ _ _ _____ _ _ _____ _ _ ____
 72
    65
 73
     6
 40
2.5
 49
1.25
 49
-0.25
 49
0.25
 49
-0.25
 49
0.25
 49
-0.25
  0
LTYPE
  2
PHANTOM2
 70
     0
  3
___ _ _ ___ _ _ ___ _ _ ___ _ _
 72
    65
 73
     6
 40
1.25
 49
0.625
 49
-0.125
 49
0.125
 49
-0.125
 49
0.125
 49
-0.125
  0
ENDTAB
  0
TABLE
  2
LAYER
 70
     6
  0
LAYER
  2
0
 70
     0
 62
     7
  6
CONTINUOUS
  0
LAYER
  2
1
 70
     0
 62
     1
  6
CENTER
  0
LAYER
  2
2
 70
     0
 62
     2
  6
HIDDEN
  0
LAYER
  2
5
 70
     0
 62
     3
  6
PHANTOM
  0
LAYER
  2
DEFPOINTS
 70
     0
 62
     7
  6
CONTINUOUS
  0
LAYER
  2
3
 70
     0
 62
     3
  6
CONTINUOUS
  0
ENDTAB
  0
TABLE
  2
STYLE
 70
     2
  0
STYLE
  2
STANDARD
 70
     0
 40
0.0
 41
1.0
 50
0.0
 71
     0
 42
0.2
  3
simplex
  4
bigfont
  0
STYLE
  2
STANDARD1
 70
     0
 40
0.0
 41
1.0
 50
0.0
 71
     0
 42
3.0
  3
txt
  4

  0
ENDTAB
  0
TABLE
  2
VIEW
 70
     0
  0
ENDTAB
  0
TABLE
  2
UCS
 70
     0
  0
ENDTAB
  0
TABLE
  2
APPID
 70
     9
  0
APPID
  2
ACAD
 70
     0
  0
APPID
  2
_CALL_MAC$
 70
     0
  0
APPID
  2
ACAD_MLEADERVER
 70
     0
  0
APPID
  2
ACAD_EXEMPT_FROM_CAD_STANDARDS
 70
     0
  0
APPID
  2
ACAD_NAV_VCDISPLAY
 70
     0
  0
APPID
  2
ACAD_DSTYLE_DIMJAG
 70
     0
  0
APPID
  2
ACAD_DSTYLE_DIMTALN
 70
     0
  0
APPID
  2
ACAECLAYERSTANDARD
 70
     0
  0
APPID
  2
ACCMTRANSPARENCY
 70
     0
  0
ENDTAB
  0
TABLE
  2
DIMSTYLE
 70
     1
  0
DIMSTYLE
  2
STANDARD
 70
     0
  3

  4

  5

  6

  7

 40
1.0
 41
0.18
 42
0.0625
 43
0.38
 44
0.18
 45
0.0
 46
0.0
 47
0.0
 48
0.0
140
0.18
141
0.09
142
0.0
143
25.399999999999999
144
1.0
145
0.0
146
1.0
147
0.09
 71
     0
 72
     0
 73
     1
 74
     1
 75
     0
 76
     0
 77
     0
 78
     0
170
     0
171
     2
172
     0
173
     0
174
     0
175
     0
176
     0
177
     0
178
     0
  0
ENDTAB
  0
ENDSEC
  0
SECTION
  2
BLOCKS
  0
BLOCK
  8
0
  2
$MODEL_SPACE
 70
     2
 10
0.0
 20
0.0
 30
0.0
  3
$MODEL_SPACE
  1

  0
ENDBLK
  5
7
  8
0
  0
BLOCK
 67
     1
  8
0
  2
$PAPER_SPACE
 70
     0
 10
0.0
 20
0.0
 30
0.0
  3
$PAPER_SPACE
  1

  0
ENDBLK
  5
A
 67
     1
  8
0
  0
ENDSEC
  0
SECTION
  2
ENTITIES
  0
TEXT
  5
2BF
  8
0
 62
     3
 10
0.0
 20
0.0
 30
0.0
 40
10.0
  1
ZCL-2.5-22-A20-K
  7
STANDARD1
  0
LINE
  5
602F
  8
0
 10
152.9999991320073
 20
92.685897089540944
 30
0.0
 11
146.9999990798533
 21
92.685897089540944
 31
0.0
  0
CIRCLE
  5
6030
  8
0
 10
149.9999991059303
 20
79.885897412896156
 30
0.0
 40
20.0
  0
ARC
  5
6031
  8
0
 10
149.9999991059303
 20
79.885897412896156
 30
0.0
 40
10.0
 50
107.45760312372271
 51
72.542396876277252
  0
LINE
  5
6032
  8
0
 10
146.9999990798533
 20
92.685897089540944
 30
0.0
 11
146.9999990798533
 21
89.425289258360863
 31
0.0
  0
LINE
  5
6033
  8
0
 10
152.9999991320073
 20
89.425289258360863
 30
0.0
 11
152.9999991320073
 21
92.685897089540944
 31
0.0
  0
ARC
  5
6034
  8
0
 10
175.65131218942909
 20
76.039590131065751
 30
0.0
 40
2.3820433783524479
 50
86.075491754429265
 51
116.8846021000216
  0
ARC
  5
6035
  8
0
 10
174.98393874066019
 20
77.413243190910606
 30
0.0
 40
0.8554656875134314
 50
118.62061881290479
 51
174.6421345091893
  0
LINE
  5
6036
  8
0
 10
174.09111432731149
 20
77.102595893666134
 30
0.0
 11
174.132209867239
 21
77.493123197928071
 31
0.0
  0
LINE
  5
6037
  8
0
 10
174.04208019375801
 20
76.712985709309564
 30
0.0
 11
174.09111432731149
 21
77.102595893666134
 31
0.0
  0
ARC
  5
6038
  8
0
 10
174.88958427912621
 20
76.596549684308513
 30
0.0
 40
0.8554656875134364
 50
172.17727785032949
 51
228.1987935467231
  0
ARC
  5
6039
  8
0
 10
175.8525983280642
 20
77.781840361944433
 30
0.0
 40
2.3820433783524448
 50
229.9348102595342
 51
260.74392060507409
  0
ARC
  5
603A
  8
0
 10
172.20994160858771
 20
66.195434908348545
 30
0.0
 40
9.7937031195025082
 50
44.379839870266039
 51
70.5601508488365
  0
ARC
  5
603B
  8
0
 10
176.07280313671819
 20
80.844646353913276
 30
0.0
 40
9.7937031195024922
 50
259.89562514704699
 51
286.07593612561237
  0
ARC
  5
603C
  8
0
 10
173.52862378862531
 20
68.968582580263515
 30
0.0
 40
2.3820433783523689
 50
69.711855390795009
 51
100.5209657363865
  0
ARC
  5
603D
  8
0
 10
173.27528644251771
 20
70.474613867458388
 30
0.0
 40
0.8554656875134652
 50
102.2569824492674
 51
158.27849814555279
  0
LINE
  5
603E
  8
0
 10
172.33110837638381
 20
70.428087562322617
 30
0.0
 11
172.4805632978678
 21
70.791217684745774
 31
0.0
  0
LINE
  5
603F
  8
0
 10
172.1742941439152
 20
70.068074576556683
 30
0.0
 11
172.33110837638381
 21
70.428087562322617
 31
0.0
  0
ARC
  5
6040
  8
0
 10
172.9546648498758
 20
69.717584909974505
 30
0.0
 40
0.8554656875134586
 50
155.8136414866959
 51
211.8351571830909
  0
ARC
  5
6041
  8
0
 10
174.21260503653451
 20
70.583550576575348
 30
0.0
 40
2.382043378352404
 50
213.5711738958997
 51
244.38028424144071
  0
ARC
  5
6042
  8
0
 10
167.4532338758643
 20
60.492730945675213
 30
0.0
 40
9.7937031195024922
 50
28.016203506631641
 51
54.196514485199629
  0
ARC
  5
6043
  8
0
 10
175.28678216642081
 20
73.460252541642916
 30
0.0
 40
9.7937031195024211
 50
243.5319887834118
 51
269.71229976197583
  0
ARC
  5
6044
  8
0
 10
169.49978614614821
 20
62.782030949429753
 30
0.0
 40
2.3820433783524089
 50
53.34821902716056
 51
84.157329372750795
  0
ARC
  5
6045
  8
0
 10
169.6810087878286
 20
64.298430765799097
 30
0.0
 40
0.8554656875135002
 50
85.893346085631222
 51
141.91486178191511
  0
LINE
  5
6046
  8
0
 10
168.76196920871729
 20
64.519794844090924
 30
0.0
 11
169.00767631828779
 21
64.826108701527104
 31
0.0
  0
LINE
  5
6047
  8
0
 10
168.5100781172514
 20
64.218544587492943
 30
0.0
 11
168.76196920871729
 21
64.519794844090924
 31
0.0
  0
ARC
  5
6048
  8
0
 10
169.16009491870449
 20
63.662396341344248
 30
0.0
 40
0.8554656875134584
 50
139.45000512306041
 51
195.47152081945529
  0
ARC
  5
6049
  8
0
 10
170.6110504104193
 20
64.138881608698156
 30
0.0
 40
2.3820433783524031
 50
197.20753753226171
 51
228.0166478778055
  0
ARC
  5
604A
  8
0
 10
161.28256886046461
 20
56.361145994574102
 30
0.0
 40
9.7937031195024762
 50
11.65256714299535
 51
37.832878121561997
  0
ARC
  5
604B
  8
0
 10
172.45217641885191
 20
66.59642626206012
 30
0.0
 40
9.7937031195024442
 50
227.1683524197727
 51
253.34866339833951
  0
ARC
  5
604C
  8
0
 10
163.89119172737171
 20
57.981132858855553
 30
0.0
 40
2.38204337835236
 50
36.984582663522168
 51
67.793693009114833
  0
ARC
  5
604D
  8
0
 10
164.49229277618349
 20
59.385051509654097
 30
0.0
 40
0.8554656875134684
 50
69.529709721995502
 51
125.5512254182803
  0
LINE
  5
604E
  8
0
 10
163.6728464066982
 20
59.856371209025383
 30
0.0
 11
163.99489868432281
 21
60.081054642796509
 31
0.0
  0
LINE
  5
604F
  8
0
 10
163.346287459135
 20
59.638290852308273
 30
0.0
 11
163.6728464066982
 21
59.856371209025383
 31
0.0
  0
ARC
  5
6050
  8
0
 10
163.81328797425971
 20
58.921539344655159
 30
0.0
 40
0.8554656875134487
 50
123.0863687594221
 51
179.1078844558136
  0
ARC
  5
6051
  8
0
 10
165.33971098625631
 20
58.969942210168149
 30
0.0
 40
2.3820433783523578
 50
180.84390116862491
 51
211.65301151416691
  0
ARC
  5
6052
  8
0
 10
154.19785714357829
 20
54.135396496301773
 30
0.0
 40
9.7937031195025881
 50
355.28893077935908
 51
21.46924175792676
  0
ARC
  5
6053
  8
0
 10
167.7986287936298
 20
60.809233899589742
 30
0.0
 40
9.7937031195022861
 50
210.80471605613681
 51
236.98502703470419
  0
ARC
  5
6054
  8
0
 10
157.15721549650939
 20
54.954828519798809
 30
0.0
 40
2.3820433783523391
 50
20.620946299884409
 51
51.430056645478459
  0
ARC
  5
6055
  8
0
 10
158.1294973203635
 20
56.132528865364549
 30
0.0
 40
0.855465687513468
 50
53.16607335835532
 51
109.1875890546422
  0
LINE
  5
6056
  8
0
 10
157.4760304205119
 20
56.815621629357331
 30
0.0
 11
157.84833826124671
 21
56.940471008419991
 31
0.0
  0
LINE
  5
6057
  8
0
 10
157.10125830024481
 20
56.698377430438988
 30
0.0
 11
157.4760304205119
 21
56.815621629357331
 31
0.0
  0
ARC
  5
6058
  8
0
 10
157.3474105164951
 20
55.879089958816799
 30
0.0
 40
0.8554656875134313
 50
106.72273239578379
 51
162.7442480921741
  0
ARC
  5
6059
  8
0
 10
158.82563933432871
 20
55.495489110187897
 30
0.0
 40
2.382043378352416
 50
164.48026480498601
 51
195.28937515053181
  0
ARC
  5
605A
  8
0
 10
146.77305993410511
 20
53.995799438166202
 30
0.0
 40
9.7937031195024371
 50
338.92529441572361
 51
5.1056053942908051
  0
ARC
  5
605B
  8
0
 10
161.703142043637
 20
56.567519361681313
 30
0.0
 40
9.7937031195024051
 50
194.44107969250089
 51
220.6213906710687
  0
ARC
  5
605C
  8
0
 10
149.84340415928739
 20
53.948291111685009
 30
0.0
 40
2.3820433783524
 50
4.2573099362486149
 51
35.066420281839477
  0
ARC
  5
605D
  8
0
 10
151.10809826719759
 20
54.804362874073853
 30
0.0
 40
0.8554656875134769
 50
36.802436994713972
 51
92.823952691006411
  0
LINE
  5
605E
  8
0
 10
150.673550858628
 20
55.643889307975762
 30
0.0
 11
151.0659518092871
 21
55.65879046916961
 31
0.0
  0
LINE
  5
605F
  8
0
 10
150.2809279621579
 20
55.636978894472122
 30
0.0
 11
150.673550858628
 21
55.643889307975762
 31
0.0
  0
ARC
  5
6060
  8
0
 10
150.28628948298439
 20
54.781529338926617
 30
0.0
 40
0.8554656875134075
 50
90.359096032147235
 51
146.38061172853929
  0
ARC
  5
6061
  8
0
 10
151.59656679919951
 20
53.997001835549661
 30
0.0
 40
2.3820433783523671
 50
148.11662844134989
 51
178.92573878689481
  0
ARC
  5
6062
  8
0
 10
139.60969014498681
 20
55.953664143601891
 30
0.0
 40
9.7937031195024424
 50
322.56165805208599
 51
348.74196903065422
  0
ARC
  5
6063
  8
0
 10
154.65953625410219
 20
54.214921133748163
 30
0.0
 40
9.7937031195024495
 50
178.07744332886469
 51
204.25775430743229
  0
ARC
  5
6064
  8
0
 10
142.54227921333629
 20
55.043064309211061
 30
0.0
 40
2.3820433783523618
 50
347.89367357261318
 51
18.70278391820262
  0
ARC
  5
6065
  8
0
 10
143.99692761010539
 20
55.508153645489102
 30
0.0
 40
0.8554656875135156
 50
20.438800631080721
 51
76.46031632736873
  0
LINE
  5
6066
  8
0
 10
143.8165042921901
 20
56.436100229620934
 30
0.0
 11
144.1972080059349
 21
56.339844316244118
 31
0.0
  0
LINE
  5
6067
  8
0
 10
143.4378383122384
 20
56.540082395076752
 30
0.0
 11
143.8165042921901
 21
56.436100229620934
 31
0.0
  0
ARC
  5
6068
  8
0
 10
143.20197490575941
 20
55.717775318963653
 30
0.0
 40
0.855465687513475
 50
73.995459668513234
 51
130.01697536490991
  0
ARC
  5
6069
  8
0
 10
144.23814984471539
 20
54.595878913397542
 30
0.0
 40
2.3820433783524768
 50
131.7529920777171
 51
162.5621024232571
  0
ARC
  5
606A
  8
0
 10
133.2880813943375
 20
59.850376058044262
 30
0.0
 40
9.7937031195025206
 50
306.19802168844973
 51
332.37833266701767
  0
ARC
  5
606B
  8
0
 10
147.23844247615699
 20
53.942032732777051
 30
0.0
 40
9.7937031195025348
 50
161.7138069652276
 51
187.8941179437951
  0
ARC
  5
606C
  8
0
 10
135.84533438031519
 20
58.150456098780353
 30
0.0
 40
2.3820433783523871
 50
331.53003720897669
 51
2.3391475545681688
  0
ARC
  5
606D
  8
0
 10
137.37209010396401
 20
58.186884236915162
 30
0.0
 40
0.8554656875134732
 50
4.075164267443216
 51
60.096679963730431
  0
LINE
  5
606E
  8
0
 10
137.46040746569631
 20
59.12807323038578
 30
0.0
 11
137.79857255518431
 21
58.928459137678139
 31
0.0
  0
LINE
  5
606F
  8
0
 10
137.12637558579439
 20
59.33452695608139
 30
0.0
 11
137.46040746569631
 21
59.12807323038578
 31
0.0
  0
ARC
  5
6070
  8
0
 10
136.66839581982549
 20
58.611978817694649
 30
0.0
 40
0.8554656875135062
 50
57.631823304875617
 51
113.6533390012586
  0
ARC
  5
6071
  8
0
 10
137.34652365033801
 20
57.243602884543598
 30
0.0
 40
2.382043378352428
 50
115.38935571407769
 51
146.1984660596213
  0
ARC
  5
6072
  8
0
 10
128.32037282707989
 20
65.370246756823093
 30
0.0
 40
9.7937031195024264
 50
289.83438532481352
 51
316.01469630338079
  0
ARC
  5
6073
  8
0
 10
140.04107359274619
 20
55.770961954085053
 30
0.0
 40
9.7937031195023998
 50
145.35017060159311
 51
171.53048158015841
  0
ARC
  5
6074
  8
0
 10
130.295116302331
 20
63.018724077972543
 30
0.0
 40
2.382043378352356
 50
315.16640084534077
 51
345.97551119092759
  0
ARC
  5
6075
  8
0
 10
131.77029068409539
 20
62.62353982685886
 30
0.0
 40
0.8554656875134922
 50
347.71152790379699
 51
43.733043600092763
  0
LINE
  5
6076
  8
0
 10
132.12019450962541
 20
63.501722365617752
 30
0.0
 11
132.38842286169529
 21
63.214923441410058
 31
0.0
  0
LINE
  5
6077
  8
0
 10
131.8578577041626
 20
63.793921098113053
 30
0.0
 11
132.12019450962541
 21
63.501722365617752
 31
0.0
  0
ARC
  5
6078
  8
0
 10
131.21486394603431
 20
63.22966868014344
 30
0.0
 40
0.855465687513473
 50
41.268186941239499
 51
97.289702637623037
  0
ARC
  5
6079
  8
0
 10
131.48000678425649
 20
61.725670899466152
 30
0.0
 40
2.3820433783524839
 50
99.025719350440724
 51
129.83482969598541
  0
ARC
  5
607A
  8
0
 10
125.1090186472327
 20
72.066089143858548
 30
0.0
 40
9.7937031195023998
 50
273.47074896117789
 51
299.65105993974692
  0
ARC
  5
607B
  8
0
 10
133.65051762640309
 20
59.553539829222437
 30
0.0
 40
9.7937031195024833
 50
128.986534237954
 51
155.16684521652169
  0
ARC
  5
607C
  8
0
 10
126.34127063964399
 20
69.253470127817877
 30
0.0
 40
2.382043378352344
 50
298.80276448170662
 51
329.61187482729088
  0
ARC
  5
607D
  8
0
 10
127.6453538243133
 20
68.458688965229683
 30
0.0
 40
0.8554656875134373
 50
331.3478915401609
 51
27.36940723646299
  0
LINE
  5
607E
  8
0
 10
128.2284954935312
 20
69.202719442546353
 30
0.0
 11
128.4050593525171
 21
68.851968459784985
 31
0.0
  0
LINE
  5
607F
  8
0
 10
128.05910840630531
 20
69.556990824639783
 30
0.0
 11
128.2284954935312
 21
69.202719442546353
 31
0.0
  0
ARC
  5
6080
  8
0
 10
127.2831920033973
 20
69.196747136113345
 30
0.0
 40
0.8554656875134759
 50
24.904550577603981
 51
80.926066273987246
  0
ARC
  5
6081
  8
0
 10
127.1138695534417
 20
67.678972463481287
 30
0.0
 40
2.382043378352364
 50
82.662082986803384
 51
113.4711933323501
  0
ARC
  5
6082
  8
0
 10
123.91418367178839
 20
79.39544589066108
 30
0.0
 40
9.7937031195025206
 50
257.10711259754271
 51
283.28742357610901
  0
ARC
  5
6083
  8
0
 10
128.58449941542099
 20
64.98332439460259
 30
0.0
 40
9.7937031195024442
 50
112.6228978743184
 51
138.80320885288441
  0
ARC
  5
6084
  8
0
 10
124.3041144534196
 20
76.349592202820546
 30
0.0
 40
2.382043378352483
 50
282.43912811806791
 51
313.24823846365427
  0
ARC
  5
6085
  8
0
 10
125.3314573770534
 20
75.219602571805083
 30
0.0
 40
0.8554656875134579
 50
314.98425517652407
 51
11.00577087282381
  0
LINE
  5
6086
  8
0
 10
126.10059663653369
 20
75.769203901290894
 30
0.0
 11
126.1711890250444
 21
75.382917840033755
 31
0.0
  0
LINE
  5
6087
  8
0
 10
126.037879511714
 20
76.156846899539232
 30
0.0
 11
126.10059663653369
 21
75.769203901290894
 31
0.0
  0
ARC
  5
6088
  8
0
 10
125.1919006701537
 20
76.02979697668377
 30
0.0
 40
0.8554656875134513
 50
8.5409142139660759
 51
64.562429910350062
  0
ARC
  5
6089
  8
0
 10
124.6018304299163
 20
74.621206489519864
 30
0.0
 40
2.3820433783523862
 50
66.298446623167067
 51
97.107556968712444
  0
ARC
  5
608A
  8
0
 10
124.83266632450049
 20
86.764536102967384
 30
0.0
 40
9.7937031195024336
 50
240.74347623390591
 51
266.92378721247269
  0
ARC
  5
608B
  8
0
 10
125.2534376264833
 20
71.620426796910522
 30
0.0
 40
9.7937031195024389
 50
96.259261510681085
 51
122.4395724892471
  0
ARC
  5
608C
  8
0
 10
124.34868602243139
 20
83.732204694726533
 30
0.0
 40
2.382043378352428
 50
266.07549175443251
 51
296.88460210001779
  0
ARC
  5
608D
  8
0
 10
125.01605947120019
 20
82.358551634881664
 30
0.0
 40
0.8554656875134314
 50
298.62061881288622
 51
354.6421345091901
  0
LINE
  5
608E
  8
0
 10
125.9088838845491
 20
82.669198932126164
 30
0.0
 11
125.8677883446216
 21
82.278671627864242
 31
0.0
  0
LINE
  5
608F
  8
0
 10
125.9579180181026
 20
83.058809116482735
 30
0.0
 11
125.9088838845491
 21
82.669198932126164
 31
0.0
  0
ARC
  5
6090
  8
0
 10
125.1104139327344
 20
83.175245141483771
 30
0.0
 40
0.8554656875134625
 50
352.17727785033151
 51
48.198793546714441
  0
ARC
  5
6091
  8
0
 10
124.1473998837963
 20
81.989954463847937
 30
0.0
 40
2.3820433783523991
 50
49.934810259529868
 51
80.743920605077435
  0
ARC
  5
6092
  8
0
 10
127.7900566032728
 20
93.576359917443767
 30
0.0
 40
9.7937031195025295
 50
224.37983987026971
 51
250.5601508488366
  0
ARC
  5
6093
  8
0
 10
149.9999991059303
 20
79.885897412896156
 30
0.0
 40
30.000000000000021
 50
163.63636363636331
 51
166.81941235951541
  0
ARC
  5
6094
  8
0
 10
123.92719507514229
 20
78.927148471879093
 30
0.0
 40
9.7937031195024478
 50
79.89562514704707
 51
106.0759361256124
  0
ARC
  5
6095
  8
0
 10
126.4713744232353
 20
90.803212245528869
 30
0.0
 40
2.3820433783524311
 50
249.71185539079849
 51
280.52096573637988
  0
ARC
  5
6096
  8
0
 10
126.7247117693428
 20
89.297180958333968
 30
0.0
 40
0.855465687513481
 50
282.2569824492507
 51
338.27849814555128
  0
LINE
  5
6097
  8
0
 10
127.6688898354769
 20
89.343707263469696
 30
0.0
 11
127.5194349139929
 21
88.980577141046524
 31
0.0
  0
LINE
  5
6098
  8
0
 10
127.82570406794549
 20
89.70372024923563
 30
0.0
 11
127.6688898354769
 21
89.343707263469696
 31
0.0
  0
ARC
  5
6099
  8
0
 10
127.0453333619848
 20
90.054209915817808
 30
0.0
 40
0.8554656875134288
 50
335.81364148669451
 51
31.83515718308578
  0
ARC
  5
609A
  8
0
 10
125.787393175326
 20
89.188244249216993
 30
0.0
 40
2.382043378352396
 50
33.571173895894809
 51
64.380284241440677
  0
ARC
  5
609B
  8
0
 10
132.54676433599639
 20
99.27906388011715
 30
0.0
 40
9.7937031195025384
 50
208.016203506632
 51
234.1965144851996
  0
ARC
  5
609C
  8
0
 10
149.9999991059303
 20
79.885897412896156
 30
0.0
 40
30.000000000000028
 50
147.27272727272631
 51
150.4557759958808
  0
ARC
  5
609D
  8
0
 10
124.71321604543969
 20
86.311542284149326
 30
0.0
 40
9.7937031195024566
 50
63.531988783411812
 51
89.7122997619758
  0
ARC
  5
609E
  8
0
 10
130.5002120657123
 20
96.989763876362588
 30
0.0
 40
2.3820433783524582
 50
233.34821902716061
 51
264.15732937274419
  0
ARC
  5
609F
  8
0
 10
130.318989424032
 20
95.473364059993145
 30
0.0
 40
0.8554656875134276
 50
265.89334608560841
 51
321.91486178191968
  0
LINE
  5
60A0
  8
0
 10
131.23802900314331
 20
95.251999981701374
 30
0.0
 11
130.99232189357281
 21
94.945686124265194
 31
0.0
  0
LINE
  5
60A1
  8
0
 10
131.4899200946092
 20
95.553250238299356
 30
0.0
 11
131.23802900314331
 21
95.251999981701374
 31
0.0
  0
ARC
  5
60A2
  8
0
 10
130.839903293156
 20
96.109398484448064
 30
0.0
 40
0.855465687513446
 50
319.45000512305671
 51
15.471520819441499
  0
ARC
  5
60A3
  8
0
 10
129.3889478014413
 20
95.632913217094185
 30
0.0
 40
2.3820433783523098
 50
17.20753753225668
 51
48.016647877805177
  0
ARC
  5
60A4
  8
0
 10
138.71742935139611
 20
103.4106488312182
 30
0.0
 40
9.7937031195025561
 50
191.65256714299571
 51
217.83287812156561
  0
ARC
  5
60A5
  8
0
 10
149.9999991059303
 20
79.885897412896156
 30
0.0
 40
30.000000000000011
 50
130.9090909090898
 51
134.09213963224491
  0
ARC
  5
60A6
  8
0
 10
127.54782179300859
 20
93.175368563732135
 30
0.0
 40
9.7937031195025082
 50
47.168352419772702
 51
73.348663398339539
  0
ARC
  5
60A7
  8
0
 10
136.10880648448881
 20
101.7906619669368
 30
0.0
 40
2.3820433783524231
 50
216.9845826635225
 51
247.7936930091079
  0
ARC
  5
60A8
  8
0
 10
135.50770543567711
 20
100.38674331613819
 30
0.0
 40
0.8554656875134403
 50
249.52970972197119
 51
305.55122541828013
  0
LINE
  5
60A9
  8
0
 10
136.3271518051624
 20
99.915423616766915
 30
0.0
 11
136.00509952753779
 21
99.690740182995796
 31
0.0
  0
LINE
  5
60AA
  8
0
 10
136.6537107527256
 20
100.133503973484
 30
0.0
 11
136.3271518051624
 21
99.915423616766915
 31
0.0
  0
ARC
  5
60AB
  8
0
 10
136.18671023760081
 20
100.8502554811371
 30
0.0
 40
0.8554656875134838
 50
303.08636875942233
 51
359.10788445580999
  0
ARC
  5
60AC
  8
0
 10
134.66028722560421
 20
100.8018526156241
 30
0.0
 40
2.382043378352444
 50
0.8439011686233031
 51
31.653011514166892
  0
ARC
  5
60AD
  8
0
 10
145.80214106828211
 20
105.6363983294905
 30
0.0
 40
9.7937031195024566
 50
175.2889307793582
 51
201.46924175792711
  0
ARC
  5
60AE
  8
0
 10
149.9999991059303
 20
79.885897412896156
 30
0.0
 40
30.0
 50
114.5454545454557
 51
117.7285032686074
  0
ARC
  5
60AF
  8
0
 10
132.20136941823071
 20
98.962560926202414
 30
0.0
 40
9.7937031195024673
 50
30.80471605613641
 51
56.985027034703919
  0
ARC
  5
60B0
  8
0
 10
142.84278271535101
 20
104.8169663059935
 30
0.0
 40
2.382043378352416
 50
200.6209462998859
 51
231.4300566454703
  0
ARC
  5
60B1
  8
0
 10
141.8705008914971
 20
103.63926596042769
 30
0.0
 40
0.8554656875134735
 50
233.1660733583349
 51
289.18758905464222
  0
LINE
  5
60B2
  8
0
 10
142.5239677913487
 20
102.9561731964349
 30
0.0
 11
142.151659950614
 21
102.83132381737229
 31
0.0
  0
LINE
  5
60B3
  8
0
 10
142.89873991161579
 20
103.0734173953533
 30
0.0
 11
142.5239677913487
 21
102.9561731964349
 31
0.0
  0
ARC
  5
60B4
  8
0
 10
142.65258769536561
 20
103.89270486697551
 30
0.0
 40
0.8554656875134631
 50
286.72273239578732
 51
342.744248092173
  0
ARC
  5
60B5
  8
0
 10
141.174358877532
 20
104.27630571560439
 30
0.0
 40
2.3820433783524071
 50
344.4802648049872
 51
15.2893751505314
  0
ARC
  5
60B6
  8
0
 10
153.22693827775529
 20
105.7759953876261
 30
0.0
 40
9.7937031195023625
 50
158.92529441572091
 51
185.10560539429159
  0
ARC
  5
60B7
  8
0
 10
138.29685616822329
 20
103.20427546411091
 30
0.0
 40
9.7937031195026538
 50
14.441079692500489
 51
40.621390671065008
  0
ARC
  5
60B8
  8
0
 10
150.15659405257321
 20
105.8235037141073
 30
0.0
 40
2.3820433783524568
 50
184.25730993624941
 51
215.0664202818343
  0
ARC
  5
60B9
  8
0
 10
148.8918999446629
 20
104.9674319517184
 30
0.0
 40
0.8554656875134911
 50
216.8024369947012
 51
272.82395269100641
  0
LINE
  5
60BA
  8
0
 10
149.3264473532326
 20
104.1279055178165
 30
0.0
 11
148.93404640257361
 21
104.1130043566227
 31
0.0
  0
LINE
  5
60BB
  8
0
 10
149.71907024970281
 20
104.1348159313202
 30
0.0
 11
149.3264473532326
 21
104.1279055178165
 31
0.0
  0
ARC
  5
60BC
  8
0
 10
149.7137087288761
 20
104.9902654868657
 30
0.0
 40
0.8554656875134389
 50
270.35909603214731
 51
326.38061172853969
  0
ARC
  5
60BD
  8
0
 10
148.40343141266101
 20
105.7747929902426
 30
0.0
 40
2.3820433783524391
 50
328.11662844135088
 51
358.92573878689359
  0
ARC
  5
60BE
  8
0
 10
160.39030806687381
 20
103.8181306821904
 30
0.0
 40
9.7937031195024531
 50
142.5616580520857
 51
168.7419690306541
  0
ARC
  5
60BF
  8
0
 10
145.34046195775829
 20
105.55687369204411
 30
0.0
 40
9.7937031195024762
 50
358.07744332886512
 51
24.257754307431579
  0
ARC
  5
60C0
  8
0
 10
157.45771899852431
 20
104.72873051658119
 30
0.0
 40
2.3820433783524111
 50
167.89367357261199
 51
198.70278391820631
  0
ARC
  5
60C1
  8
0
 10
156.0030706017551
 20
104.2636411803031
 30
0.0
 40
0.8554656875134766
 50
200.43880063108449
 51
256.46031632736867
  0
LINE
  5
60C2
  8
0
 10
156.18349391967061
 20
103.33569459617139
 30
0.0
 11
155.8027902059257
 21
103.4319505095482
 31
0.0
  0
LINE
  5
60C3
  8
0
 10
156.5621598996222
 20
103.2317124307155
 30
0.0
 11
156.18349391967061
 21
103.33569459617139
 31
0.0
  0
ARC
  5
60C4
  8
0
 10
156.79802330610119
 20
104.0540195068286
 30
0.0
 40
0.8554656875134533
 50
253.99545966851659
 51
310.01697536491008
  0
ARC
  5
60C5
  8
0
 10
155.76184836714509
 20
105.1759159123947
 30
0.0
 40
2.3820433783524151
 50
311.75299207771729
 51
342.5621024232567
  0
ARC
  5
60C6
  8
0
 10
166.71191681752299
 20
99.921418767748094
 30
0.0
 40
9.7937031195024531
 50
126.1980216884494
 51
152.3783326670173
  0
ARC
  5
60C7
  8
0
 10
152.76155573570361
 20
105.8297620930152
 30
0.0
 40
9.7937031195024762
 50
341.7138069652284
 51
7.8941179437935078
  0
ARC
  5
60C8
  8
0
 10
164.15466383154529
 20
101.6213387270119
 30
0.0
 40
2.3820433783523951
 50
151.5300372089759
 51
182.33914755457019
  0
ARC
  5
60C9
  8
0
 10
162.62790810789639
 20
101.58491058887709
 30
0.0
 40
0.8554656875134803
 50
184.0751642674505
 51
240.09667996373429
  0
LINE
  5
60CA
  8
0
 10
162.53959074616429
 20
100.6437215954065
 30
0.0
 11
162.20142565667629
 21
100.8433356881141
 31
0.0
  0
LINE
  5
60CB
  8
0
 10
162.87362262606621
 20
100.43726786971089
 30
0.0
 11
162.53959074616429
 21
100.6437215954065
 31
0.0
  0
ARC
  5
60CC
  8
0
 10
163.33160239203499
 20
101.15981600809759
 30
0.0
 40
0.8554656875135062
 50
237.63182330487561
 51
293.65333900126569
  0
ARC
  5
60CD
  8
0
 10
162.65347456152259
 20
102.52819194124859
 30
0.0
 40
2.3820433783523911
 50
295.38935571407791
 51
326.19846605962141
  0
ARC
  5
60CE
  8
0
 10
171.67962538478071
 20
94.401548068969248
 30
0.0
 40
9.7937031195024282
 50
109.8343853248134
 51
136.01469630338079
  0
ARC
  5
60CF
  8
0
 10
159.95892461911421
 20
104.0008328717073
 30
0.0
 40
9.7937031195025348
 50
325.35017060159339
 51
351.53048158015878
  0
ARC
  5
60D0
  8
0
 10
169.7048819095296
 20
96.753070747819777
 30
0.0
 40
2.382043378352273
 50
135.16640084533731
 51
165.97551119093509
  0
ARC
  5
60D1
  8
0
 10
168.22970752776499
 20
97.148254998933453
 30
0.0
 40
0.8554656875134044
 50
167.71152790381711
 51
223.73304360009769
  0
LINE
  5
60D2
  8
0
 10
167.87980370223519
 20
96.270072460174561
 30
0.0
 11
167.6115753501654
 21
96.556871384382234
 31
0.0
  0
LINE
  5
60D3
  8
0
 10
168.142140507698
 20
95.977873727679253
 30
0.0
 11
167.87980370223519
 21
96.270072460174561
 31
0.0
  0
ARC
  5
60D4
  8
0
 10
168.78513426582629
 20
96.542126145648865
 30
0.0
 40
0.8554656875134598
 50
221.2681869412398
 51
277.2897026376362
  0
ARC
  5
60D5
  8
0
 10
168.519991427604
 20
98.046123926326089
 30
0.0
 40
2.3820433783524351
 50
279.02571935044398
 51
309.83482969598549
  0
ARC
  5
60D6
  8
0
 10
174.8909795646278
 20
87.705705681933807
 30
0.0
 40
9.7937031195023572
 50
93.470748961177947
 51
119.6510599397468
  0
ARC
  5
60D7
  8
0
 10
166.34948058545751
 20
100.2182549965698
 30
0.0
 40
9.7937031195023554
 50
308.98653423795429
 51
335.1668452165224
  0
ARC
  5
60D8
  8
0
 10
173.65872757221661
 20
90.518324697974364
 30
0.0
 40
2.3820433783524342
 50
118.80276448170289
 51
149.6118748272967
  0
ARC
  5
60D9
  8
0
 10
172.3546443875473
 20
91.313105860562587
 30
0.0
 40
0.8554656875135368
 50
151.34789154017989
 51
207.36940723646191
  0
LINE
  5
60DA
  8
0
 10
171.7715027183294
 20
90.569075383245945
 30
0.0
 11
171.5949388593435
 21
90.919826366007314
 31
0.0
  0
LINE
  5
60DB
  8
0
 10
171.94088980555529
 20
90.214804001152515
 30
0.0
 11
171.7715027183294
 21
90.569075383245945
 31
0.0
  0
ARC
  5
60DC
  8
0
 10
172.7168062084632
 20
90.575047689678911
 30
0.0
 40
0.85546568751347
 50
204.904550577604
 51
260.9260662740005
  0
ARC
  5
60DD
  8
0
 10
172.8861286584189
 20
92.092822362311097
 30
0.0
 40
2.3820433783524551
 50
262.66208298680999
 51
293.47119333235008
  0
ARC
  5
60DE
  8
0
 10
176.08581454007211
 20
80.376348935131432
 30
0.0
 40
9.7937031195023359
 50
77.107112597539299
 51
103.28742357610901
  0
ARC
  5
60DF
  8
0
 10
171.41549879643961
 20
94.788470431189779
 30
0.0
 40
9.7937031195025241
 50
292.6228978743186
 51
318.80320885288472
  0
ARC
  5
60E0
  8
0
 10
174.6685408348072
 20
84.552192253987187
 30
0.0
 40
0.8554656875134579
 50
134.98425517653851
 51
191.00577087282539
  0
LINE
  5
60E1
  8
0
 10
173.89940157532689
 20
84.002590924501405
 30
0.0
 11
173.82880918681619
 21
84.388876985758543
 31
0.0
  0
LINE
  5
60E2
  8
0
 10
173.9621187001467
 20
83.61494792625308
 30
0.0
 11
173.89940157532689
 21
84.002590924501405
 31
0.0
  0
ARC
  5
60E3
  8
0
 10
174.8080975417069
 20
83.741997849108543
 30
0.0
 40
0.8554656875134813
 50
188.5409142139697
 51
244.56242991036811
  0
ARC
  5
60E4
  8
0
 10
175.39816778194441
 20
85.150588336272506
 30
0.0
 40
2.3820433783524582
 50
246.29844662317419
 51
277.10755696871252
  0
ARC
  5
60E5
  8
0
 10
175.16733188735989
 20
73.007258722824872
 30
0.0
 40
9.7937031195024744
 50
60.743476233902257
 51
86.923787212472732
  0
ARC
  5
60E6
  8
0
 10
149.9999991059303
 20
79.885897412896156
 30
0.0
 40
30.000000000000011
 50
0.0000000000008142
 51
3.1830487231524698
  0
ARC
  5
60E7
  8
0
 10
174.7465605853773
 20
88.151368028881734
 30
0.0
 40
9.7937031195023998
 50
276.25926151068438
 51
302.43957248925079
  0
ARC
  5
60E8
  8
0
 10
149.9999991059303
 20
79.885897412896156
 30
0.0
 40
30.000000000000011
 50
343.63636363636402
 51
346.81941235951621
  0
ARC
  5
60E9
  8
0
 10
175.695883758441
 20
83.422202622971795
 30
0.0
 40
2.3820433783524031
 50
102.4391281180678
 51
133.24823846365891
  0
ARC
  5
60EA
  8
0
 10
149.9999991059303
 20
79.885897412896156
 30
0.0
 40
30.000000000000039
 50
32.72727272727365
 51
35.910321450426594
  0
ARC
  5
60EB
  8
0
 10
149.9999991059303
 20
79.885897412896156
 30
0.0
 40
30.000000000000028
 50
196.36363636363751
 51
199.54668508678969
  0
ARC
  5
60EC
  8
0
 10
149.9999991059303
 20
79.885897412896156
 30
0.0
 40
30.000000000000039
 50
212.72727272727431
 51
215.91032145042689
  0
ARC
  5
60ED
  8
0
 10
149.9999991059303
 20
79.885897412896156
 30
0.0
 40
30.0
 50
229.09090909091009
 51
232.27395781406139
  0
ARC
  5
60EE
  8
0
 10
149.9999991059303
 20
79.885897412896156
 30
0.0
 40
30.000000000000021
 50
245.4545454545478
 51
248.63759417769731
  0
ARC
  5
60EF
  8
0
 10
149.9999991059303
 20
79.885897412896156
 30
0.0
 40
30.000000000000021
 50
261.8181818181838
 51
265.00123054133581
  0
ARC
  5
60F0
  8
0
 10
149.9999991059303
 20
79.885897412896156
 30
0.0
 40
30.000000000000011
 50
278.18181818181949
 51
281.36486690497139
  0
ARC
  5
60F1
  8
0
 10
149.9999991059303
 20
79.885897412896156
 30
0.0
 40
30.000000000000011
 50
294.5454545454557
 51
297.72850326860748
  0
ARC
  5
60F2
  8
0
 10
149.9999991059303
 20
79.885897412896156
 30
0.0
 40
30.000000000000021
 50
310.90909090909008
 51
314.09213963224482
  0
ARC
  5
60F3
  8
0
 10
149.9999991059303
 20
79.885897412896156
 30
0.0
 40
30.000000000000039
 50
327.27272727272668
 51
330.45577599588108
  0
ARC
  5
60F4
  8
0
 10
149.9999991059303
 20
79.885897412896156
 30
0.0
 40
30.000000000000028
 50
98.18181818181948
 51
101.36486690497151
  0
ARC
  5
60F5
  8
0
 10
149.9999991059303
 20
79.885897412896156
 30
0.0
 40
30.000000000000021
 50
16.363636363636719
 51
19.546685086788941
  0
ARC
  5
60F6
  8
0
 10
149.9999991059303
 20
79.885897412896156
 30
0.0
 40
30.000000000000028
 50
81.818181818180506
 51
85.001230541332518
  0
ARC
  5
60F7
  8
0
 10
149.9999991059303
 20
79.885897412896156
 30
0.0
 40
30.000000000000011
 50
49.090909090910131
 51
52.27395781406144
  0
ARC
  5
60F8
  8
0
 10
149.9999991059303
 20
79.885897412896156
 30
0.0
 40
30.000000000000021
 50
65.454545454544288
 51
68.637594177697295
  0
ARC
  5
60F9
  8
0
 10
149.9999991059303
 20
79.885897412896156
 30
0.0
 40
30.000000000000021
 50
180.0
 51
183.18304872315329
  0
LINE
  5
60FD
  8
0
 10
75.000000372529016
 20
59.885897859930992
 30
0.0
 11
89.999999105930314
 21
59.885897859930992
 31
0.0
  0
LINE
  5
60FE
  8
0
 10
89.999999105930314
 20
99.88589696586132
 30
0.0
 11
75.000000372529016
 21
99.88589696586132
 31
0.0
  0
LINE
  5
60FF
  8
3
 10
50.0
 20
78.220114181749523
 30
0.0
 11
75.000000372529016
 21
78.220114181749523
 31
0.0
  0
LINE
  5
6101
  8
3
 10
75.000000372529016
 20
79.885897412896156
 30
0.0
 11
50.0
 21
79.885897412896156
 31
0.0
  0
LINE
  5
610A
  8
3
 10
50.0
 20
86.726527381688356
 30
0.0
 11
75.000000372529016
 21
86.726527381688356
 31
0.0
  0
LINE
  5
610D
  8
3
 10
75.000000372529016
 20
88.337874226272106
 30
0.0
 11
50.0
 21
88.337874226272106
 31
0.0
  0
LINE
  5
6110
  8
3
 10
75.000000372529016
 20
71.433920599520206
 30
0.0
 11
50.0
 21
71.433920599520206
 31
0.0
  0
LINE
  5
6111
  8
3
 10
50.0
 20
69.848653115332127
 30
0.0
 11
75.000000372529016
 21
69.848653115332127
 31
0.0
  0
LINE
  5
611C
  8
3
 10
50.0
 20
94.678753241896615
 30
0.0
 11
75.000000372529016
 21
94.678753241896615
 31
0.0
  0
LINE
  5
611F
  8
3
 10
75.000000372529016
 20
96.105122193694115
 30
0.0
 11
50.0
 21
96.105122193694115
 31
0.0
  0
LINE
  5
612B
  8
3
 10
75.000000372529016
 20
63.666672632098191
 30
0.0
 11
50.0
 21
63.666672632098191
 31
0.0
  0
LINE
  5
612F
  8
3
 10
50.0
 20
62.290349230170243
 30
0.0
 11
75.000000372529016
 21
62.290349230170243
 31
0.0
  0
LINE
  5
615F
  8
3
 10
75.000000372529016
 20
102.55838483572001
 30
0.0
 11
50.0
 21
102.55838483572001
 31
0.0
  0
LINE
  5
6160
  8
3
 10
50.0
 20
101.43254995346069
 30
0.0
 11
75.000000372529016
 21
101.43254995346069
 31
0.0
  0
LINE
  5
6166
  8
0
 10
89.999999105930314
 20
59.885897859930992
 30
0.0
 11
89.999999105930314
 21
99.88589696586132
 31
0.0
  0
LINE
  5
6167
  8
3
 10
75.000000372529016
 20
57.21340999007225
 30
0.0
 11
50.0
 21
57.21340999007225
 31
0.0
  0
LINE
  5
6168
  8
3
 10
50.0
 20
56.157532334327691
 30
0.0
 11
75.000000372529016
 21
56.157532334327691
 31
0.0
  0
LINE
  5
6175
  8
3
 10
50.0
 20
106.4407650381326
 30
0.0
 11
75.000000372529016
 21
106.4407650381326
 31
0.0
  0
LINE
  5
6178
  8
3
 10
75.000000372529016
 20
107.1748577058315
 30
0.0
 11
50.0
 21
107.1748577058315
 31
0.0
  0
LINE
  5
617B
  8
3
 10
75.000000372529016
 20
52.596937119960778
 30
0.0
 11
50.0
 21
52.596937119960778
 31
0.0
  0
LINE
  5
617E
  8
3
 10
50.0
 20
51.947047188878052
 30
0.0
 11
75.000000372529016
 21
51.947047188878052
 31
0.0
  0
LINE
  5
6181
  8
3
 10
50.0
 20
109.2976622283458
 30
0.0
 11
75.000000372529016
 21
109.2976622283458
 31
0.0
  0
LINE
  5
6184
  8
3
 10
75.000000372529016
 20
109.5805402845144
 30
0.0
 11
50.0
 21
109.5805402845144
 31
0.0
  0
LINE
  5
6187
  8
3
 10
75.000000372529016
 20
50.191254541277878
 30
0.0
 11
50.0
 21
50.191254541277878
 31
0.0
  0
LINE
  5
618A
  8
0
 10
50.0
 20
50.0
 30
0.0
 11
75.000000372529016
 21
50.0
 31
0.0
  0
LINE
  5
618B
  8
0
 10
75.000000372529016
 20
50.0
 30
0.0
 11
75.000000372529016
 21
109.7717948257923
 31
0.0
  0
LINE
  5
618C
  8
0
 10
50.0
 20
50.0
 30
0.0
 11
50.0
 21
109.7717948257923
 31
0.0
  0
LINE
  5
618D
  8
0
 10
50.0
 20
109.7717948257923
 30
0.0
 11
75.000000372529016
 21
109.7717948257923
 31
0.0
  0
LINE
  5
61A5
  8
2
 10
89.999999105930314
 20
89.425289258360863
 30
0.0
 11
50.0
 21
89.425289258360863
 31
0.0
  0
LINE
  5
61B0
  8
2
 10
89.999999105930314
 20
92.685897089540944
 30
0.0
 11
50.0
 21
92.685897089540944
 31
0.0
  0
LINE
  5
61FF
  8
2
 10
50.0
 20
69.885897636413574
 30
0.0
 11
89.999999105930314
 21
69.885897636413574
 31
0.0
  0
LINE
  5
6210
  8
1
 10
149.9999991059303
 20
113.8858974128961
 30
0.0
 11
149.9999991059303
 21
45.885897412896163
 31
0.0
  0
LINE
  5
6211
  8
1
 10
183.9999991059303
 20
79.885897412896156
 30
0.0
 11
115.9999991059303
 21
79.885897412896156
 31
0.0
  0
LINE
  5
6253
  8
1
 10
46.0
 20
79.885897412896156
 30
0.0
 11
93.999999105930328
 21
79.885897412896156
 31
0.0
  0
CIRCLE
  5
6256
  8
5
 10
149.9999991059303
 20
79.885897412896156
 30
0.0
 40
27.5
  0
ENDSEC
  0
EOF
