  0
SECTION
  2
HEADER
  9
$ACADVER
  1
AC1009
  9
$INSBASE
 10
0.0
 20
0.0
 30
0.0
  9
$EXTMIN
 10
0.0
 20
-2.960436562073669
 30
0.0
  9
$EXTMAX
 10
171.0
 20
95.999999999999972
 30
0.0
  9
$LIMMIN
 10
0.0
 20
0.0
  9
$LIMMAX
 10
275.0
 20
175.0
  9
$ORTHOMODE
 70
     1
  9
$REGENMODE
 70
     1
  9
$FILLMODE
 70
     1
  9
$QTEXTMODE
 70
     0
  9
$MIRRTEXT
 70
     0
  9
$DRAGMODE
 70
     2
  9
$LTSCALE
 40
5.0
  9
$OSMODE
 70
    37
  9
$ATTMODE
 70
     1
  9
$TEXTSIZE
 40
0.2
  9
$TRACEWID
 40
0.05
  9
$TEXTSTYLE
  7
STANDARD
  9
$CLAYER
  8
0
  9
$CELTYPE
  6
BYLAYER
  9
$CECOLOR
 62
   256
  9
$DIMSCALE
 40
1.0
  9
$DIMASZ
 40
3.0
  9
$DIMEXO
 40
1.0
  9
$DIMDLI
 40
6.0
  9
$DIMRND
 40
0.0
  9
$DIMDLE
 40
0.0
  9
$DIMEXE
 40
1.0
  9
$DIMTP
 40
495.0
  9
$DIMTM
 40
0.0
  9
$DIMTXT
 40
3.0
  9
$DIMCEN
 40
0.0
  9
$DIMTSZ
 40
0.0
  9
$DIMTOL
 70
     0
  9
$DIMLIM
 70
     0
  9
$DIMTIH
 70
     0
  9
$DIMTOH
 70
     0
  9
$DIMSE1
 70
     0
  9
$DIMSE2
 70
     0
  9
$DIMTAD
 70
     1
  9
$DIMZIN
 70
     8
  9
$DIMBLK
  1

  9
$DIMASO
 70
     0
  9
$DIMSHO
 70
     0
  9
$DIMPOST
  1

  9
$DIMAPOST
  1

  9
$DIMALT
 70
     0
  9
$DIMALTD
 70
     2
  9
$DIMALTF
 40
25.399999999999999
  9
$DIMLFAC
 40
1.0
  9
$DIMTOFL
 70
     1
  9
$DIMTVP
 40
0.0
  9
$DIMTIX
 70
     1
  9
$DIMSOXD
 70
     0
  9
$DIMSAH
 70
     0
  9
$DIMBLK1
  1

  9
$DIMBLK2
  1

  9
$DIMSTYLE
  2
STANDARD
  9
$DIMCLRD
 70
     0
  9
$DIMCLRE
 70
     0
  9
$DIMCLRT
 70
     0
  9
$DIMTFAC
 40
1.0
  9
$DIMGAP
 40
1.0
  9
$LUNITS
 70
     2
  9
$LUPREC
 70
     1
  9
$SKETCHINC
 40
0.1
  9
$FILLETRAD
 40
0.0
  9
$AUNITS
 70
     0
  9
$AUPREC
 70
     0
  9
$MENU
  1
E:\r13\win\SUPPORT\ACAD
  9
$ELEVATION
 40
0.0
  9
$PELEVATION
 40
0.0
  9
$THICKNESS
 40
0.0
  9
$LIMCHECK
 70
     0
  9
$BLIPMODE
 70
     0
  9
$CHAMFERA
 40
0.0
  9
$CHAMFERB
 40
0.0
  9
$SKPOLY
 70
     0
  9
$TDCREATE
 40
2450653.5278402781
  9
$TDUPDATE
 40
2459439.6128713661
  9
$TDINDWG
 40
0.427950625
  9
$TDUSRTIMER
 40
0.427950625
  9
$USRTIMER
 70
     1
  9
$ANGBASE
 50
0.0
  9
$ANGDIR
 70
     0
  9
$PDMODE
 70
     0
  9
$PDSIZE
 40
0.0
  9
$PLINEWID
 40
0.0
  9
$COORDS
 70
     1
  9
$SPLFRAME
 70
     0
  9
$SPLINETYPE
 70
     6
  9
$SPLINESEGS
 70
     8
  9
$ATTDIA
 70
     0
  9
$ATTREQ
 70
     1
  9
$HANDLING
 70
     1
  9
$HANDSEED
  5
492B
  9
$SURFTAB1
 70
     6
  9
$SURFTAB2
 70
     6
  9
$SURFTYPE
 70
     6
  9
$SURFU
 70
     6
  9
$SURFV
 70
     6
  9
$UCSNAME
  2

  9
$UCSORG
 10
0.0
 20
0.0
 30
0.0
  9
$UCSXDIR
 10
1.0
 20
0.0
 30
0.0
  9
$UCSYDIR
 10
0.0
 20
1.0
 30
0.0
  9
$PUCSNAME
  2

  9
$PUCSORG
 10
0.0
 20
0.0
 30
0.0
  9
$PUCSXDIR
 10
1.0
 20
0.0
 30
0.0
  9
$PUCSYDIR
 10
0.0
 20
1.0
 30
0.0
  9
$USERI1
 70
     4
  9
$USERI2
 70
     1
  9
$USERI3
 70
     1
  9
$USERI4
 70
     0
  9
$USERI5
 70
     0
  9
$USERR1
 40
1.0
  9
$USERR2
 40
3.0
  9
$USERR3
 40
3.0
  9
$USERR4
 40
3.0
  9
$USERR5
 40
10.0
  9
$WORLDVIEW
 70
     1
  9
$SHADEDGE
 70
     3
  9
$SHADEDIF
 70
    70
  9
$TILEMODE
 70
     1
  9
$MAXACTVP
 70
    16
  9
$PLIMCHECK
 70
     0
  9
$PEXTMIN
 10
1.0000000000000000E+020
 20
1.0000000000000000E+020
 30
1.0000000000000000E+020
  9
$PEXTMAX
 10
-1.0000000000000000E+020
 20
-1.0000000000000000E+020
 30
-1.0000000000000000E+020
  9
$PLIMMIN
 10
0.0
 20
0.0
  9
$PLIMMAX
 10
12.0
 20
9.0
  9
$UNITMODE
 70
     0
  9
$VISRETAIN
 70
     0
  9
$PLINEGEN
 70
     0
  9
$PSLTSCALE
 70
     0
  0
ENDSEC
  0
SECTION
  2
TABLES
  0
TABLE
  2
VPORT
 70
     1
  0
VPORT
  2
*ACTIVE
 70
     0
 10
0.0
 20
0.0
 11
1.0
 21
1.0
 12
260.1957585644372
 22
100.0
 13
0.0
 23
0.0
 14
5.0
 24
5.0
 15
10.0
 25
10.0
 16
0.0
 26
0.0
 36
1.0
 17
0.0
 27
0.0
 37
0.0
 40
200.0
 41
2.6019575856443722
 42
50.0
 43
0.0
 44
0.0
 50
0.0
 51
0.0
 71
     0
 72
   100
 73
     1
 74
     0
 75
     0
 76
     0
 77
     0
 78
     0
  0
ENDTAB
  0
TABLE
  2
LTYPE
 70
     5
  0
LTYPE
  2
CONTINUOUS
 70
     0
  3
Solid Line
 72
    65
 73
     0
 40
0.0
  0
LTYPE
  2
CENTER
 70
     0
  3
____ _ ____ _ ____ _ ____ _ ____ _ ____ _ ____ 
 72
    65
 73
     4
 40
2.0
 49
1.25
 49
-0.25
 49
0.25
 49
-0.25
  0
LTYPE
  2
HIDDEN
 70
     0
  3
__ __ __ __ __ __ __ __ __ __ __ __ __ __ __ __
 72
    65
 73
     2
 40
0.375
 49
0.25
 49
-0.125
  0
LTYPE
  2
PHANTOM
 70
     0
  3
_____ _ _ _____ _ _ _____ _ _ _____ _ _ ____
 72
    65
 73
     6
 40
2.5
 49
1.25
 49
-0.25
 49
0.25
 49
-0.25
 49
0.25
 49
-0.25
  0
LTYPE
  2
PHANTOM2
 70
     0
  3
___ _ _ ___ _ _ ___ _ _ ___ _ _
 72
    65
 73
     6
 40
1.25
 49
0.625
 49
-0.125
 49
0.125
 49
-0.125
 49
0.125
 49
-0.125
  0
ENDTAB
  0
TABLE
  2
LAYER
 70
     6
  0
LAYER
  2
0
 70
     0
 62
     7
  6
CONTINUOUS
  0
LAYER
  2
1
 70
     0
 62
     1
  6
CENTER
  0
LAYER
  2
2
 70
     0
 62
     2
  6
HIDDEN
  0
LAYER
  2
5
 70
     0
 62
     3
  6
PHANTOM
  0
LAYER
  2
DEFPOINTS
 70
     0
 62
     7
  6
CONTINUOUS
  0
LAYER
  2
3
 70
     0
 62
     3
  6
CONTINUOUS
  0
ENDTAB
  0
TABLE
  2
STYLE
 70
     2
  0
STYLE
  2
STANDARD
 70
     0
 40
0.0
 41
1.0
 50
0.0
 71
     0
 42
0.2
  3
simplex
  4
bigfont
  0
STYLE
  2
STANDARD1
 70
     0
 40
0.0
 41
1.0
 50
0.0
 71
     0
 42
3.0
  3
txt
  4

  0
ENDTAB
  0
TABLE
  2
VIEW
 70
     0
  0
ENDTAB
  0
TABLE
  2
UCS
 70
     0
  0
ENDTAB
  0
TABLE
  2
APPID
 70
    10
  0
APPID
  2
ACAD
 70
     0
  0
APPID
  2
_CALL_MAC$
 70
     0
  0
APPID
  2
ACAD_MLEADERVER
 70
     0
  0
APPID
  2
ACAD_EXEMPT_FROM_CAD_STANDARDS
 70
     0
  0
APPID
  2
ACAD_NAV_VCDISPLAY
 70
     0
  0
APPID
  2
ACAD_DSTYLE_DIMJAG
 70
     0
  0
APPID
  2
ACAD_DSTYLE_DIMTALN
 70
     0
  0
APPID
  2
ACAECLAYERSTANDARD
 70
     0
  0
APPID
  2
ACCMTRANSPARENCY
 70
     0
  0
APPID
  2
ACAD_DSTYLE_DIMRADIAL_EXTENSION
 70
     0
  0
ENDTAB
  0
TABLE
  2
DIMSTYLE
 70
     1
  0
DIMSTYLE
  2
STANDARD
 70
     0
  3

  4

  5

  6

  7

 40
1.0
 41
0.18
 42
0.0625
 43
0.38
 44
0.18
 45
0.0
 46
0.0
 47
0.0
 48
0.0
140
0.18
141
0.09
142
0.0
143
25.399999999999999
144
1.0
145
0.0
146
1.0
147
0.09
 71
     0
 72
     0
 73
     1
 74
     1
 75
     0
 76
     0
 77
     0
 78
     0
170
     0
171
     2
172
     0
173
     0
174
     0
175
     0
176
     0
177
     0
178
     0
  0
ENDTAB
  0
ENDSEC
  0
SECTION
  2
BLOCKS
  0
BLOCK
  8
0
  2
$MODEL_SPACE
 70
     2
 10
0.0
 20
0.0
 30
0.0
  3
$MODEL_SPACE
  1

  0
ENDBLK
  5
7
  8
0
  0
BLOCK
 67
     1
  8
0
  2
$PAPER_SPACE
 70
     0
 10
0.0
 20
0.0
 30
0.0
  3
$PAPER_SPACE
  1

  0
ENDBLK
  5
A
 67
     1
  8
0
  0
ENDSEC
  0
SECTION
  2
ENTITIES
  0
TEXT
  5
2BF
  8
0
 62
     3
 10
0.0
 20
0.0
 30
0.0
 40
10.0
  1
ZCL-3.0-12-A12-K
  7
STANDARD1
  0
LINE
  5
4723
  8
0
 10
144.0
 20
78.799999999999983
 30
0.0
 11
144.0
 21
76.656854249492369
 31
0.0
  0
CIRCLE
  5
4724
  8
0
 10
146.0
 20
71.0
 30
0.0
 40
12.5
  0
LINE
  5
4725
  8
0
 10
148.0
 20
78.799999999999983
 30
0.0
 11
144.0
 21
78.799999999999983
 31
0.0
  0
LINE
  5
4726
  8
0
 10
148.0
 20
76.656854249492369
 30
0.0
 11
148.0
 21
78.799999999999983
 31
0.0
  0
ARC
  5
4727
  8
0
 10
146.0
 20
71.0
 30
0.0
 40
6.0000000000000018
 50
109.4712206344895
 51
70.528779365510459
  0
ARC
  5
4728
  8
0
 10
161.77807681511621
 20
65.872773211029767
 30
0.0
 40
3.5930000000000111
 50
71.672295732416202
 51
100.93512496249259
  0
ARC
  5
4729
  8
0
 10
161.36495193773291
 20
67.792792918439886
 30
0.0
 40
1.630000000000031
 50
99.479695318053274
 51
134.63081750528099
  0
ARC
  5
472A
  8
0
 10
161.06482625633581
 20
68.126289633417784
 30
0.0
 40
1.1820000000000219
 50
135.63473258406231
 51
170.564279142494
  0
LINE
  5
472B
  8
0
 10
159.8157740526411
 20
67.919441397897089
 30
0.0
 11
159.89881854510111
 21
68.320067901913845
 31
0.0
  0
LINE
  5
472C
  8
0
 10
159.7210470798031
 20
67.520997264470395
 30
0.0
 11
159.8157740526411
 21
67.919441397897089
 31
0.0
  0
ARC
  5
472D
  8
0
 10
160.85888694225079
 20
67.200927822902784
 30
0.0
 40
1.1820000000000761
 50
164.2889366089039
 51
199.20042978489749
  0
ARC
  5
472E
  8
0
 10
161.27157142369339
 20
67.377229597166092
 30
0.0
 40
1.6300000000000061
 50
200.2822141100421
 51
235.4145663285943
  0
ARC
  5
472F
  8
0
 10
162.46287754101661
 20
68.938704834745522
 30
0.0
 40
3.5930000000000111
 50
233.90852992003099
 51
263.16563855113492
  0
ARC
  5
4730
  8
0
 10
157.7132196977164
 20
58.474654170169302
 30
0.0
 40
8.1390000000000438
 50
26.283170134186332
 51
57.92459633395238
  0
ARC
  5
4731
  8
0
 10
162.97286018123549
 20
68.54800087755612
 30
0.0
 40
8.1389999999999691
 50
246.93673044086631
 51
278.57583033806748
  0
ARC
  5
4732
  8
0
 10
157.10060195026779
 20
58.670652942229538
 30
0.0
 40
3.5929999999999982
 50
41.672295732416679
 51
70.935124962490889
  0
ARC
  5
4733
  8
0
 10
157.7028351652236
 20
60.54000122330509
 30
0.0
 40
1.6300000000000261
 50
69.479695318049011
 51
104.63081750527731
  0
ARC
  5
4734
  8
0
 10
157.60966705829441
 20
60.978880691253202
 30
0.0
 40
1.1820000000000099
 50
105.63473258406221
 51
140.56427914248991
  0
LINE
  5
4735
  8
0
 10
156.42453200148159
 20
61.424270966411591
 30
0.0
 11
156.69676389360481
 21
61.729701450089507
 31
0.0
  0
LINE
  5
4736
  8
0
 10
156.14327396986701
 20
61.126571711294112
 30
0.0
 11
156.42453200148159
 21
61.424270966411591
 31
0.0
  0
ARC
  5
4737
  8
0
 10
156.96863747540141
 20
60.2804635126978
 30
0.0
 40
1.1819999999999879
 50
134.28893660890981
 51
169.20042978490221
  0
ARC
  5
4738
  8
0
 10
157.41418360721011
 20
60.226803087220688
 30
0.0
 40
1.630000000000003
 50
170.28221411004461
 51
205.41456632859149
  0
ARC
  5
4739
  8
0
 10
159.22662258728539
 20
60.983427251683253
 30
0.0
 40
3.593000000000016
 50
203.9085299200309
 51
233.1656385511327
  0
ARC
  5
473A
  8
0
 10
149.88127290341529
 20
54.296122471322839
 30
0.0
 40
8.1390000000000473
 50
356.28317013418882
 51
27.924596333952909
  0
ARC
  5
473B
  8
0
 10
159.47292853060941
 20
60.390076379288658
 30
0.0
 40
8.1389999999999798
 50
216.93673044086441
 51
248.57583033806711
  0
ARC
  5
473C
  8
0
 10
149.44872975734569
 20
54.772171260761937
 30
0.0
 40
3.5930000000000111
 50
11.6722957324183
 51
40.93512496249437
  0
ARC
  5
473D
  8
0
 10
150.90495316103801
 20
56.08995775321624
 30
0.0
 40
1.6300000000000181
 50
39.479695318054738
 51
74.630817505279012
  0
ARC
  5
473E
  8
0
 10
151.04370694758899
 20
56.516622575123229
 30
0.0
 40
1.182000000000057
 50
75.634732584061126
 51
110.5642791424897
  0
LINE
  5
473F
  8
0
 10
150.24004501905279
 20
57.494909396415373
 30
0.0
 11
150.62851999519069
 21
57.623304008309077
 31
0.0
  0
LINE
  5
4740
  8
0
 10
149.8476187910974
 20
57.377723294603278
 30
0.0
 11
150.24004501905279
 21
57.494909396415373
 31
0.0
  0
ARC
  5
4741
  8
0
 10
150.1393504549485
 20
56.23229034750134
 30
0.0
 40
1.182000000000003
 50
104.28893660890741
 51
139.20042978490071
  0
ARC
  5
4742
  8
0
 10
150.49837451091409
 20
55.963045989955987
 30
0.0
 40
1.6299999999999859
 50
140.2822141100431
 51
175.41456632859121
  0
ARC
  5
4743
  8
0
 10
152.44630479269989
 20
55.712082247460053
 30
0.0
 40
3.5930000000000191
 50
173.90852992003019
 51
203.16563855113489
  0
ARC
  5
4744
  8
0
 10
141.0093421690394
 20
54.593381266753838
 30
0.0
 40
8.1389999999999585
 50
326.28317013418791
 51
357.9245963339543
  0
ARC
  5
4745
  8
0
 10
146.0
 20
71.0
 30
0.0
 40
21.0
 50
270.0
 51
274.86038946529141
  0
ARC
  5
4746
  8
0
 10
152.3629365605243
 20
55.075072346946712
 30
0.0
 40
8.1390000000000544
 50
186.93673044086569
 51
218.57583033806719
  0
ARC
  5
4747
  8
0
 10
140.87277321102979
 20
55.221923184883742
 30
0.0
 40
3.5929999999999942
 50
341.672295732419
 51
10.935124962493459
  0
ARC
  5
4748
  8
0
 10
142.79279291843989
 20
55.635048062266989
 30
0.0
 40
1.6300000000000181
 50
9.4796953180542722
 51
44.630817505273107
  0
ARC
  5
4749
  8
0
 10
143.12628963341771
 20
55.935173743664137
 30
0.0
 40
1.1820000000000499
 50
45.634732584053509
 51
80.564279142490335
  0
LINE
  5
474A
  8
0
 10
142.91944139789709
 20
57.18422594735879
 30
0.0
 11
143.32006790191389
 21
57.101181454898821
 31
0.0
  0
LINE
  5
474B
  8
0
 10
142.5209972644704
 20
57.278952920196737
 30
0.0
 11
142.91944139789709
 21
57.18422594735879
 31
0.0
  0
ARC
  5
474C
  8
0
 10
142.20092782290271
 20
56.141113057749173
 30
0.0
 40
1.182000000000043
 50
74.288936608903711
 51
109.2004297848907
  0
ARC
  5
474D
  8
0
 10
142.37722959716609
 20
55.728428576306449
 30
0.0
 40
1.630000000000031
 50
110.28221411003879
 51
145.41456632859001
  0
ARC
  5
474E
  8
0
 10
143.93870483474549
 20
54.53712245898334
 30
0.0
 40
3.593000000000012
 50
143.90852992003209
 51
173.16563855113341
  0
ARC
  5
474F
  8
0
 10
133.47465417016929
 20
59.286780302283503
 30
0.0
 40
8.1390000000000366
 50
296.28317013418689
 51
327.92459633395561
  0
ARC
  5
4750
  8
0
 10
143.54800087755621
 20
54.027139818764333
 30
0.0
 40
8.1390000000000153
 50
156.93673044086489
 51
188.5758303380664
  0
ARC
  5
4751
  8
0
 10
133.67065294222959
 20
59.899398049732163
 30
0.0
 40
3.5929999999999391
 50
311.6722957324194
 51
340.93512496249468
  0
ARC
  5
4752
  8
0
 10
135.5400012233051
 20
59.297164834776332
 30
0.0
 40
1.630000000000023
 50
339.47969531805433
 51
14.630817505275751
  0
ARC
  5
4753
  8
0
 10
135.9788806912531
 20
59.390332941705452
 30
0.0
 40
1.182000000000035
 50
15.634732584057661
 51
50.564279142488608
  0
LINE
  5
4754
  8
0
 10
136.42427096641151
 20
60.575467998518278
 30
0.0
 11
136.72970145008961
 21
60.30323610639514
 31
0.0
  0
LINE
  5
4755
  8
0
 10
136.1265717112941
 20
60.85672603013289
 30
0.0
 11
136.42427096641151
 21
60.575467998518278
 31
0.0
  0
ARC
  5
4756
  8
0
 10
135.28046351269779
 20
60.031362524598542
 30
0.0
 40
1.1819999999999731
 50
44.288936608905829
 51
79.200429784894382
  0
ARC
  5
4757
  8
0
 10
135.2268030872207
 20
59.585816392789873
 30
0.0
 40
1.630000000000003
 50
80.282214110039519
 51
115.4145663285902
  0
ARC
  5
4758
  8
0
 10
135.9834272516832
 20
57.773377412714517
 30
0.0
 40
3.5930000000000022
 50
113.9085299200313
 51
143.16563855113469
  0
ARC
  5
4759
  8
0
 10
129.2961224713228
 20
67.118727096584564
 30
0.0
 40
8.1390000000000171
 50
266.28317013418939
 51
297.92459633395339
  0
ARC
  5
475A
  8
0
 10
135.39007637928859
 20
57.527071469390499
 30
0.0
 40
8.1389999999999603
 50
126.9367304408634
 51
158.57583033806651
  0
ARC
  5
475B
  8
0
 10
129.77217126076181
 20
67.551270242654226
 30
0.0
 40
3.593000000000024
 50
281.67229573241758
 51
310.93512496249451
  0
ARC
  5
475C
  8
0
 10
131.08995775321611
 20
66.095046838961906
 30
0.0
 40
1.6300000000000281
 50
309.47969531805649
 51
344.63081750527402
  0
ARC
  5
475D
  8
0
 10
131.51662257512311
 20
65.956293052410956
 30
0.0
 40
1.1820000000000781
 50
345.63473258405622
 51
20.564279142490498
  0
LINE
  5
475E
  8
0
 10
132.4949093964153
 20
66.759954980947185
 30
0.0
 11
132.62330400830911
 21
66.371480004809285
 31
0.0
  0
LINE
  5
475F
  8
0
 10
132.37772329460319
 20
67.152381208902597
 30
0.0
 11
132.4949093964153
 21
66.759954980947185
 31
0.0
  0
ARC
  5
4760
  8
0
 10
131.2322903475013
 20
66.860649545051416
 30
0.0
 40
1.181999999999972
 50
14.28893660890685
 51
49.200429784901083
  0
ARC
  5
4761
  8
0
 10
130.9630459899559
 20
66.501625489085797
 30
0.0
 40
1.6300000000000019
 50
50.282214110042297
 51
85.414566328592471
  0
ARC
  5
4762
  8
0
 10
130.71208224745999
 20
64.553695207300123
 30
0.0
 40
3.5929999999999458
 50
83.908529920028954
 51
113.16563855113451
  0
ARC
  5
4763
  8
0
 10
129.59338126675379
 20
75.990657830960572
 30
0.0
 40
8.1390000000000011
 50
236.2831701341868
 51
267.92459633395458
  0
ARC
  5
4764
  8
0
 10
146.0
 20
71.0
 30
0.0
 40
21.000000000000011
 50
180.0
 51
184.86038946529311
  0
ARC
  5
4765
  8
0
 10
130.0750723469466
 20
64.637063439475611
 30
0.0
 40
8.1390000000000668
 50
96.936730440864594
 51
128.57583033806469
  0
ARC
  5
4766
  8
0
 10
130.22192318488371
 20
76.127226788970205
 30
0.0
 40
3.5929999999999751
 50
251.6722957324196
 51
280.93512496249588
  0
ARC
  5
4767
  8
0
 10
130.63504806226689
 20
74.207207081560085
 30
0.0
 40
1.630000000000023
 50
279.47969531805649
 51
314.63081750527209
  0
ARC
  5
4768
  8
0
 10
130.93517374366411
 20
73.873710366582173
 30
0.0
 40
1.1820000000000599
 50
315.63473258405247
 51
350.5642791424907
  0
LINE
  5
4769
  8
0
 10
132.1842259473587
 20
74.080558602102911
 30
0.0
 11
132.10118145489869
 21
73.679932098086013
 31
0.0
  0
LINE
  5
476A
  8
0
 10
132.2789529201967
 20
74.479002735529605
 30
0.0
 11
132.1842259473587
 21
74.080558602102911
 31
0.0
  0
ARC
  5
476B
  8
0
 10
131.14111305774921
 20
74.799072177097173
 30
0.0
 40
1.181999999999986
 50
344.28893660890662
 51
19.200429784894911
  0
ARC
  5
476C
  8
0
 10
130.72842857630641
 20
74.622770402833908
 30
0.0
 40
1.6299999999999879
 50
20.28221411004035
 51
55.414566328594191
  0
ARC
  5
476D
  8
0
 10
129.5371224589833
 20
73.061295165254435
 30
0.0
 40
3.5930000000000151
 50
53.908529920030929
 51
83.165638551134876
  0
ARC
  5
476E
  8
0
 10
134.2867803022834
 20
83.525345829830627
 30
0.0
 40
8.1389999999999407
 50
206.28317013418939
 51
237.924596333956
  0
ARC
  5
476F
  8
0
 10
146.0
 20
71.0
 30
0.0
 40
21.000000000000011
 50
149.99999999999909
 51
154.8603894652924
  0
ARC
  5
4770
  8
0
 10
129.02713981876431
 20
73.451999122443851
 30
0.0
 40
8.1389999999999816
 50
66.936730440862789
 51
98.575830338064307
  0
ARC
  5
4771
  8
0
 10
134.8993980497321
 20
83.329347057770406
 30
0.0
 40
3.5929999999999751
 50
221.67229573242039
 51
250.9351249624944
  0
ARC
  5
4772
  8
0
 10
134.29716483477631
 20
81.459998776694903
 30
0.0
 40
1.6300000000000501
 50
249.479695318056
 51
284.63081750527391
  0
ARC
  5
4773
  8
0
 10
134.3903329417054
 20
81.02111930874679
 30
0.0
 40
1.1820000000000479
 50
285.63473258405548
 51
320.564279142489
  0
LINE
  5
4774
  8
0
 10
135.57546799851821
 20
80.575729033588402
 30
0.0
 11
135.30323610639499
 21
80.270298549910422
 31
0.0
  0
LINE
  5
4775
  8
0
 10
135.8567260301329
 20
80.873428288705867
 30
0.0
 11
135.57546799851821
 21
80.575729033588402
 31
0.0
  0
ARC
  5
4776
  8
0
 10
135.03136252459851
 20
81.719536487302207
 30
0.0
 40
1.1819999999999891
 50
314.28893660890958
 51
349.20042978489869
  0
ARC
  5
4777
  8
0
 10
134.58581639278981
 20
81.773196912779284
 30
0.0
 40
1.629999999999967
 50
350.28221411004318
 51
25.41456632859148
  0
ARC
  5
4778
  8
0
 10
132.77337741271441
 20
81.016572748316705
 30
0.0
 40
3.5929999999999991
 50
23.908529920030919
 51
53.165638551132673
  0
ARC
  5
4779
  8
0
 10
142.11872709658451
 20
87.703877528677083
 30
0.0
 40
8.1390000000000242
 50
176.28317013418729
 51
207.92459633395319
  0
ARC
  5
477A
  8
0
 10
146.0
 20
71.0
 30
0.0
 40
21.000000000000028
 50
120.0
 51
124.8603894652922
  0
ARC
  5
477B
  8
0
 10
132.52707146939039
 20
81.609923620711299
 30
0.0
 40
8.1390000000000366
 50
36.936730440864231
 51
68.575830338067121
  0
ARC
  5
477C
  8
0
 10
142.55127024265411
 20
87.227828739238035
 30
0.0
 40
3.5930000000000231
 50
191.67229573241889
 51
220.93512496249451
  0
ARC
  5
477D
  8
0
 10
141.09504683896191
 20
85.910042246783746
 30
0.0
 40
1.630000000000055
 50
219.4796953180543
 51
254.63081750526891
  0
ARC
  5
477E
  8
0
 10
140.9562930524109
 20
85.483377424876693
 30
0.0
 40
1.1819999999999671
 50
255.63473258405111
 51
290.56427914248633
  0
LINE
  5
477F
  8
0
 10
141.75995498094721
 20
84.505090603584605
 30
0.0
 11
141.3714800048092
 21
84.376695991690866
 31
0.0
  0
LINE
  5
4780
  8
0
 10
142.1523812089026
 20
84.622276705396729
 30
0.0
 11
141.75995498094721
 21
84.505090603584605
 31
0.0
  0
ARC
  5
4781
  8
0
 10
141.86064954505139
 20
85.767709652498667
 30
0.0
 40
1.182000000000013
 50
284.28893660891077
 51
319.20042978490062
  0
ARC
  5
4782
  8
0
 10
141.5016254890858
 20
86.036954010043985
 30
0.0
 40
1.630000000000011
 50
320.28221411004358
 51
355.41456632859348
  0
ARC
  5
4783
  8
0
 10
139.5536952073
 20
86.287917752539954
 30
0.0
 40
3.5930000000000111
 50
353.90852992003153
 51
23.165638551133782
  0
ARC
  5
4784
  8
0
 10
150.99065783096049
 20
87.406618733246106
 30
0.0
 40
8.1389999999999958
 50
146.2831701341872
 51
177.9245963339535
  0
ARC
  5
4785
  8
0
 10
139.63706343947561
 20
86.924927653053288
 30
0.0
 40
8.1390000000000491
 50
6.9367304408647268
 51
38.575830338066851
  0
ARC
  5
4786
  8
0
 10
151.12722678897021
 20
86.778076815116236
 30
0.0
 40
3.59300000000002
 50
161.67229573241849
 51
190.9351249624936
  0
ARC
  5
4787
  8
0
 10
149.20720708156011
 20
86.364951937732997
 30
0.0
 40
1.6300000000000721
 50
189.47969531805481
 51
224.63081750527681
  0
ARC
  5
4788
  8
0
 10
148.87371036658209
 20
86.064826256335806
 30
0.0
 40
1.182000000000011
 50
225.6347325840577
 51
260.56427914249042
  0
LINE
  5
4789
  8
0
 10
149.0805586021028
 20
84.815774052641217
 30
0.0
 11
148.679932098086
 21
84.898818545101165
 31
0.0
  0
LINE
  5
478A
  8
0
 10
149.47900273552949
 20
84.721047079803242
 30
0.0
 11
149.0805586021028
 21
84.815774052641217
 31
0.0
  0
ARC
  5
478B
  8
0
 10
149.7990721770972
 20
85.858886942250791
 30
0.0
 40
1.182000000000029
 50
254.2889366089037
 51
289.20042978489749
  0
ARC
  5
478C
  8
0
 10
149.62277040283391
 20
86.271571423693501
 30
0.0
 40
1.6299999999999879
 50
290.28221411004228
 51
325.41456632858967
  0
ARC
  5
478D
  8
0
 10
148.06129516525451
 20
87.462877541016624
 30
0.0
 40
3.5929999999999871
 50
323.90852992003198
 51
353.16563855113509
  0
ARC
  5
478E
  8
0
 10
158.52534582983071
 20
82.713219697716454
 30
0.0
 40
8.1390000000000491
 50
116.2831701341868
 51
147.92459633395211
  0
ARC
  5
478F
  8
0
 10
148.45199912244379
 20
87.97286018123566
 30
0.0
 40
8.1389999999999851
 50
336.93673044086552
 51
8.5758303380655843
  0
ARC
  5
4790
  8
0
 10
158.32934705777041
 20
82.100601950267787
 30
0.0
 40
3.5929999999999889
 50
131.6722957324192
 51
160.9351249624913
  0
ARC
  5
4791
  8
0
 10
156.45999877669479
 20
82.702835165223675
 30
0.0
 40
1.6300000000000769
 50
159.47969531805279
 51
194.6308175052842
  0
ARC
  5
4792
  8
0
 10
156.02111930874671
 20
82.609667058294505
 30
0.0
 40
1.181999999999976
 50
195.6347325840687
 51
230.5642791424967
  0
LINE
  5
4793
  8
0
 10
155.57572903358829
 20
81.424532001481708
 30
0.0
 11
155.27029854991039
 21
81.696763893604782
 31
0.0
  0
LINE
  5
4794
  8
0
 10
155.87342828870581
 20
81.143273969867096
 30
0.0
 11
155.57572903358829
 21
81.424532001481708
 31
0.0
  0
ARC
  5
4795
  8
0
 10
156.71953648730221
 20
81.968637475401465
 30
0.0
 40
1.1819999999999991
 50
224.288936608906
 51
259.20042978489772
  0
ARC
  5
4796
  8
0
 10
156.77319691277921
 20
82.414183607210106
 30
0.0
 40
1.6299999999999979
 50
260.28221411004279
 51
295.4145663285903
  0
ARC
  5
4797
  8
0
 10
156.01657274831669
 20
84.226622587285476
 30
0.0
 40
3.592999999999988
 50
293.9085299200313
 51
323.16563855113492
  0
ARC
  5
4798
  8
0
 10
162.70387752867711
 20
74.881272903415322
 30
0.0
 40
8.1390000000001042
 50
86.283170134189376
 51
117.9245963339534
  0
ARC
  5
4799
  8
0
 10
156.60992362071121
 20
84.472928530609494
 30
0.0
 40
8.1389999999999993
 50
306.93673044086711
 51
338.57583033806731
  0
ARC
  5
479A
  8
0
 10
162.22782873923799
 20
74.448729757345745
 30
0.0
 40
3.5930000000000328
 50
101.6722957324176
 51
130.935124962494
  0
ARC
  5
479B
  8
0
 10
160.91004224678369
 20
75.904953161038094
 30
0.0
 40
1.6300000000000361
 50
129.47969531805239
 51
164.63081750527829
  0
ARC
  5
479C
  8
0
 10
160.48337742487669
 20
76.043706947589044
 30
0.0
 40
1.182000000000045
 50
165.634732584061
 51
200.56427914249321
  0
LINE
  5
479D
  8
0
 10
159.50509060358451
 20
75.240045019052786
 30
0.0
 11
159.37669599169089
 21
75.628519995190643
 31
0.0
  0
LINE
  5
479E
  8
0
 10
159.62227670539659
 20
74.847618791097375
 30
0.0
 11
159.50509060358451
 21
75.240045019052786
 31
0.0
  0
ARC
  5
479F
  8
0
 10
160.7677096524985
 20
75.139350454948556
 30
0.0
 40
1.181999999999962
 50
194.28893660890819
 51
229.20042978490099
  0
ARC
  5
47A0
  8
0
 10
161.2879177525399
 20
77.446304792699863
 30
0.0
 40
3.5929999999999631
 50
263.90852992002903
 51
293.16563855113452
  0
ARC
  5
47A1
  8
0
 10
162.40661873324609
 20
66.0093421690394
 30
0.0
 40
8.1389999999999851
 50
56.283170134186669
 51
87.92459633395454
  0
ARC
  5
47A2
  8
0
 10
146.0
 20
71.0
 30
0.0
 40
21.000000000000011
 50
0.0000000000008142
 51
4.8603894652923518
  0
ARC
  5
47A3
  8
0
 10
161.9249276530532
 20
77.362936560524332
 30
0.0
 40
8.1390000000000242
 50
276.93673044086461
 51
308.57583033806839
  0
ARC
  5
47A4
  8
0
 10
146.0
 20
71.0
 30
0.0
 40
21.0
 50
30.000000000000899
 51
34.860389465290908
  0
ARC
  5
47A5
  8
0
 10
161.03695401004401
 20
75.498374510914203
 30
0.0
 40
1.630000000000021
 50
230.2822141100423
 51
265.41456632858922
  0
ARC
  5
47A6
  8
0
 10
146.0
 20
71.0
 30
0.0
 40
21.000000000000028
 50
90.0
 51
94.860389465291405
  0
ARC
  5
47A7
  8
0
 10
146.0
 20
71.0
 30
0.0
 40
21.000000000000011
 50
210.00000000000151
 51
214.86038946529121
  0
ARC
  5
47A8
  8
0
 10
146.0
 20
71.0
 30
0.0
 40
21.000000000000011
 50
240.00000000000011
 51
244.86038946529399
  0
ARC
  5
47A9
  8
0
 10
146.0
 20
71.0
 30
0.0
 40
20.999999999999989
 50
59.999999999999972
 51
64.860389465290524
  0
ARC
  5
47AA
  8
0
 10
146.0
 20
71.0
 30
0.0
 40
20.999999999999989
 50
300.0
 51
304.86038946529243
  0
ARC
  5
47AB
  8
0
 10
146.0
 20
71.0
 30
0.0
 40
20.999999999999989
 50
329.99999999999949
 51
334.860389465293
  0
LINE
  5
47AF
  8
0
 10
80.0
 20
58.499999999999993
 30
0.0
 11
95.0
 21
58.499999999999993
 31
0.0
  0
LINE
  5
47B0
  8
0
 10
95.0
 20
83.499999999999986
 30
0.0
 11
80.0
 21
83.499999999999986
 31
0.0
  0
LINE
  5
47B1
  8
3
 10
50.0
 20
69.220710001791005
 30
0.0
 11
80.0
 21
69.220710001790991
 31
0.0
  0
LINE
  5
47B3
  8
3
 10
80.0
 20
71.0
 30
0.0
 11
50.0
 21
71.0
 31
0.0
  0
LINE
  5
47BB
  8
3
 10
80.0
 20
81.5
 30
0.0
 11
50.0
 21
81.5
 31
0.0
  0
LINE
  5
47BC
  8
3
 10
50.0
 20
79.921332813042483
 30
0.0
 11
80.0
 21
79.921332813042483
 31
0.0
  0
LINE
  5
47C2
  8
3
 10
80.0
 20
60.5
 30
0.0
 11
50.0
 21
60.5
 31
0.0
  0
LINE
  5
47C6
  8
3
 10
50.0
 20
58.996846508660397
 30
0.0
 11
80.0
 21
58.996846508660397
 31
0.0
  0
LINE
  5
47F5
  8
0
 10
95.0
 20
58.499999999999993
 30
0.0
 11
95.0
 21
83.499999999999986
 31
0.0
  0
LINE
  5
47F7
  8
3
 10
50.0
 20
88.231491701629949
 30
0.0
 11
80.0
 21
88.231491701629949
 31
0.0
  0
LINE
  5
47FA
  8
3
 10
80.0
 20
89.186533479473184
 30
0.0
 11
50.0
 21
89.186533479473184
 31
0.0
  0
LINE
  5
4800
  8
3
 10
80.0
 20
52.813466520526788
 30
0.0
 11
50.0
 21
52.813466520526788
 31
0.0
  0
LINE
  5
4804
  8
3
 10
50.0
 20
51.989218300161042
 30
0.0
 11
80.0
 21
51.989218300161042
 31
0.0
  0
LINE
  5
480E
  8
3
 10
50.0
 20
91.9244863043821
 30
0.0
 11
80.0
 21
91.9244863043821
 31
0.0
  0
LINE
  5
4811
  8
0
 10
80.0
 20
92.0
 30
0.0
 11
50.0
 21
92.0
 31
0.0
  0
LINE
  5
4814
  8
0
 10
80.0
 20
50.0
 30
0.0
 11
50.0
 21
50.0
 31
0.0
  0
LINE
  5
4815
  8
0
 10
80.0
 20
92.0
 30
0.0
 11
80.0
 21
50.0
 31
0.0
  0
LINE
  5
4816
  8
0
 10
50.0
 20
92.0
 30
0.0
 11
50.0
 21
50.0
 31
0.0
  0
LINE
  5
4829
  8
2
 10
95.0
 20
76.656854249492369
 30
0.0
 11
50.0
 21
76.656854249492369
 31
0.0
  0
LINE
  5
4839
  8
2
 10
95.0
 20
78.799999999999983
 30
0.0
 11
50.0
 21
78.799999999999983
 31
0.0
  0
LINE
  5
487B
  8
2
 10
50.0
 20
65.0
 30
0.0
 11
95.0
 21
65.0
 31
0.0
  0
LINE
  5
4886
  8
1
 10
146.0
 20
45.999999999999993
 30
0.0
 11
146.0
 21
95.999999999999972
 31
0.0
  0
LINE
  5
4887
  8
1
 10
171.0
 20
71.0
 30
0.0
 11
121.0
 21
71.0
 31
0.0
  0
CIRCLE
  5
488F
  8
5
 10
146.0
 20
71.0
 30
0.0
 40
18.0
  0
LINE
  5
48C8
  8
1
 10
99.0
 20
71.0
 30
0.0
 11
46.0
 21
71.0
 31
0.0
  0
ENDSEC
  0
EOF
