  0
SECTION
  2
HEADER
  9
$ACADVER
  1
AC1009
  9
$INSBASE
 10
0.0
 20
0.0
 30
0.0
  9
$EXTMIN
 10
0.0
 20
-2.960436562073669
 30
0.0
  9
$EXTMAX
 10
195.0
 20
120.0
 30
0.0
  9
$LIMMIN
 10
0.0
 20
0.0
  9
$LIMMAX
 10
275.0
 20
175.0
  9
$ORTHOMODE
 70
     1
  9
$REGENMODE
 70
     1
  9
$FILLMODE
 70
     1
  9
$QTEXTMODE
 70
     0
  9
$MIRRTEXT
 70
     0
  9
$DRAGMODE
 70
     2
  9
$LTSCALE
 40
5.0
  9
$OSMODE
 70
    37
  9
$ATTMODE
 70
     1
  9
$TEXTSIZE
 40
0.2
  9
$TRACEWID
 40
0.05
  9
$TEXTSTYLE
  7
STANDARD
  9
$CLAYER
  8
0
  9
$CELTYPE
  6
BYLAYER
  9
$CECOLOR
 62
   256
  9
$DIMSCALE
 40
1.0
  9
$DIMASZ
 40
3.0
  9
$DIMEXO
 40
1.0
  9
$DIMDLI
 40
6.0
  9
$DIMRND
 40
0.0
  9
$DIMDLE
 40
0.0
  9
$DIMEXE
 40
1.0
  9
$DIMTP
 40
495.0
  9
$DIMTM
 40
0.0
  9
$DIMTXT
 40
3.0
  9
$DIMCEN
 40
0.0
  9
$DIMTSZ
 40
0.0
  9
$DIMTOL
 70
     0
  9
$DIMLIM
 70
     0
  9
$DIMTIH
 70
     0
  9
$DIMTOH
 70
     0
  9
$DIMSE1
 70
     0
  9
$DIMSE2
 70
     0
  9
$DIMTAD
 70
     1
  9
$DIMZIN
 70
     8
  9
$DIMBLK
  1

  9
$DIMASO
 70
     0
  9
$DIMSHO
 70
     0
  9
$DIMPOST
  1

  9
$DIMAPOST
  1

  9
$DIMALT
 70
     0
  9
$DIMALTD
 70
     2
  9
$DIMALTF
 40
25.399999999999999
  9
$DIMLFAC
 40
1.0
  9
$DIMTOFL
 70
     1
  9
$DIMTVP
 40
0.0
  9
$DIMTIX
 70
     1
  9
$DIMSOXD
 70
     0
  9
$DIMSAH
 70
     0
  9
$DIMBLK1
  1

  9
$DIMBLK2
  1

  9
$DIMSTYLE
  2
STANDARD
  9
$DIMCLRD
 70
     0
  9
$DIMCLRE
 70
     0
  9
$DIMCLRT
 70
     0
  9
$DIMTFAC
 40
1.0
  9
$DIMGAP
 40
1.0
  9
$LUNITS
 70
     2
  9
$LUPREC
 70
     1
  9
$SKETCHINC
 40
0.1
  9
$FILLETRAD
 40
0.0
  9
$AUNITS
 70
     0
  9
$AUPREC
 70
     0
  9
$MENU
  1
E:\r13\win\SUPPORT\ACAD
  9
$ELEVATION
 40
0.0
  9
$PELEVATION
 40
0.0
  9
$THICKNESS
 40
0.0
  9
$LIMCHECK
 70
     0
  9
$BLIPMODE
 70
     0
  9
$CHAMFERA
 40
0.0
  9
$CHAMFERB
 40
0.0
  9
$SKPOLY
 70
     0
  9
$TDCREATE
 40
2450653.5278402781
  9
$TDUPDATE
 40
2459439.612883484
  9
$TDINDWG
 40
0.537371713
  9
$TDUSRTIMER
 40
0.537371713
  9
$USRTIMER
 70
     1
  9
$ANGBASE
 50
0.0
  9
$ANGDIR
 70
     0
  9
$PDMODE
 70
     0
  9
$PDSIZE
 40
0.0
  9
$PLINEWID
 40
0.0
  9
$COORDS
 70
     1
  9
$SPLFRAME
 70
     0
  9
$SPLINETYPE
 70
     6
  9
$SPLINESEGS
 70
     8
  9
$ATTDIA
 70
     0
  9
$ATTREQ
 70
     1
  9
$HANDLING
 70
     1
  9
$HANDSEED
  5
6C7D
  9
$SURFTAB1
 70
     6
  9
$SURFTAB2
 70
     6
  9
$SURFTYPE
 70
     6
  9
$SURFU
 70
     6
  9
$SURFV
 70
     6
  9
$UCSNAME
  2

  9
$UCSORG
 10
0.0
 20
0.0
 30
0.0
  9
$UCSXDIR
 10
1.0
 20
0.0
 30
0.0
  9
$UCSYDIR
 10
0.0
 20
1.0
 30
0.0
  9
$PUCSNAME
  2

  9
$PUCSORG
 10
0.0
 20
0.0
 30
0.0
  9
$PUCSXDIR
 10
1.0
 20
0.0
 30
0.0
  9
$PUCSYDIR
 10
0.0
 20
1.0
 30
0.0
  9
$USERI1
 70
     4
  9
$USERI2
 70
     1
  9
$USERI3
 70
     1
  9
$USERI4
 70
     0
  9
$USERI5
 70
     0
  9
$USERR1
 40
1.0
  9
$USERR2
 40
3.0
  9
$USERR3
 40
3.0
  9
$USERR4
 40
3.0
  9
$USERR5
 40
10.0
  9
$WORLDVIEW
 70
     1
  9
$SHADEDGE
 70
     3
  9
$SHADEDIF
 70
    70
  9
$TILEMODE
 70
     1
  9
$MAXACTVP
 70
    16
  9
$PLIMCHECK
 70
     0
  9
$PEXTMIN
 10
1.0000000000000000E+020
 20
1.0000000000000000E+020
 30
1.0000000000000000E+020
  9
$PEXTMAX
 10
-1.0000000000000000E+020
 20
-1.0000000000000000E+020
 30
-1.0000000000000000E+020
  9
$PLIMMIN
 10
0.0
 20
0.0
  9
$PLIMMAX
 10
12.0
 20
9.0
  9
$UNITMODE
 70
     0
  9
$VISRETAIN
 70
     0
  9
$PLINEGEN
 70
     0
  9
$PSLTSCALE
 70
     0
  0
ENDSEC
  0
SECTION
  2
TABLES
  0
TABLE
  2
VPORT
 70
     1
  0
VPORT
  2
*ACTIVE
 70
     0
 10
0.0
 20
0.0
 11
1.0
 21
1.0
 12
260.1957585644372
 22
100.0
 13
0.0
 23
0.0
 14
5.0
 24
5.0
 15
10.0
 25
10.0
 16
0.0
 26
0.0
 36
1.0
 17
0.0
 27
0.0
 37
0.0
 40
200.0
 41
2.6019575856443722
 42
50.0
 43
0.0
 44
0.0
 50
0.0
 51
0.0
 71
     0
 72
   100
 73
     1
 74
     0
 75
     0
 76
     0
 77
     0
 78
     0
  0
ENDTAB
  0
TABLE
  2
LTYPE
 70
     5
  0
LTYPE
  2
CONTINUOUS
 70
     0
  3
Solid Line
 72
    65
 73
     0
 40
0.0
  0
LTYPE
  2
CENTER
 70
     0
  3
____ _ ____ _ ____ _ ____ _ ____ _ ____ _ ____ 
 72
    65
 73
     4
 40
2.0
 49
1.25
 49
-0.25
 49
0.25
 49
-0.25
  0
LTYPE
  2
HIDDEN
 70
     0
  3
__ __ __ __ __ __ __ __ __ __ __ __ __ __ __ __
 72
    65
 73
     2
 40
0.375
 49
0.25
 49
-0.125
  0
LTYPE
  2
PHANTOM
 70
     0
  3
_____ _ _ _____ _ _ _____ _ _ _____ _ _ ____
 72
    65
 73
     6
 40
2.5
 49
1.25
 49
-0.25
 49
0.25
 49
-0.25
 49
0.25
 49
-0.25
  0
LTYPE
  2
PHANTOM2
 70
     0
  3
___ _ _ ___ _ _ ___ _ _ ___ _ _
 72
    65
 73
     6
 40
1.25
 49
0.625
 49
-0.125
 49
0.125
 49
-0.125
 49
0.125
 49
-0.125
  0
ENDTAB
  0
TABLE
  2
LAYER
 70
     6
  0
LAYER
  2
0
 70
     0
 62
     7
  6
CONTINUOUS
  0
LAYER
  2
1
 70
     0
 62
     1
  6
CENTER
  0
LAYER
  2
2
 70
     0
 62
     2
  6
HIDDEN
  0
LAYER
  2
5
 70
     0
 62
     3
  6
PHANTOM
  0
LAYER
  2
DEFPOINTS
 70
     0
 62
     7
  6
CONTINUOUS
  0
LAYER
  2
3
 70
     0
 62
     3
  6
CONTINUOUS
  0
ENDTAB
  0
TABLE
  2
STYLE
 70
     2
  0
STYLE
  2
STANDARD
 70
     0
 40
0.0
 41
1.0
 50
0.0
 71
     0
 42
0.2
  3
simplex
  4
bigfont
  0
STYLE
  2
STANDARD1
 70
     0
 40
0.0
 41
1.0
 50
0.0
 71
     0
 42
3.0
  3
txt
  4

  0
ENDTAB
  0
TABLE
  2
VIEW
 70
     0
  0
ENDTAB
  0
TABLE
  2
UCS
 70
     0
  0
ENDTAB
  0
TABLE
  2
APPID
 70
    10
  0
APPID
  2
ACAD
 70
     0
  0
APPID
  2
_CALL_MAC$
 70
     0
  0
APPID
  2
ACAD_MLEADERVER
 70
     0
  0
APPID
  2
ACAD_EXEMPT_FROM_CAD_STANDARDS
 70
     0
  0
APPID
  2
ACAD_NAV_VCDISPLAY
 70
     0
  0
APPID
  2
ACAD_DSTYLE_DIMJAG
 70
     0
  0
APPID
  2
ACAD_DSTYLE_DIMTALN
 70
     0
  0
APPID
  2
ACAECLAYERSTANDARD
 70
     0
  0
APPID
  2
ACCMTRANSPARENCY
 70
     0
  0
APPID
  2
ACAD_DSTYLE_DIMRADIAL_EXTENSION
 70
     0
  0
ENDTAB
  0
TABLE
  2
DIMSTYLE
 70
     1
  0
DIMSTYLE
  2
STANDARD
 70
     0
  3

  4

  5

  6

  7

 40
1.0
 41
0.18
 42
0.0625
 43
0.38
 44
0.18
 45
0.0
 46
0.0
 47
0.0
 48
0.0
140
0.18
141
0.09
142
0.0
143
25.399999999999999
144
1.0
145
0.0
146
1.0
147
0.09
 71
     0
 72
     0
 73
     1
 74
     1
 75
     0
 76
     0
 77
     0
 78
     0
170
     0
171
     2
172
     0
173
     0
174
     0
175
     0
176
     0
177
     0
178
     0
  0
ENDTAB
  0
ENDSEC
  0
SECTION
  2
BLOCKS
  0
BLOCK
  8
0
  2
$MODEL_SPACE
 70
     2
 10
0.0
 20
0.0
 30
0.0
  3
$MODEL_SPACE
  1

  0
ENDBLK
  5
7
  8
0
  0
BLOCK
 67
     1
  8
0
  2
$PAPER_SPACE
 70
     0
 10
0.0
 20
0.0
 30
0.0
  3
$PAPER_SPACE
  1

  0
ENDBLK
  5
A
 67
     1
  8
0
  0
ENDSEC
  0
SECTION
  2
ENTITIES
  0
TEXT
  5
2BF
  8
0
 62
     3
 10
0.0
 20
0.0
 30
0.0
 40
10.0
  1
ZCL-3.0-20-A20-K
  7
STANDARD1
  0
LINE
  5
6A47
  8
0
 10
161.0
 20
92.539392014169465
 30
0.0
 11
161.0
 21
95.800000000000026
 31
0.0
  0
LINE
  5
6A48
  8
0
 10
155.0
 20
95.800000000000026
 30
0.0
 11
155.0
 21
92.539392014169465
 31
0.0
  0
ARC
  5
6A49
  8
0
 10
158.0
 20
83.000000000000014
 30
0.0
 40
10.0
 50
107.45760312372271
 51
72.542396876277223
  0
LINE
  5
6A4A
  8
0
 10
161.0
 20
95.800000000000026
 30
0.0
 11
155.0
 21
95.800000000000026
 31
0.0
  0
CIRCLE
  5
6A4B
  8
0
 10
158.0
 20
83.000000000000014
 30
0.0
 40
22.5
  0
ARC
  5
6A4C
  8
0
 10
185.80137625715659
 20
78.409966958979552
 30
0.0
 40
2.865999999999989
 50
83.631253419058197
 51
115.62202152435
  0
ARC
  5
6A4D
  8
0
 10
185.03459536811681
 20
80.033040116091342
 30
0.0
 40
1.071000000000017
 50
116.183152481441
 51
176.08831270186531
  0
LINE
  5
6A4E
  8
0
 10
183.86020854247059
 20
79.277092112349166
 30
0.0
 11
183.96609038664289
 21
80.106102449517124
 31
0.0
  0
ARC
  5
6A4F
  8
0
 10
184.9125591735318
 20
79.078096762390885
 30
0.0
 40
1.0709999999999871
 50
169.29202901467681
 51
229.2227619280051
  0
ARC
  5
6A50
  8
0
 10
186.06167063249231
 20
80.457196677787664
 30
0.0
 40
2.8660000000000418
 50
229.83346680008501
 51
261.84057746757401
  0
ARC
  5
6A51
  8
0
 10
181.8389402695517
 20
67.391851538275276
 30
0.0
 40
10.917
 50
42.082357760706749
 51
69.540612143002448
  0
ARC
  5
6A52
  8
0
 10
186.491447896746
 20
83.329025823668545
 30
0.0
 40
10.916999999999909
 50
257.90951764172041
 51
285.36919605224358
  0
ARC
  5
6A53
  8
0
 10
183.02228183692429
 20
70.043521435853776
 30
0.0
 40
2.866000000000076
 50
65.631253419061565
 51
97.622021524343637
  0
ARC
  5
6A54
  8
0
 10
182.7945870644937
 20
71.824104064024013
 30
0.0
 40
1.0710000000000359
 50
98.183152481423377
 51
158.08831270185641
  0
LINE
  5
6A55
  8
0
 10
181.44407804129159
 20
71.468060276179443
 30
0.0
 11
181.8009559418465
 21
72.223776670174175
 31
0.0
  0
ARC
  5
6A56
  8
0
 10
182.38343002145101
 20
70.953610222850074
 30
0.0
 40
1.0710000000000091
 50
151.29202901467721
 51
211.2227619280124
  0
ARC
  5
6A57
  8
0
 10
183.90246527324351
 20
71.91011721476049
 30
0.0
 40
2.8660000000000379
 50
211.83346680008859
 51
243.84057746757301
  0
ARC
  5
6A58
  8
0
 10
175.84899635952789
 20
60.789131026993758
 30
0.0
 40
10.916999999999989
 50
24.08235776070704
 51
51.540612143002839
  0
ARC
  5
6A59
  8
0
 10
185.19865175198601
 20
74.508580559186484
 30
0.0
 40
10.916999999999909
 50
239.90951764171831
 51
267.36919605224142
  0
ARC
  5
6A5A
  8
0
 10
177.79383213000489
 20
62.94534630768112
 30
0.0
 40
2.8660000000000099
 50
47.63125341906143
 51
79.622021524359582
  0
ARC
  5
6A5B
  8
0
 10
178.1275118249518
 20
64.709142573215757
 30
0.0
 40
1.071
 50
80.183152481463978
 51
140.08831270186349
  0
LINE
  5
6A5C
  8
0
 10
176.7330778369344
 20
64.787855047925916
 30
0.0
 11
177.30601809845101
 21
65.396302712717315
 31
0.0
  0
ARC
  5
6A5D
  8
0
 10
177.46748084952389
 20
64.008308246829614
 30
0.0
 40
1.071000000000031
 50
133.29202901467821
 51
193.22276192802559
  0
ARC
  5
6A5E
  8
0
 10
179.2077461399619
 20
64.448592746509362
 30
0.0
 40
2.8660000000000818
 50
193.8334668000918
 51
225.84057746757361
  0
ARC
  5
6A5F
  8
0
 10
168.11186832456329
 20
56.360565123013863
 30
0.0
 40
10.91700000000005
 50
6.0823577607072536
 51
33.540612143002093
  0
ARC
  5
6A60
  8
0
 10
181.24346206959169
 20
66.519334592769411
 30
0.0
 40
10.91700000000003
 50
221.90951764172121
 51
249.36919605224091
  0
ARC
  5
6A61
  8
0
 10
170.62782422246281
 20
57.810260411901069
 30
0.0
 40
2.8660000000000099
 50
29.63125341905976
 51
61.622021524357983
  0
ARC
  5
6A62
  8
0
 10
171.49021549136259
 20
59.384617647238407
 30
0.0
 40
1.071000000000027
 50
62.183152481460581
 51
122.08831270186469
  0
LINE
  5
6A63
  8
0
 10
170.18835345286999
 20
59.890381459056663
 30
0.0
 11
170.92127269064139
 21
60.292001297910822
 31
0.0
  0
ARC
  5
6A64
  8
0
 10
170.64591901413061
 20
58.92204538250661
 30
0.0
 40
1.071000000000002
 50
115.2920290146731
 51
175.2227619280294
  0
ARC
  5
6A65
  8
0
 10
172.43706505144479
 20
58.803009275484612
 30
0.0
 40
2.8659999999999881
 50
175.83346680009291
 51
207.84057746757429
  0
ARC
  5
6A66
  8
0
 10
159.38492016446111
 20
54.53965271265011
 30
0.0
 40
10.917000000000041
 50
348.0823577607087
 51
15.54061214300172
  0
ARC
  5
6A67
  8
0
 10
175.0130403731028
 20
60.143330983959913
 30
0.0
 40
10.91700000000003
 50
203.9095176417205
 51
231.36919605224219
  0
ARC
  5
6A68
  8
0
 10
162.225716896801
 20
55.14092173423996
 30
0.0
 40
2.8659999999999641
 50
11.63125341905884
 51
43.622021524350359
  0
ARC
  5
6A69
  8
0
 10
163.53240287362061
 20
56.371730883993322
 30
0.0
 40
1.0710000000000071
 50
44.183152481433183
 51
104.0883127018606
  0
LINE
  5
6A6A
  8
0
 10
162.45054811158661
 20
57.255038347155121
 30
0.0
 11
163.27170308407139
 21
57.410517011995132
 31
0.0
  0
ARC
  5
6A6B
  8
0
 10
162.5864865163355
 20
56.192700477118308
 30
0.0
 40
1.0710000000000111
 50
97.292029014678704
 51
157.2227619280286
  0
ARC
  5
6A6C
  8
0
 10
164.2531834467454
 20
55.525995846923223
 30
0.0
 40
2.8660000000000272
 50
157.83346680009399
 51
189.84057746757441
  0
ARC
  5
6A6D
  8
0
 10
150.5224063693552
 20
55.504637389671807
 30
0.0
 40
10.917000000000071
 50
330.0823577607074
 51
357.54061214300242
  0
ARC
  5
6A6E
  8
0
 10
167.1172637480723
 20
56.004697390217672
 30
0.0
 40
10.91699999999998
 50
185.90951764171979
 51
213.36919605224321
  0
ARC
  5
6A6F
  8
0
 10
153.4099669589794
 20
55.19862374284331
 30
0.0
 40
2.8660000000000649
 50
353.63125341906181
 51
25.622021524349421
  0
ARC
  5
6A70
  8
0
 10
155.03304011609131
 20
55.965404631883267
 30
0.0
 40
1.0710000000000299
 50
26.183152481438881
 51
86.088312701862435
  0
LINE
  5
6A71
  8
0
 10
154.2770921123491
 20
57.139791457529412
 30
0.0
 11
155.10610244951721
 21
57.033909613357118
 31
0.0
  0
ARC
  5
6A72
  8
0
 10
154.07809676239091
 20
56.087440826468168
 30
0.0
 40
1.0710000000000131
 50
79.292029014682043
 51
139.22276192804429
  0
ARC
  5
6A73
  8
0
 10
155.45719667778769
 20
54.938329367507698
 30
0.0
 40
2.866000000000049
 50
139.83346680009859
 51
171.84057746757239
  0
ARC
  5
6A74
  8
0
 10
142.3918515382754
 20
59.161059730448322
 30
0.0
 40
10.916999999999909
 50
312.08235776070939
 51
339.54061214300287
  0
ARC
  5
6A75
  8
0
 10
158.32902582366859
 20
54.508552103253962
 30
0.0
 40
10.916999999999989
 50
167.90951764171831
 51
195.36919605224219
  0
ARC
  5
6A76
  8
0
 10
145.04352143585379
 20
57.977718163075657
 30
0.0
 40
2.866000000000092
 50
335.6312534190601
 51
7.6220215243488783
  0
ARC
  5
6A77
  8
0
 10
146.82410406402411
 20
58.205412935506317
 30
0.0
 40
1.070999999999984
 50
8.1831524814362471
 51
68.088312701858968
  0
LINE
  5
6A78
  8
0
 10
146.46806027617939
 20
59.55592195870846
 30
0.0
 11
147.22377667017409
 21
59.199044058153511
 31
0.0
  0
ARC
  5
6A79
  8
0
 10
145.9536102228501
 20
58.616569978548974
 30
0.0
 40
1.071000000000063
 50
61.29202901468139
 51
121.2227619280451
  0
ARC
  5
6A7A
  8
0
 10
146.91011721476059
 20
57.097534726756521
 30
0.0
 40
2.866000000000096
 50
121.8334668000993
 51
153.84057746757111
  0
ARC
  5
6A7B
  8
0
 10
135.7891310269938
 20
65.151003640472013
 30
0.0
 40
10.916999999999931
 50
294.0823577607066
 51
321.54061214300242
  0
ARC
  5
6A7C
  8
0
 10
149.5085805591865
 20
55.801348248014008
 30
0.0
 40
10.91699999999997
 50
149.90951764171771
 51
177.36919605224131
  0
ARC
  5
6A7D
  8
0
 10
137.94534630768109
 20
63.20616786999512
 30
0.0
 40
2.8660000000000241
 50
317.63125341905982
 51
349.6220215243481
  0
ARC
  5
6A7E
  8
0
 10
139.7091425732157
 20
62.872488175048218
 30
0.0
 40
1.0710000000000359
 50
350.1831524814329
 51
50.088312701860822
  0
LINE
  5
6A7F
  8
0
 10
139.7878550479258
 20
64.266922163065658
 30
0.0
 11
140.3963027127173
 21
63.693981901549009
 31
0.0
  0
ARC
  5
6A80
  8
0
 10
139.00830824682961
 20
63.532519150476119
 30
0.0
 40
1.071000000000031
 50
43.29202901467886
 51
103.2227619280636
  0
ARC
  5
6A81
  8
0
 10
139.44859274650941
 20
61.792253860038173
 30
0.0
 40
2.8659999999999939
 50
103.83346680010629
 51
135.84057746757469
  0
ARC
  5
6A82
  8
0
 10
131.36056512301391
 20
72.888131675436526
 30
0.0
 40
10.916999999999859
 50
276.08235776070671
 51
303.5406121430014
  0
ARC
  5
6A83
  8
0
 10
141.51933459276941
 20
59.756537930408257
 30
0.0
 40
10.91700000000003
 50
131.90951764171919
 51
159.36919605224159
  0
ARC
  5
6A84
  8
0
 10
132.81026041190111
 20
70.372175777537251
 30
0.0
 40
2.8659999999999481
 50
299.63125341906249
 51
331.62202152434401
  0
ARC
  5
6A85
  8
0
 10
134.3846176472384
 20
69.509784508637409
 30
0.0
 40
1.0710000000000119
 50
332.18315248142221
 51
32.088312701857269
  0
LINE
  5
6A86
  8
0
 10
134.89038145905661
 20
70.811646547130096
 30
0.0
 11
135.2920012979109
 21
70.07872730935847
 31
0.0
  0
ARC
  5
6A87
  8
0
 10
133.92204538250661
 20
70.354080985869416
 30
0.0
 40
1.0710000000000239
 50
25.292029014678391
 51
85.222761928050787
  0
ARC
  5
6A88
  8
0
 10
133.80300927548461
 20
68.562934948555153
 30
0.0
 40
2.866000000000001
 50
85.833466800100354
 51
117.8405774675731
  0
ARC
  5
6A89
  8
0
 10
129.53965271265011
 20
81.615079835538907
 30
0.0
 40
10.917000000000019
 50
258.08235776070927
 51
285.54061214300219
  0
ARC
  5
6A8A
  8
0
 10
135.14333098395991
 20
65.986959626897175
 30
0.0
 40
10.91699999999998
 50
113.90951764172
 51
141.36919605224139
  0
ARC
  5
6A8B
  8
0
 10
130.14092173424001
 20
78.774283103198982
 30
0.0
 40
2.8659999999999561
 50
281.63125341905948
 51
313.62202152435378
  0
ARC
  5
6A8C
  8
0
 10
131.37173088399319
 20
77.46759712637936
 30
0.0
 40
1.0710000000000379
 50
314.18315248144478
 51
14.08831270185798
  0
LINE
  5
6A8D
  8
0
 10
132.25503834715511
 20
78.549451888413444
 30
0.0
 11
132.4105170119951
 21
77.728296915928595
 31
0.0
  0
ARC
  5
6A8E
  8
0
 10
131.19270047711831
 20
78.413513483664516
 30
0.0
 40
1.0710000000000051
 50
7.2920290146807858
 51
67.222761928062937
  0
ARC
  5
6A8F
  8
0
 10
130.52599584692319
 20
76.746816553254604
 30
0.0
 40
2.865999999999977
 50
67.833466800107601
 51
99.840577467572245
  0
ARC
  5
6A90
  8
0
 10
130.50463738967181
 20
90.477593630644776
 30
0.0
 40
10.91700000000005
 50
240.08235776070859
 51
267.54061214300162
  0
ARC
  5
6A91
  8
0
 10
131.0046973902177
 20
73.882736251927653
 30
0.0
 40
10.91700000000006
 50
95.909517641719106
 51
123.36919605224131
  0
ARC
  5
6A92
  8
0
 10
130.19862374284341
 20
87.590033041020504
 30
0.0
 40
2.8660000000000121
 50
263.63125341906152
 51
295.62202152434639
  0
ARC
  5
6A93
  8
0
 10
130.9654046318833
 20
85.9669598839087
 30
0.0
 40
1.0710000000000051
 50
296.18315248143023
 51
356.08831270185487
  0
LINE
  5
6A94
  8
0
 10
132.13979145752941
 20
86.722907887650919
 30
0.0
 11
132.03390961335711
 21
85.893897550482706
 31
0.0
  0
ARC
  5
6A95
  8
0
 10
131.0874408264682
 20
86.921903237609143
 30
0.0
 40
1.0710000000000259
 50
349.29202901468091
 51
49.222761928061203
  0
ARC
  5
6A96
  8
0
 10
129.93832936750769
 20
85.542803322212393
 30
0.0
 40
2.8660000000000161
 50
49.833466800106422
 51
81.840577467574064
  0
ARC
  5
6A97
  8
0
 10
134.1610597304483
 20
98.608148461724767
 30
0.0
 40
10.91700000000001
 50
222.082357760707
 51
249.54061214300251
  0
ARC
  5
6A98
  8
0
 10
129.50855210325389
 20
82.670974176331342
 30
0.0
 40
10.91700000000005
 50
77.909517641720385
 51
105.3691960522402
  0
ARC
  5
6A99
  8
0
 10
132.97771816307571
 20
95.956478564146167
 30
0.0
 40
2.8659999999999819
 50
245.63125341906161
 51
277.6220215243502
  0
ARC
  5
6A9A
  8
0
 10
133.2054129355063
 20
94.175895935975973
 30
0.0
 40
1.07099999999997
 50
278.18315248143648
 51
338.0883127018547
  0
LINE
  5
6A9B
  8
0
 10
134.55592195870841
 20
94.531939723820585
 30
0.0
 11
134.1990440581535
 21
93.776223329825754
 31
0.0
  0
ARC
  5
6A9C
  8
0
 10
133.61656997854899
 20
95.046389777149955
 30
0.0
 40
1.070999999999984
 50
331.29202901467721
 51
31.222761928056538
  0
ARC
  5
6A9D
  8
0
 10
132.09753472675661
 20
94.089882785239539
 30
0.0
 40
2.866000000000025
 50
31.833466800102968
 51
63.840577467572992
  0
ARC
  5
6A9E
  8
0
 10
140.15100364047211
 20
105.2108689730063
 30
0.0
 40
10.91700000000005
 50
204.08235776070751
 51
231.5406121430029
  0
ARC
  5
6A9F
  8
0
 10
130.80134824801399
 20
91.49141944081353
 30
0.0
 40
10.91699999999995
 50
59.909517641718203
 51
87.369196052241435
  0
ARC
  5
6AA0
  8
0
 10
138.20616786999511
 20
103.05465369231889
 30
0.0
 40
2.8660000000000458
 50
227.63125341906189
 51
259.62202152436288
  0
ARC
  5
6AA1
  8
0
 10
137.8724881750482
 20
101.2908574267842
 30
0.0
 40
1.0709999999999971
 50
260.18315248147388
 51
320.08831270185982
  0
LINE
  5
6AA2
  8
0
 10
139.2669221630656
 20
101.2121449520741
 30
0.0
 11
138.69398190154899
 21
100.6036972872826
 31
0.0
  0
ARC
  5
6AA3
  8
0
 10
138.53251915047611
 20
101.9916917531705
 30
0.0
 40
1.0710000000000039
 50
313.29202901467391
 51
13.22276192806256
  0
ARC
  5
6AA4
  8
0
 10
136.79225386003799
 20
101.5514072534905
 30
0.0
 40
2.8660000000001822
 50
13.833466800108271
 51
45.840577467573397
  0
ARC
  5
6AA5
  8
0
 10
147.88813167543671
 20
109.6394348769862
 30
0.0
 40
10.91700000000009
 50
186.08235776070839
 51
213.54061214300259
  0
ARC
  5
6AA6
  8
0
 10
158.0
 20
83.000000000000014
 30
0.0
 40
33.0
 50
125.9999999999993
 51
129.4478870545239
  0
ARC
  5
6AA7
  8
0
 10
134.75653793040831
 20
99.480665407230603
 30
0.0
 40
10.916999999999989
 50
41.909517641717621
 51
69.369196052240895
  0
ARC
  5
6AA8
  8
0
 10
145.37217577753719
 20
108.1897395880989
 30
0.0
 40
2.8659999999999659
 50
209.63125341906081
 51
241.6220215243543
  0
ARC
  5
6AA9
  8
0
 10
144.50978450863741
 20
106.6153823527616
 30
0.0
 40
1.071000000000051
 50
242.18315248144961
 51
302.08831270185698
  0
LINE
  5
6AAA
  8
0
 10
145.8116465471301
 20
106.1096185409434
 30
0.0
 11
145.0787273093585
 21
105.7079987020892
 31
0.0
  0
ARC
  5
6AAB
  8
0
 10
145.35408098586939
 20
107.0779546174934
 30
0.0
 40
1.071000000000017
 50
295.29202901468392
 51
355.22276192806407
  0
ARC
  5
6AAC
  8
0
 10
143.5629349485551
 20
107.1969907245154
 30
0.0
 40
2.8660000000000831
 50
355.83346680010732
 51
27.840577467570899
  0
ARC
  5
6AAD
  8
0
 10
156.61507983553901
 20
111.4603472873499
 30
0.0
 40
10.917000000000099
 50
168.08235776070799
 51
195.54061214300239
  0
ARC
  5
6AAE
  8
0
 10
158.0
 20
83.000000000000014
 30
0.0
 40
33.000000000000007
 50
107.99999999999881
 51
111.44788705452309
  0
ARC
  5
6AAF
  8
0
 10
140.98695962689709
 20
105.8566690160401
 30
0.0
 40
10.917000000000041
 50
23.90951764171972
 51
51.36919605224206
  0
ARC
  5
6AB0
  8
0
 10
153.77428310319911
 20
110.8590782657601
 30
0.0
 40
2.8660000000000521
 50
191.6312534190613
 51
223.6220215243558
  0
ARC
  5
6AB1
  8
0
 10
152.4675971263793
 20
109.62826911600671
 30
0.0
 40
1.0710000000000139
 50
224.183152481452
 51
284.08831270186062
  0
LINE
  5
6AB2
  8
0
 10
153.5494518884133
 20
108.74496165284491
 30
0.0
 11
152.72829691592869
 21
108.5894829880049
 31
0.0
  0
ARC
  5
6AB3
  8
0
 10
153.41351348366439
 20
109.80729952288171
 30
0.0
 40
1.071000000000002
 50
277.29202901467869
 51
337.22276192797671
  0
ARC
  5
6AB4
  8
0
 10
151.74681655325449
 20
110.47400415307681
 30
0.0
 40
2.8660000000000201
 50
337.83346680007247
 51
9.8405774675728672
  0
ARC
  5
6AB5
  8
0
 10
165.47759363064469
 20
110.4953626103282
 30
0.0
 40
10.91699999999998
 50
150.08235776070691
 51
177.5406121430014
  0
ARC
  5
6AB6
  8
0
 10
158.0
 20
83.000000000000014
 30
0.0
 40
33.000000000000028
 50
90.0
 51
93.447887054521857
  0
ARC
  5
6AB7
  8
0
 10
148.88273625192781
 20
109.9953026097823
 30
0.0
 40
10.916999999999989
 50
5.9095176417190372
 51
33.369196052242877
  0
ARC
  5
6AB8
  8
0
 10
162.59003304102049
 20
110.8013762571566
 30
0.0
 40
2.8660000000000401
 50
173.63125341905891
 51
205.62202152435449
  0
ARC
  5
6AB9
  8
0
 10
160.9669598839086
 20
110.0345953681167
 30
0.0
 40
1.071000000000039
 50
206.18315248145149
 51
266.08831270186568
  0
LINE
  5
6ABA
  8
0
 10
161.7229078876509
 20
108.8602085424706
 30
0.0
 11
160.8938975504829
 21
108.9660903866429
 31
0.0
  0
ARC
  5
6ABB
  8
0
 10
161.9219032376092
 20
109.9125591735318
 30
0.0
 40
1.0710000000000111
 50
259.29202901467869
 51
319.22276192797949
  0
ARC
  5
6ABC
  8
0
 10
160.54280332221239
 20
111.06167063249219
 30
0.0
 40
2.8659999999999322
 50
319.83346680007361
 51
351.84057746757458
  0
ARC
  5
6ABD
  8
0
 10
173.6081484617248
 20
106.8389402695516
 30
0.0
 40
10.917000000000099
 50
132.0823577607058
 51
159.54061214300211
  0
ARC
  5
6ABE
  8
0
 10
158.0
 20
83.000000000000014
 30
0.0
 40
33.000000000000007
 50
72.000000000001123
 51
75.447887054523179
  0
ARC
  5
6ABF
  8
0
 10
157.67097417633141
 20
111.491447896746
 30
0.0
 40
10.916999999999961
 50
347.90951764172041
 51
15.369196052241721
  0
ARC
  5
6AC0
  8
0
 10
170.95647856414621
 20
108.02228183692429
 30
0.0
 40
2.865999999999969
 50
155.6312534190586
 51
187.62202152434401
  0
ARC
  5
6AC1
  8
0
 10
169.17589593597609
 20
107.7945870644937
 30
0.0
 40
1.0710000000000279
 50
188.1831524814223
 51
248.08831270185539
  0
LINE
  5
6AC2
  8
0
 10
169.53193972382061
 20
106.4440780412916
 30
0.0
 11
168.7762233298258
 21
106.8009559418465
 31
0.0
  0
ARC
  5
6AC3
  8
0
 10
170.04638977715001
 20
107.38343002145101
 30
0.0
 40
1.0710000000000159
 50
241.29202901467769
 51
301.2227619279879
  0
ARC
  5
6AC4
  8
0
 10
169.0898827852395
 20
108.90246527324339
 30
0.0
 40
2.8660000000000241
 50
301.83346680007628
 51
333.84057746757509
  0
ARC
  5
6AC5
  8
0
 10
180.21086897300631
 20
100.8489963595278
 30
0.0
 40
10.917000000000129
 50
114.0823577607065
 51
141.54061214300171
  0
ARC
  5
6AC6
  8
0
 10
166.49141944081359
 20
110.19865175198591
 30
0.0
 40
10.91699999999995
 50
329.9095176417211
 51
357.36919605224261
  0
ARC
  5
6AC7
  8
0
 10
178.05465369231879
 20
102.7938321300049
 30
0.0
 40
2.8659999999998989
 50
137.63125341905931
 51
169.6220215243543
  0
ARC
  5
6AC8
  8
0
 10
176.29085742678421
 20
103.1275118249517
 30
0.0
 40
1.07099999999999
 50
170.18315248144651
 51
230.08831270186141
  0
LINE
  5
6AC9
  8
0
 10
176.21214495207411
 20
101.7330778369344
 30
0.0
 11
175.60369728728281
 21
102.30601809845091
 31
0.0
  0
ARC
  5
6ACA
  8
0
 10
176.99169175317039
 20
102.46748084952389
 30
0.0
 40
1.0709999999999811
 50
223.29202901467829
 51
283.2227619279933
  0
ARC
  5
6ACB
  8
0
 10
176.55140725349059
 20
104.2077461399619
 30
0.0
 40
2.8660000000000569
 50
283.83346680007952
 51
315.84057746757469
  0
ARC
  5
6ACC
  8
0
 10
184.63943487698609
 20
93.111868324563275
 30
0.0
 40
10.91700000000009
 50
96.082357760706728
 51
123.5406121430013
  0
ARC
  5
6ACD
  8
0
 10
174.48066540723059
 20
106.2434620695916
 30
0.0
 40
10.91699999999995
 50
311.9095176417195
 51
339.3691960522425
  0
ARC
  5
6ACE
  8
0
 10
183.189739588099
 20
95.627824222462706
 30
0.0
 40
2.8660000000000529
 50
119.63125341905889
 51
151.62202152434969
  0
ARC
  5
6ACF
  8
0
 10
181.61538235276171
 20
96.490215491362576
 30
0.0
 40
1.0710000000000679
 50
152.18315248143679
 51
212.08831270185871
  0
LINE
  5
6AD0
  8
0
 10
181.10961854094339
 20
95.188353452870004
 30
0.0
 11
180.7079987020891
 21
95.921272690641473
 31
0.0
  0
ARC
  5
6AD1
  8
0
 10
182.07795461749339
 20
95.645919014130627
 30
0.0
 40
1.0710000000000579
 50
205.2920290146767
 51
265.22276192799529
  0
ARC
  5
6AD2
  8
0
 10
182.19699072451539
 20
97.437065051444876
 30
0.0
 40
2.8660000000000272
 50
265.83346680008083
 51
297.84057746757321
  0
ARC
  5
6AD3
  8
0
 10
186.46034728734989
 20
84.384920164461079
 30
0.0
 40
10.91700000000006
 50
78.082357760709243
 51
105.54061214300221
  0
ARC
  5
6AD4
  8
0
 10
180.85666901604009
 20
100.0130403731029
 30
0.0
 40
10.91700000000008
 50
293.90951764172007
 51
321.3691960522417
  0
ARC
  5
6AD5
  8
0
 10
184.62826911600681
 20
88.532402873620654
 30
0.0
 40
1.0710000000000111
 50
134.18315248143571
 51
194.08831270186451
  0
LINE
  5
6AD6
  8
0
 10
183.74496165284489
 20
87.450548111586684
 30
0.0
 11
183.58948298800479
 21
88.271703084071305
 31
0.0
  0
ARC
  5
6AD7
  8
0
 10
184.80729952288169
 20
87.586486516335526
 30
0.0
 40
1.0710000000000139
 50
187.29202901467639
 51
247.22276192800641
  0
ARC
  5
6AD8
  8
0
 10
185.47400415307681
 20
89.253183446745425
 30
0.0
 40
2.865999999999969
 50
247.83346680008651
 51
279.84057746757549
  0
ARC
  5
6AD9
  8
0
 10
185.49536261032819
 20
75.522406369355295
 30
0.0
 40
10.917
 50
60.082357760708518
 51
87.540612143001653
  0
ARC
  5
6ADA
  8
0
 10
158.0
 20
83.000000000000014
 30
0.0
 40
33.000000000000043
 50
0.0
 51
3.447887054522571
  0
ARC
  5
6ADB
  8
0
 10
184.9953026097823
 20
92.117263748072304
 30
0.0
 40
10.917
 50
275.90951764171911
 51
303.36919605224142
  0
ARC
  5
6ADC
  8
0
 10
158.0
 20
83.000000000000014
 30
0.0
 40
33.000000000000007
 50
180.0
 51
183.44788705452339
  0
ARC
  5
6ADD
  8
0
 10
185.8590782657601
 20
87.225716896801003
 30
0.0
 40
2.8659999999999779
 50
101.63125341905941
 51
133.62202152434969
  0
ARC
  5
6ADE
  8
0
 10
158.0
 20
83.000000000000014
 30
0.0
 40
32.999999999999993
 50
18.000000000000892
 51
21.447887054521988
  0
ARC
  5
6ADF
  8
0
 10
158.0
 20
83.000000000000014
 30
0.0
 40
33.000000000000028
 50
198.00000000000159
 51
201.44788705452271
  0
ARC
  5
6AE0
  8
0
 10
158.0
 20
83.000000000000014
 30
0.0
 40
33.000000000000007
 50
216.00000000000131
 51
219.44788705452279
  0
ARC
  5
6AE1
  8
0
 10
158.0
 20
83.000000000000014
 30
0.0
 40
33.000000000000028
 50
234.0000000000008
 51
237.4478870545237
  0
ARC
  5
6AE2
  8
0
 10
158.0
 20
83.000000000000014
 30
0.0
 40
33.0
 50
252.00000000000111
 51
255.44788705452319
  0
ARC
  5
6AE3
  8
0
 10
158.0
 20
83.000000000000014
 30
0.0
 40
33.000000000000007
 50
270.0
 51
273.44788705452191
  0
ARC
  5
6AE4
  8
0
 10
158.0
 20
83.000000000000014
 30
0.0
 40
33.000000000000021
 50
288.00000000000222
 51
291.44788705452322
  0
ARC
  5
6AE5
  8
0
 10
158.0
 20
83.000000000000014
 30
0.0
 40
33.000000000000007
 50
305.99999999999937
 51
309.44788705452407
  0
ARC
  5
6AE6
  8
0
 10
158.0
 20
83.000000000000014
 30
0.0
 40
33.0
 50
323.99999999999932
 51
327.44788705452203
  0
ARC
  5
6AE7
  8
0
 10
158.0
 20
83.000000000000014
 30
0.0
 40
33.0
 50
342.00000000000148
 51
345.44788705452351
  0
ARC
  5
6AE8
  8
0
 10
158.0
 20
83.000000000000014
 30
0.0
 40
32.999999999999993
 50
54.000000000000632
 51
57.447887054523633
  0
ARC
  5
6AE9
  8
0
 10
158.0
 20
83.000000000000014
 30
0.0
 40
33.000000000000021
 50
36.000000000001052
 51
39.447887054522532
  0
ARC
  5
6AEA
  8
0
 10
158.0
 20
83.000000000000014
 30
0.0
 40
33.000000000000028
 50
161.99999999999901
 51
165.44788705452279
  0
ARC
  5
6AEB
  8
0
 10
158.0
 20
83.000000000000014
 30
0.0
 40
33.000000000000028
 50
143.99999999999889
 51
147.4478870545216
  0
LINE
  5
6AEF
  8
0
 10
80.0
 20
60.500000000000007
 30
0.0
 11
95.0
 21
60.500000000000007
 31
0.0
  0
LINE
  5
6AF0
  8
0
 10
95.0
 20
105.5
 30
0.0
 11
80.0
 21
105.5
 31
0.0
  0
LINE
  5
6AF1
  8
3
 10
50.0
 20
81.015357942573274
 30
0.0
 11
80.0
 21
81.01535794257326
 31
0.0
  0
LINE
  5
6AF3
  8
3
 10
80.0
 20
83.000000000000014
 30
0.0
 11
50.0
 21
83.000000000000014
 31
0.0
  0
LINE
  5
6AFB
  8
3
 10
80.0
 20
93.197560814373261
 30
0.0
 11
50.0
 21
93.197560814373261
 31
0.0
  0
LINE
  5
6AFC
  8
3
 10
50.0
 20
91.291595568564986
 30
0.0
 11
80.0
 21
91.291595568564986
 31
0.0
  0
LINE
  5
6B04
  8
3
 10
80.0
 20
72.802439185626739
 30
0.0
 11
50.0
 21
72.802439185626739
 31
0.0
  0
LINE
  5
6B05
  8
3
 10
50.0
 20
70.933390908976804
 30
0.0
 11
80.0
 21
70.933390908976776
 31
0.0
  0
LINE
  5
6B11
  8
3
 10
80.0
 20
102.3969133256516
 30
0.0
 11
50.0
 21
102.3969133256516
 31
0.0
  0
LINE
  5
6B12
  8
3
 10
50.0
 20
100.75619404936219
 30
0.0
 11
80.0
 21
100.75619404936219
 31
0.0
  0
LINE
  5
6B1C
  8
3
 10
80.0
 20
63.603086674348397
 30
0.0
 11
50.0
 21
63.603086674348397
 31
0.0
  0
LINE
  5
6B20
  8
3
 10
50.0
 20
62.032587646218801
 30
0.0
 11
80.0
 21
62.032587646218801
 31
0.0
  0
LINE
  5
6B44
  8
0
 10
95.0
 20
60.500000000000057
 30
0.0
 11
95.0
 21
105.5
 31
0.0
  0
LINE
  5
6B45
  8
3
 10
80.0
 20
109.6975608143732
 30
0.0
 11
50.0
 21
109.6975608143732
 31
0.0
  0
LINE
  5
6B46
  8
3
 10
50.0
 20
108.4826925419293
 30
0.0
 11
80.0
 21
108.4826925419294
 31
0.0
  0
LINE
  5
6B4C
  8
3
 10
80.0
 20
56.302439185626753
 30
0.0
 11
50.0
 21
56.302439185626753
 31
0.0
  0
LINE
  5
6B50
  8
3
 10
50.0
 20
55.184220793200993
 30
0.0
 11
80.0
 21
55.18422079320095
 31
0.0
  0
LINE
  5
6B57
  8
3
 10
50.0
 20
113.71476754013339
 30
0.0
 11
80.0
 21
113.71476754013339
 31
0.0
  0
LINE
  5
6B5A
  8
3
 10
80.0
 20
114.38486503774
 30
0.0
 11
50.0
 21
114.38486503774
 31
0.0
  0
LINE
  5
6B5D
  8
3
 10
80.0
 20
51.615134962259958
 30
0.0
 11
50.0
 21
51.615134962259958
 31
0.0
  0
LINE
  5
6B60
  8
3
 10
50.0
 20
51.058656212874297
 30
0.0
 11
80.0
 21
51.058656212874297
 31
0.0
  0
LINE
  5
6B63
  8
3
 10
50.0
 20
115.94026708914021
 30
0.0
 11
80.0
 21
115.94026708914021
 31
0.0
  0
LINE
  5
6B66
  8
0
 10
80.0
 20
116.0
 30
0.0
 11
50.0
 21
116.0
 31
0.0
  0
LINE
  5
6B67
  8
0
 10
80.0
 20
50.0
 30
0.0
 11
80.0
 21
116.0
 31
0.0
  0
LINE
  5
6B68
  8
0
 10
50.0
 20
50.0
 30
0.0
 11
50.0
 21
116.0
 31
0.0
  0
LINE
  5
6B69
  8
0
 10
80.0
 20
50.0
 30
0.0
 11
50.0
 21
50.0
 31
0.0
  0
LINE
  5
6B7D
  8
2
 10
95.0
 20
92.539392014169465
 30
0.0
 11
50.0
 21
92.539392014169465
 31
0.0
  0
LINE
  5
6B85
  8
2
 10
95.0
 20
95.800000000000011
 30
0.0
 11
50.0
 21
95.800000000000011
 31
0.0
  0
LINE
  5
6BC1
  8
2
 10
50.0
 20
72.999999999999986
 30
0.0
 11
95.0
 21
72.999999999999986
 31
0.0
  0
LINE
  5
6BD1
  8
1
 10
158.0
 20
120.0
 30
0.0
 11
158.0
 21
46.000000000000007
 31
0.0
  0
LINE
  5
6BD2
  8
1
 10
195.0
 20
83.000000000000014
 30
0.0
 11
121.0
 21
83.000000000000014
 31
0.0
  0
CIRCLE
  5
6BDA
  8
5
 10
158.0
 20
83.000000000000014
 30
0.0
 40
30.0
  0
LINE
  5
6C14
  8
1
 10
99.0
 20
83.000000000000014
 30
0.0
 11
46.0
 21
83.000000000000014
 31
0.0
  0
ENDSEC
  0
EOF
