  0
SECTION
  2
HEADER
  9
$ACADVER
  1
AC1009
  9
$INSBASE
 10
0.0
 20
0.0
 30
0.0
  9
$EXTMIN
 10
0.0
 20
-2.960436562073669
 30
0.0
  9
$EXTMAX
 10
210.00000178813929
 20
134.99712046980849
 30
0.0
  9
$LIMMIN
 10
0.0
 20
0.0
  9
$LIMMAX
 10
275.0
 20
175.0
  9
$ORTHOMODE
 70
     1
  9
$REGENMODE
 70
     1
  9
$FILLMODE
 70
     1
  9
$QTEXTMODE
 70
     0
  9
$MIRRTEXT
 70
     0
  9
$DRAGMODE
 70
     2
  9
$LTSCALE
 40
5.0
  9
$OSMODE
 70
    37
  9
$ATTMODE
 70
     1
  9
$TEXTSIZE
 40
0.2
  9
$TRACEWID
 40
0.05
  9
$TEXTSTYLE
  7
STANDARD
  9
$CLAYER
  8
0
  9
$CELTYPE
  6
BYLAYER
  9
$CECOLOR
 62
   256
  9
$DIMSCALE
 40
1.0
  9
$DIMASZ
 40
3.0
  9
$DIMEXO
 40
1.0
  9
$DIMDLI
 40
6.0
  9
$DIMRND
 40
0.0
  9
$DIMDLE
 40
0.0
  9
$DIMEXE
 40
1.0
  9
$DIMTP
 40
495.0
  9
$DIMTM
 40
0.0
  9
$DIMTXT
 40
3.0
  9
$DIMCEN
 40
0.0
  9
$DIMTSZ
 40
0.0
  9
$DIMTOL
 70
     0
  9
$DIMLIM
 70
     0
  9
$DIMTIH
 70
     0
  9
$DIMTOH
 70
     0
  9
$DIMSE1
 70
     0
  9
$DIMSE2
 70
     0
  9
$DIMTAD
 70
     1
  9
$DIMZIN
 70
     8
  9
$DIMBLK
  1

  9
$DIMASO
 70
     0
  9
$DIMSHO
 70
     0
  9
$DIMPOST
  1

  9
$DIMAPOST
  1

  9
$DIMALT
 70
     0
  9
$DIMALTD
 70
     2
  9
$DIMALTF
 40
25.399999999999999
  9
$DIMLFAC
 40
1.0
  9
$DIMTOFL
 70
     1
  9
$DIMTVP
 40
0.0
  9
$DIMTIX
 70
     1
  9
$DIMSOXD
 70
     0
  9
$DIMSAH
 70
     0
  9
$DIMBLK1
  1

  9
$DIMBLK2
  1

  9
$DIMSTYLE
  2
STANDARD
  9
$DIMCLRD
 70
     0
  9
$DIMCLRE
 70
     0
  9
$DIMCLRT
 70
     0
  9
$DIMTFAC
 40
1.0
  9
$DIMGAP
 40
1.0
  9
$LUNITS
 70
     2
  9
$LUPREC
 70
     1
  9
$SKETCHINC
 40
0.1
  9
$FILLETRAD
 40
0.0
  9
$AUNITS
 70
     0
  9
$AUPREC
 70
     0
  9
$MENU
  1
E:\r13\win\SUPPORT\ACAD
  9
$ELEVATION
 40
0.0
  9
$PELEVATION
 40
0.0
  9
$THICKNESS
 40
0.0
  9
$LIMCHECK
 70
     0
  9
$BLIPMODE
 70
     0
  9
$CHAMFERA
 40
0.0
  9
$CHAMFERB
 40
0.0
  9
$SKPOLY
 70
     0
  9
$TDCREATE
 40
2450653.5278402781
  9
$TDUPDATE
 40
2459439.6128874542
  9
$TDINDWG
 40
0.5538257639000001
  9
$TDUSRTIMER
 40
0.5538257639000001
  9
$USRTIMER
 70
     1
  9
$ANGBASE
 50
0.0
  9
$ANGDIR
 70
     0
  9
$PDMODE
 70
     0
  9
$PDSIZE
 40
0.0
  9
$PLINEWID
 40
0.0
  9
$COORDS
 70
     1
  9
$SPLFRAME
 70
     0
  9
$SPLINETYPE
 70
     6
  9
$SPLINESEGS
 70
     8
  9
$ATTDIA
 70
     0
  9
$ATTREQ
 70
     1
  9
$HANDLING
 70
     1
  9
$HANDSEED
  5
79FB
  9
$SURFTAB1
 70
     6
  9
$SURFTAB2
 70
     6
  9
$SURFTYPE
 70
     6
  9
$SURFU
 70
     6
  9
$SURFV
 70
     6
  9
$UCSNAME
  2

  9
$UCSORG
 10
0.0
 20
0.0
 30
0.0
  9
$UCSXDIR
 10
1.0
 20
0.0
 30
0.0
  9
$UCSYDIR
 10
0.0
 20
1.0
 30
0.0
  9
$PUCSNAME
  2

  9
$PUCSORG
 10
0.0
 20
0.0
 30
0.0
  9
$PUCSXDIR
 10
1.0
 20
0.0
 30
0.0
  9
$PUCSYDIR
 10
0.0
 20
1.0
 30
0.0
  9
$USERI1
 70
     4
  9
$USERI2
 70
     1
  9
$USERI3
 70
     1
  9
$USERI4
 70
     0
  9
$USERI5
 70
     0
  9
$USERR1
 40
1.0
  9
$USERR2
 40
3.0
  9
$USERR3
 40
3.0
  9
$USERR4
 40
3.0
  9
$USERR5
 40
10.0
  9
$WORLDVIEW
 70
     1
  9
$SHADEDGE
 70
     3
  9
$SHADEDIF
 70
    70
  9
$TILEMODE
 70
     1
  9
$MAXACTVP
 70
    16
  9
$PLIMCHECK
 70
     0
  9
$PEXTMIN
 10
1.0000000000000000E+020
 20
1.0000000000000000E+020
 30
1.0000000000000000E+020
  9
$PEXTMAX
 10
-1.0000000000000000E+020
 20
-1.0000000000000000E+020
 30
-1.0000000000000000E+020
  9
$PLIMMIN
 10
0.0
 20
0.0
  9
$PLIMMAX
 10
12.0
 20
9.0
  9
$UNITMODE
 70
     0
  9
$VISRETAIN
 70
     0
  9
$PLINEGEN
 70
     0
  9
$PSLTSCALE
 70
     0
  0
ENDSEC
  0
SECTION
  2
TABLES
  0
TABLE
  2
VPORT
 70
     1
  0
VPORT
  2
*ACTIVE
 70
     0
 10
0.0
 20
0.0
 11
1.0
 21
1.0
 12
260.1957585644372
 22
100.0
 13
0.0
 23
0.0
 14
5.0
 24
5.0
 15
10.0
 25
10.0
 16
0.0
 26
0.0
 36
1.0
 17
0.0
 27
0.0
 37
0.0
 40
200.0
 41
2.6019575856443722
 42
50.0
 43
0.0
 44
0.0
 50
0.0
 51
0.0
 71
     0
 72
   100
 73
     1
 74
     0
 75
     0
 76
     0
 77
     0
 78
     0
  0
ENDTAB
  0
TABLE
  2
LTYPE
 70
     5
  0
LTYPE
  2
CONTINUOUS
 70
     0
  3
Solid Line
 72
    65
 73
     0
 40
0.0
  0
LTYPE
  2
CENTER
 70
     0
  3
____ _ ____ _ ____ _ ____ _ ____ _ ____ _ ____ 
 72
    65
 73
     4
 40
2.0
 49
1.25
 49
-0.25
 49
0.25
 49
-0.25
  0
LTYPE
  2
HIDDEN
 70
     0
  3
__ __ __ __ __ __ __ __ __ __ __ __ __ __ __ __
 72
    65
 73
     2
 40
0.375
 49
0.25
 49
-0.125
  0
LTYPE
  2
PHANTOM
 70
     0
  3
_____ _ _ _____ _ _ _____ _ _ _____ _ _ ____
 72
    65
 73
     6
 40
2.5
 49
1.25
 49
-0.25
 49
0.25
 49
-0.25
 49
0.25
 49
-0.25
  0
LTYPE
  2
PHANTOM2
 70
     0
  3
___ _ _ ___ _ _ ___ _ _ ___ _ _
 72
    65
 73
     6
 40
1.25
 49
0.625
 49
-0.125
 49
0.125
 49
-0.125
 49
0.125
 49
-0.125
  0
ENDTAB
  0
TABLE
  2
LAYER
 70
     6
  0
LAYER
  2
0
 70
     0
 62
     7
  6
CONTINUOUS
  0
LAYER
  2
1
 70
     0
 62
     1
  6
CENTER
  0
LAYER
  2
2
 70
     0
 62
     2
  6
HIDDEN
  0
LAYER
  2
5
 70
     0
 62
     3
  6
PHANTOM
  0
LAYER
  2
DEFPOINTS
 70
     0
 62
     7
  6
CONTINUOUS
  0
LAYER
  2
3
 70
     0
 62
     3
  6
CONTINUOUS
  0
ENDTAB
  0
TABLE
  2
STYLE
 70
     2
  0
STYLE
  2
STANDARD
 70
     0
 40
0.0
 41
1.0
 50
0.0
 71
     0
 42
0.2
  3
simplex
  4
bigfont
  0
STYLE
  2
STANDARD1
 70
     0
 40
0.0
 41
1.0
 50
0.0
 71
     0
 42
3.0
  3
txt
  4

  0
ENDTAB
  0
TABLE
  2
VIEW
 70
     0
  0
ENDTAB
  0
TABLE
  2
UCS
 70
     0
  0
ENDTAB
  0
TABLE
  2
APPID
 70
    10
  0
APPID
  2
ACAD
 70
     0
  0
APPID
  2
_CALL_MAC$
 70
     0
  0
APPID
  2
ACAD_MLEADERVER
 70
     0
  0
APPID
  2
ACAD_EXEMPT_FROM_CAD_STANDARDS
 70
     0
  0
APPID
  2
ACAD_NAV_VCDISPLAY
 70
     0
  0
APPID
  2
ACAD_DSTYLE_DIMJAG
 70
     0
  0
APPID
  2
ACAD_DSTYLE_DIMTALN
 70
     0
  0
APPID
  2
ACAECLAYERSTANDARD
 70
     0
  0
APPID
  2
ACCMTRANSPARENCY
 70
     0
  0
APPID
  2
ACAD_DSTYLE_DIMRADIAL_EXTENSION
 70
     0
  0
ENDTAB
  0
TABLE
  2
DIMSTYLE
 70
     1
  0
DIMSTYLE
  2
STANDARD
 70
     0
  3

  4

  5

  6

  7

 40
1.0
 41
0.18
 42
0.0625
 43
0.38
 44
0.18
 45
0.0
 46
0.0
 47
0.0
 48
0.0
140
0.18
141
0.09
142
0.0
143
25.399999999999999
144
1.0
145
0.0
146
1.0
147
0.09
 71
     0
 72
     0
 73
     1
 74
     1
 75
     0
 76
     0
 77
     0
 78
     0
170
     0
171
     2
172
     0
173
     0
174
     0
175
     0
176
     0
177
     0
178
     0
  0
ENDTAB
  0
ENDSEC
  0
SECTION
  2
BLOCKS
  0
BLOCK
  8
0
  2
$MODEL_SPACE
 70
     2
 10
0.0
 20
0.0
 30
0.0
  3
$MODEL_SPACE
  1

  0
ENDBLK
  5
7
  8
0
  0
BLOCK
 67
     1
  8
0
  2
$PAPER_SPACE
 70
     0
 10
0.0
 20
0.0
 30
0.0
  3
$PAPER_SPACE
  1

  0
ENDBLK
  5
A
 67
     1
  8
0
  0
ENDSEC
  0
SECTION
  2
ENTITIES
  0
TEXT
  5
2BF
  8
0
 62
     3
 10
0.0
 20
0.0
 30
0.0
 40
10.0
  1
ZCL-3.0-25-A20-K
  7
STANDARD1
  0
ARC
  5
76F4
  8
0
 10
165.50000178813929
 20
90.497120469808564
 30
0.0
 40
9.9999999999999805
 50
107.45760312371959
 51
72.542396876280364
  0
LINE
  5
76F5
  8
0
 10
168.5000018142164
 20
100.0365123152733
 30
0.0
 11
168.5000018142164
 21
103.29712014645339
 31
0.0
  0
LINE
  5
76F6
  8
0
 10
168.5000018142164
 20
103.29712014645339
 30
0.0
 11
162.50000176206231
 21
103.29712014645339
 31
0.0
  0
LINE
  5
76F7
  8
0
 10
162.50000176206231
 20
103.29712014645339
 30
0.0
 11
162.50000176206231
 21
100.0365123152733
 31
0.0
  0
CIRCLE
  5
76F8
  8
0
 10
165.50000178813929
 20
90.497120469808564
 30
0.0
 40
22.499999999999972
  0
ARC
  5
76F9
  8
0
 10
201.01998362756359
 20
92.392011786415495
 30
0.0
 40
2.7480000000000908
 50
237.39834923705899
 51
267.55602238678108
  0
ARC
  5
76FA
  8
0
 10
198.15401934561811
 20
76.545778959722071
 30
0.0
 40
13.38599999999996
 50
54.712263643957009
 51
78.150153524664063
  0
ARC
  5
76FB
  8
0
 10
200.27605954756919
 20
97.667570051933438
 30
0.0
 40
13.386000000000029
 50
270.37494577617809
 51
293.81277328707461
  0
ARC
  5
76FC
  8
0
 10
199.9315255793737
 20
81.56804642486523
 30
0.0
 40
2.748000000000018
 50
80.952501103424595
 51
111.1058470375595
  0
ARC
  5
76FD
  8
0
 10
199.34528159241
 20
83.226473020550586
 30
0.0
 40
0.99099999999999
 50
114.0134717798142
 51
169.07726278367579
  0
LINE
  5
76FE
  8
0
 10
198.16622304916379
 20
82.518975436687455
 30
0.0
 11
198.372235327959
 21
83.414252568036304
 31
0.0
  0
ARC
  5
76FF
  8
0
 10
199.12363164367389
 20
82.263142156695594
 30
0.0
 40
0.9910000000000026
 50
165.03927750073461
 51
220.09011526741
  0
ARC
  5
7700
  8
0
 10
200.37529838911721
 20
83.499020015498829
 30
0.0
 40
2.7480000000001561
 50
222.99834923705609
 51
253.15602238677769
  0
ARC
  5
7701
  8
0
 10
193.65857579157031
 20
68.863362066135352
 30
0.0
 40
13.385999999999919
 50
40.312263643952562
 51
63.750153524662359
  0
ARC
  5
7702
  8
0
 10
200.96672404185969
 20
88.793843312545476
 30
0.0
 40
13.386000000000051
 50
255.9749457761844
 51
279.41277328707139
  0
ARC
  5
7703
  8
0
 10
196.6292255276052
 20
73.285797938849669
 30
0.0
 40
2.7479999999999878
 50
66.552501103426351
 51
96.705847037559423
  0
ARC
  5
7704
  8
0
 10
196.4738333964716
 20
75.037914964367417
 30
0.0
 40
0.9910000000000326
 50
99.613471779817345
 51
154.67726278368039
  0
LINE
  5
7705
  8
0
 10
195.15586997568599
 20
74.645864963531494
 30
0.0
 11
195.57805526256561
 21
75.461781769990921
 31
0.0
  0
ARC
  5
7706
  8
0
 10
196.0195763446261
 20
74.159971011783313
 30
0.0
 40
0.9910000000000812
 50
150.63927750074041
 51
205.69011526741571
  0
ARC
  5
7707
  8
0
 10
187.39382547289571
 20
62.540273776449162
 30
0.0
 40
13.385999999999949
 50
25.912263643954581
 51
49.35015352466263
  0
ARC
  5
7708
  8
0
 10
199.42888393946879
 20
80.027139741163552
 30
0.0
 40
13.386000000000079
 50
241.57494577618169
 51
265.01277328707062
  0
ARC
  5
7709
  8
0
 10
191.3709618630096
 20
66.085000146270659
 30
0.0
 40
2.7479999999999838
 50
52.15250110342869
 51
82.305847037560426
  0
ARC
  5
770A
  8
0
 10
191.65618544679731
 20
67.820715645071857
 30
0.0
 40
0.9910000000000543
 50
85.213471779819614
 51
140.27726278368229
  0
LINE
  5
770B
  8
0
 10
190.28213042020801
 20
67.768746241927147
 30
0.0
 11
190.89396092295641
 21
68.454037606716156
 31
0.0
  0
ARC
  5
770C
  8
0
 10
190.9978639330505
 20
67.083323051151467
 30
0.0
 40
0.9910000000000308
 50
136.23927750074321
 51
191.2901152674248
  0
ARC
  5
770D
  8
0
 10
192.6900965624906
 20
67.563336021170699
 30
0.0
 40
2.7480000000000961
 50
194.19834923706171
 51
224.35602238678041
  0
ARC
  5
770E
  8
0
 10
179.75340569225671
 20
57.973816982596638
 30
0.0
 40
13.386000000000109
 50
11.5122636439551
 51
34.950153524661822
  0
ARC
  5
770F
  8
0
 10
195.75916738980979
 20
71.918303564857794
 30
0.0
 40
13.385999999999941
 50
227.1749457761828
 51
250.61277328707109
  0
ARC
  5
7710
  8
0
 10
184.48713063017419
 20
60.418105655117749
 30
0.0
 40
2.7479999999999971
 50
37.752501103430951
 51
67.905847037560392
  0
ARC
  5
7711
  8
0
 10
185.19504828213491
 20
62.028358238897653
 30
0.0
 40
0.9910000000000424
 50
70.813471779820802
 51
125.8772627836878
  0
LINE
  5
7712
  8
0
 10
183.85123628377909
 20
62.31973618268966
 30
0.0
 11
184.6142725944519
 21
62.83133961260318
 31
0.0
  0
ARC
  5
7713
  8
0
 10
184.37402706833291
 20
61.47785009225732
 30
0.0
 40
0.9910000000000556
 50
121.8392775007414
 51
176.89011526741709
  0
ARC
  5
7714
  8
0
 10
186.13246946927271
 20
61.521941430469163
 30
0.0
 40
2.7480000000000628
 50
179.79834923705801
 51
209.95602238678049
  0
ARC
  5
7715
  8
0
 10
171.21739212396949
 20
55.450918959188947
 30
0.0
 40
13.386000000000189
 50
357.112263643956
 51
20.55015352466144
  0
ARC
  5
7716
  8
0
 10
190.18815617997129
 20
64.976842782799281
 30
0.0
 40
13.38599999999999
 50
212.77494577618319
 51
236.21277328707399
  0
ARC
  5
7717
  8
0
 10
176.4102682624187
 20
56.641186287650207
 30
0.0
 40
2.7479999999999838
 50
23.35250110343048
 51
53.50584703755672
  0
ARC
  5
7718
  8
0
 10
177.49639891294061
 20
58.024797864475197
 30
0.0
 40
0.9910000000000184
 50
56.413471779805882
 51
111.47726278367639
  0
LINE
  5
7719
  8
0
 10
176.26726794242859
 20
58.641213178634636
 30
0.0
 11
177.13356184959409
 21
58.94698500633239
 31
0.0
  0
ARC
  5
771A
  8
0
 10
176.56426578145121
 20
57.695764616595568
 30
0.0
 40
0.9910000000000279
 50
107.4392775007269
 51
162.49011526742061
  0
ARC
  5
771B
  8
0
 10
178.2784285507409
 20
57.301163902063593
 30
0.0
 40
2.7479999999999638
 50
165.3983492370607
 51
195.55602238678199
  0
ARC
  5
771C
  8
0
 10
162.3221338937912
 20
55.130102667606508
 30
0.0
 40
13.38600000000009
 50
342.71226364395511
 51
6.1501535246615111
  0
ARC
  5
771D
  8
0
 10
183.0658974330135
 20
59.638914904831353
 30
0.0
 40
13.3859999999999
 50
198.37494577618219
 51
221.81277328707009
  0
ARC
  5
771E
  8
0
 10
167.6478737269309
 20
54.991559778263792
 30
0.0
 40
2.747999999999938
 50
8.9525011034282578
 51
39.105847037552508
  0
ARC
  5
771F
  8
0
 10
169.04397179273269
 20
56.061592944194409
 30
0.0
 40
0.9910000000000444
 50
42.013471779806189
 51
97.077262783678876
  0
LINE
  5
7720
  8
0
 10
168.0067526567727
 20
56.964314728975289
 30
0.0
 11
168.9218730125576
 21
57.045041769742959
 31
0.0
  0
ARC
  5
7721
  8
0
 10
168.05929609635331
 20
55.974708964139467
 30
0.0
 40
0.9910000000001041
 50
93.039277500749634
 51
148.09011526743001
  0
ARC
  5
7722
  8
0
 10
169.6214720829488
 20
55.166210410997621
 30
0.0
 40
2.747999999999994
 50
150.998349237062
 51
181.1560223867821
  0
ARC
  5
7723
  8
0
 10
153.62655279079539
 20
57.031526175329361
 30
0.0
 40
13.38600000000001
 50
328.31226364395548
 51
351.75015352466238
  0
ARC
  5
7724
  8
0
 10
174.83990885984321
 20
56.239921571052491
 30
0.0
 40
13.38600000000001
 50
183.97494577618201
 51
207.4127732870713
  0
ARC
  5
7725
  8
0
 10
158.75052049820829
 20
55.57287822744496
 30
0.0
 40
2.7480000000000211
 50
354.55250110342939
 51
24.705847037560371
  0
ARC
  5
7726
  8
0
 10
160.36886400332611
 20
56.262098863359277
 30
0.0
 40
0.9910000000001012
 50
27.613471779817768
 51
82.677262783699405
  0
LINE
  5
7727
  8
0
 10
159.5887288376689
 20
57.394406944513321
 30
0.0
 11
160.49517532065511
 21
57.245015352964401
 31
0.0
  0
ARC
  5
7728
  8
0
 10
159.39351653744421
 20
56.422823391132788
 30
0.0
 40
0.9910000000000072
 50
78.63927750074528
 51
133.69011526742409
  0
ARC
  5
7729
  8
0
 10
160.70554847882619
 20
55.2512279369246
 30
0.0
 40
2.7479999999999589
 50
136.5983492370591
 51
166.7560223867803
  0
ARC
  5
772A
  8
0
 10
145.67702415579359
 20
61.03571605042066
 30
0.0
 40
13.385999999999919
 50
313.91226364395408
 51
337.35015352466098
  0
ARC
  5
772B
  8
0
 10
166.02705957558231
 20
54.993434033246899
 30
0.0
 40
13.386000000000029
 50
169.57494577618169
 51
193.0127732870717
  0
ARC
  5
772C
  8
0
 10
150.27726200178799
 20
58.34861525909222
 30
0.0
 40
2.7479999999999798
 50
340.15250110342919
 51
10.305847037557109
  0
ARC
  5
772D
  8
0
 10
152.01616447194431
 20
58.613717097659467
 30
0.0
 40
0.9910000000000183
 50
13.213471779813091
 51
68.277262783687533
  0
LINE
  5
772E
  8
0
 10
151.5421325266361
 20
59.90446284413337
 30
0.0
 11
152.38294917345041
 21
59.534342214465141
 31
0.0
  0
ARC
  5
772F
  8
0
 10
151.111429904918
 20
59.011951220077982
 30
0.0
 40
0.9909999999999994
 50
64.23927750073355
 51
119.29011526741481
  0
ARC
  5
7730
  8
0
 10
152.09087800889381
 20
57.550874516017991
 30
0.0
 40
2.748000000000085
 50
122.1983492370565
 51
152.3560223867795
  0
ARC
  5
7731
  8
0
 10
138.97304610924411
 20
66.891074316648258
 30
0.0
 40
13.385999999999919
 50
299.5122636439533
 51
322.95015352466282
  0
ARC
  5
7732
  8
0
 10
157.18109331215319
 20
55.977773687675437
 30
0.0
 40
13.385999999999781
 50
155.1749457761822
 51
178.61277328707229
  0
ARC
  5
7733
  8
0
 10
142.76050423146461
 20
63.144361107060369
 30
0.0
 40
2.7480000000000611
 50
325.75250110343052
 51
355.90584703755752
  0
ARC
  5
7734
  8
0
 10
144.51070402922349
 20
62.968686824786971
 30
0.0
 40
0.9910000000000735
 50
358.81347177981411
 51
53.877262783698121
  0
LINE
  5
7735
  8
0
 10
144.372559890151
 20
64.336768537759781
 30
0.0
 11
145.09491603076461
 21
63.769172132015221
 31
0.0
  0
ARC
  5
7736
  8
0
 10
143.73343016128049
 20
63.579408027336221
 30
0.0
 40
0.9909999999999914
 50
49.8392775007325
 51
104.89011526741901
  0
ARC
  5
7737
  8
0
 10
144.31875210131889
 20
61.920654896204859
 30
0.0
 40
2.7480000000000988
 50
107.7983492370611
 51
137.9560223867783
  0
ARC
  5
7738
  8
0
 10
133.9358542473181
 20
74.229687279643912
 30
0.0
 40
13.38600000000009
 50
285.11226364395537
 51
308.55015352466432
  0
ARC
  5
7739
  8
0
 10
148.8578346630762
 20
59.131090853702091
 30
0.0
 40
13.386000000000349
 50
140.77494577617929
 51
164.21277328707049
  0
ARC
  5
773A
  8
0
 10
136.6725527226493
 20
69.658781422202082
 30
0.0
 40
2.748000000000034
 50
311.35250110342599
 51
341.50584703755658
  0
ARC
  5
773B
  8
0
 10
138.32407835793299
 20
69.05336928032807
 30
0.0
 40
0.991000000000022
 50
344.41347177981328
 51
39.477262783698279
  0
LINE
  5
773C
  8
0
 10
138.5305019021034
 20
70.412825047969804
 30
0.0
 11
139.0890085995197
 21
69.683418795466423
 31
0.0
  0
ARC
  5
773D
  8
0
 10
137.72310416480909
 20
69.838203703776458
 30
0.0
 40
0.9909999999999822
 50
35.439277500735869
 51
90.490115267413657
  0
ARC
  5
773E
  8
0
 10
137.87752201075421
 20
68.085999705269927
 30
0.0
 40
2.7480000000000739
 50
93.398349237060259
 51
123.55602238677849
  0
ARC
  5
773F
  8
0
 10
130.8819538601964
 20
82.59044289741172
 30
0.0
 40
13.38600000000006
 50
270.71226364395301
 51
294.15015352466139
  0
ARC
  5
7740
  8
0
 10
141.58026458007529
 20
64.255251016696917
 30
0.0
 40
13.38599999999974
 50
126.37494577618141
 51
149.81277328707341
  0
ARC
  5
7741
  8
0
 10
132.39593585856039
 20
77.48255121775486
 30
0.0
 40
2.7479999999997959
 50
296.95250110342653
 51
327.105847037557
  0
ARC
  5
7742
  8
0
 10
133.84501590181731
 20
76.485441487704463
 30
0.0
 40
0.9910000000000083
 50
330.01347177981251
 51
25.077262783687619
  0
LINE
  5
7743
  8
0
 10
134.38303749263281
 20
77.750851586461053
 30
0.0
 11
134.7426006495952
 21
76.905466802418232
 31
0.0
  0
ARC
  5
7744
  8
0
 10
133.4581028022952
 20
77.395075098807624
 30
0.0
 40
0.991000000000016
 50
21.03927750073855
 51
76.09011526741655
  0
ARC
  5
7745
  8
0
 10
133.17191391297681
 20
75.659517654307763
 30
0.0
 40
2.7479999999999678
 50
78.998349237059955
 51
109.1560223867786
  0
ARC
  5
7746
  8
0
 10
130.00323274066159
 20
91.448004145779294
 30
0.0
 40
13.38600000000012
 50
256.31226364395479
 51
279.7501535246588
  0
ARC
  5
7747
  8
0
 10
135.80565955649749
 20
71.028284348274951
 30
0.0
 40
13.386000000000051
 50
111.97494577618259
 51
135.4127732870721
  0
ARC
  5
7748
  8
0
 10
130.1993692050645
 20
86.124074263651934
 30
0.0
 40
2.7480000000000251
 50
282.5525011034315
 51
312.7058470375585
  0
ARC
  5
7749
  8
0
 10
131.35495262783371
 20
84.797919016877046
 30
0.0
 40
0.9909999999999811
 50
315.61347177981639
 51
10.677262783713561
  0
LINE
  5
774A
  8
0
 10
132.1907656192779
 20
85.88977362960577
 30
0.0
 11
132.32879507541651
 21
84.981528297066674
 31
0.0
  0
ARC
  5
774B
  8
0
 10
131.20641179492301
 20
85.775196190450956
 30
0.0
 40
0.9910000000001105
 50
6.6392775007318487
 51
61.690115267407847
  0
ARC
  5
774C
  8
0
 10
130.49759847078639
 20
84.165336757129353
 30
0.0
 40
2.7479999999999869
 50
64.598349237054407
 51
94.756022386778199
  0
ARC
  5
774D
  8
0
 10
131.35490416836441
 20
100.2458178756801
 30
0.0
 40
13.386000000000131
 50
241.9122636439545
 51
265.35015352466081
  0
ARC
  5
774E
  8
0
 10
131.896859263485
 20
79.024616254739783
 30
0.0
 40
13.3860000000001
 50
97.574945776181551
 51
121.0127732870701
  0
ARC
  5
774F
  8
0
 10
130.22087112340861
 20
95.040371885620686
 30
0.0
 40
2.7479999999999971
 50
268.15250110342691
 51
298.30584703755608
  0
ARC
  5
7750
  8
0
 10
131.01034836929861
 20
93.468498333534114
 30
0.0
 40
0.9910000000000515
 50
301.2134717798138
 51
356.2772627836988
  0
LINE
  5
7751
  8
0
 10
132.09143447875971
 20
94.318192172795534
 30
0.0
 11
131.9992558956146
 21
93.404154479503632
 31
0.0
  0
ARC
  5
7752
  8
0
 10
131.1095131698263
 20
94.452013150589124
 30
0.0
 40
0.9909999999999701
 50
352.23927750073148
 51
47.290115267419438
  0
ARC
  5
7753
  8
0
 10
130.02261275885979
 20
93.069005117290018
 30
0.0
 40
2.7480000000001761
 50
50.198349237057961
 51
80.356022386773276
  0
ARC
  5
7754
  8
0
 10
134.8520376564025
 20
108.4310850943688
 30
0.0
 40
13.38600000000007
 50
227.512263643957
 51
250.9501535246585
  0
ARC
  5
7755
  8
0
 10
165.50000178813929
 20
90.497120469808564
 30
0.0
 40
40.499999999999972
 50
165.60000000000031
 51
168.5166981160524
  0
ARC
  5
7756
  8
0
 10
130.09946799900999
 20
87.741807793956397
 30
0.0
 40
13.3860000000002
 50
83.174945776182184
 51
106.6127732870731
  0
ARC
  5
7757
  8
0
 10
132.45909056898429
 20
103.6712003122241
 30
0.0
 40
2.7480000000000562
 50
253.75250110343171
 51
283.90584703756002
  0
ARC
  5
7758
  8
0
 10
132.8328558791419
 20
101.9523750510499
 30
0.0
 40
0.9909999999999564
 50
286.81347177981132
 51
341.87726278370178
  0
LINE
  5
7759
  8
0
 10
134.0912895202637
 20
102.50651855021709
 30
0.0
 11
133.77469572424889
 21
101.6441212967038
 31
0.0
  0
ARC
  5
775A
  8
0
 10
133.1734954239879
 20
102.8803296585159
 30
0.0
 40
0.9910000000000601
 50
337.83927750072479
 51
32.890115267408383
  0
ARC
  5
775B
  8
0
 10
131.77680187635289
 20
101.8110725063196
 30
0.0
 40
2.7480000000000269
 50
35.798349237056868
 51
65.956022386777093
  0
ARC
  5
775C
  8
0
 10
140.274895446165
 20
115.489495359188
 30
0.0
 40
13.3859999999998
 50
213.11226364395461
 51
236.55015352466421
  0
ARC
  5
775D
  8
0
 10
165.50000178813929
 20
90.497120469808564
 30
0.0
 40
40.500000000000028
 50
151.1999999999999
 51
154.11669811605111
  0
ARC
  5
775E
  8
0
 10
130.52642246656191
 20
96.632125761928265
 30
0.0
 40
13.386000000000029
 50
68.774945776183714
 51
92.212773287073475
  0
ARC
  5
775F
  8
0
 10
136.77339198243081
 20
111.47425285145189
 30
0.0
 40
2.7479999999999718
 50
239.35250110343361
 51
269.50584703756073
  0
ARC
  5
7760
  8
0
 10
136.70796030780579
 20
109.716475993747
 30
0.0
 40
0.9910000000000161
 50
272.41347177981368
 51
327.47726278369231
  0
LINE
  5
7761
  8
0
 10
138.06466738879681
 20
109.9402505904436
 30
0.0
 11
137.54354956746101
 21
109.1836795210838
 31
0.0
  0
ARC
  5
7762
  8
0
 10
137.26867096158321
 20
110.53056359085861
 30
0.0
 40
0.990999999999977
 50
323.43927750073948
 51
18.49011526741122
  0
ARC
  5
7763
  8
0
 10
135.6499436695569
 20
109.84224267909021
 30
0.0
 40
2.7480000000000651
 50
21.39834923705445
 51
51.556022386774188
  0
ARC
  5
7764
  8
0
 10
147.28273943884579
 20
120.9775427941828
 30
0.0
 40
13.3860000000001
 50
198.7122636439565
 51
222.1501535246621
  0
ARC
  5
7765
  8
0
 10
165.50000178813929
 20
90.497120469808564
 30
0.0
 40
40.500000000000007
 50
136.80000000000001
 51
139.7166981160523
  0
ARC
  5
7766
  8
0
 10
133.15089554671599
 20
105.13695878442491
 30
0.0
 40
13.386000000000029
 50
54.374945776180567
 51
77.812773287070314
  0
ARC
  5
7767
  8
0
 10
142.89269193905051
 20
117.959235014645
 30
0.0
 40
2.7480000000000411
 50
224.9525011034313
 51
255.10584703756041
  0
ARC
  5
7768
  8
0
 10
142.39217459240081
 20
116.2729541450298
 30
0.0
 40
0.9909999999999382
 50
258.01347177980921
 51
313.07726278369603
  0
LINE
  5
7769
  8
0
 10
143.761908441782
 20
116.152298822999
 30
0.0
 11
143.06901189684871
 21
115.5490942299366
 31
0.0
  0
ARC
  5
776A
  8
0
 10
143.13772484258291
 20
116.92202261405581
 30
0.0
 40
0.9910000000000401
 50
309.03927750074109
 51
4.0901152674155501
  0
ARC
  5
776B
  8
0
 10
141.39867439518599
 20
116.6578876770689
 30
0.0
 40
2.7480000000000699
 50
6.9983492370570328
 51
37.156022386778602
  0
ARC
  5
776C
  8
0
 10
155.43524102333669
 20
124.550393195385
 30
0.0
 40
13.38600000000012
 50
184.3122636439553
 51
207.7501535246619
  0
ARC
  5
776D
  8
0
 10
165.50000178813929
 20
90.497120469808564
 30
0.0
 40
40.499999999999993
 50
122.4000000000014
 51
125.31669811604991
  0
ARC
  5
776E
  8
0
 10
137.80798194370919
 20
112.72191692405509
 30
0.0
 40
13.38600000000014
 50
39.974945776181258
 51
63.412773287071722
  0
ARC
  5
776F
  8
0
 10
150.4324923173582
 20
122.71867152239351
 30
0.0
 40
2.748000000000006
 50
210.55250110342811
 51
240.7058470375523
  0
ARC
  5
7770
  8
0
 10
149.52833864434751
 20
121.2098418696134
 30
0.0
 40
0.991000000000055
 50
243.61347177980889
 51
298.67726278369378
  0
LINE
  5
7771
  8
0
 10
150.82503463327879
 20
120.7523375749588
 30
0.0
 11
150.003894969821
 21
120.3404005616903
 31
0.0
  0
ARC
  5
7772
  8
0
 10
150.41188282677351
 20
121.653107851538
 30
0.0
 40
0.9910000000000296
 50
294.63927750074589
 51
349.69011526742008
  0
ARC
  5
7773
  8
0
 10
148.66178015939619
 20
121.82975545884371
 30
0.0
 40
2.7479999999998772
 50
352.59834923706001
 51
22.75602238677925
  0
ARC
  5
7774
  8
0
 10
164.2201485422809
 20
125.98355123206289
 30
0.0
 40
13.386000000000079
 50
169.9122636439551
 51
193.3501535246626
  0
ARC
  5
7775
  8
0
 10
144.20505979165279
 20
118.9104093653812
 30
0.0
 40
13.386000000000189
 50
25.57494577618025
 51
49.01277328707215
  0
ARC
  5
7776
  8
0
 10
158.91903973013851
 20
125.4535094749329
 30
0.0
 40
2.7479999999999838
 50
196.1525011034303
 51
226.30584703757
  0
ARC
  5
7777
  8
0
 10
157.6680610312869
 20
124.21693635515901
 30
0.0
 40
0.9909999999999627
 50
229.21347177984009
 51
284.27726278368112
  0
LINE
  5
7778
  8
0
 10
158.8102423511445
 20
123.45132902264589
 30
0.0
 11
157.9124557711184
 21
123.2565447688103
 31
0.0
  0
ARC
  5
7779
  8
0
 10
158.63408281552671
 20
124.4265478181197
 30
0.0
 40
0.9910000000000573
 50
280.23927750074722
 51
335.29011526742431
  0
ARC
  5
777A
  8
0
 10
156.9828933151874
 20
125.03287855088681
 30
0.0
 40
2.7480000000000739
 50
338.1983492370619
 51
8.3560223867777452
  0
ARC
  5
777B
  8
0
 10
173.0854739476334
 20
125.1869663139852
 30
0.0
 40
13.385999999999861
 50
155.51226364395319
 51
178.95015352466169
  0
ARC
  5
777C
  8
0
 10
151.94017716255399
 20
123.31359036863169
 30
0.0
 40
13.386000000000211
 50
11.174945776181749
 51
34.612773287071512
  0
ARC
  5
777D
  8
0
 10
167.8190931921084
 20
125.9919089456744
 30
0.0
 40
2.7480000000000291
 50
181.75250110342981
 51
211.9058470375561
  0
ARC
  5
777E
  8
0
 10
166.29989305984259
 20
125.1052907958202
 30
0.0
 40
0.9909999999999689
 50
214.81347177981149
 51
269.87726278367131
  0
LINE
  5
777F
  8
0
 10
167.2157922685146
 20
124.0796886384487
 30
0.0
 11
166.29777014441791
 21
124.1142928600311
 31
0.0
  0
ARC
  5
7780
  8
0
 10
167.28769374441291
 20
125.0680770807021
 30
0.0
 40
0.9910000000000211
 50
265.83927750073792
 51
320.89011526742468
  0
ARC
  5
7781
  8
0
 10
165.83916772006839
 20
126.06599294906211
 30
0.0
 40
2.7479999999998479
 50
323.79834923706102
 51
353.9560223867818
  0
ARC
  5
7782
  8
0
 10
181.4741762397901
 20
122.2106908011892
 30
0.0
 40
13.38600000000017
 50
141.11226364395529
 51
164.55015352466111
  0
ARC
  5
7783
  8
0
 10
160.52730818422731
 20
125.65479187760531
 30
0.0
 40
13.386000000000131
 50
356.77494577618239
 51
20.212773287070881
  0
ARC
  5
7784
  8
0
 10
176.5734296121453
 20
124.3000403157767
 30
0.0
 40
2.747999999999966
 50
167.35250110342591
 51
197.505847037557
  0
ARC
  5
7785
  8
0
 10
174.88146497800281
 20
123.8190866149511
 30
0.0
 40
0.9910000000000284
 50
200.41347177981791
 51
255.47726278365701
  0
LINE
  5
7786
  8
0
 10
175.51353275030851
 20
122.5979320704937
 30
0.0
 11
174.6329579427838
 21
122.8597491979599
 31
0.0
  0
ARC
  5
7787
  8
0
 10
175.8289774130152
 20
123.53738599633741
 30
0.0
 40
0.9910000000000088
 50
251.43927750074971
 51
306.49011526742652
  0
ARC
  5
7788
  8
0
 10
174.67413108208089
 20
124.8641842762037
 30
0.0
 40
2.7480000000001161
 50
309.39834923706439
 51
339.55602238677972
  0
ARC
  5
7789
  8
0
 10
188.8591624022452
 20
117.2417350301195
 30
0.0
 40
13.38600000000037
 50
126.7122636439552
 51
150.1501535246606
  0
ARC
  5
778A
  8
0
 10
169.4268918333222
 20
125.78690759115629
 30
0.0
 40
13.38600000000009
 50
342.37494577618253
 51
5.8127732870716802
  0
ARC
  5
778B
  8
0
 10
184.63198183678131
 20
120.48420991351389
 30
0.0
 40
2.7479999999999358
 50
152.95250110342641
 51
183.1058470375589
  0
ARC
  5
778C
  8
0
 10
182.87356506133571
 20
120.4391407515635
 30
0.0
 40
0.9909999999999946
 50
186.01347177981799
 51
241.07726278367119
  0
LINE
  5
778D
  8
0
 10
183.18208660185331
 20
119.09916177392
 30
0.0
 11
182.39428828656671
 21
119.5717446506023
 31
0.0
  0
ARC
  5
778E
  8
0
 10
183.72125355579149
 20
119.9306535153443
 30
0.0
 40
0.9910000000000504
 50
237.03927750074089
 51
292.09011526741682
  0
ARC
  5
778F
  8
0
 10
182.93265016046769
 20
121.50296659116989
 30
0.0
 40
2.7479999999999838
 50
294.99834923706129
 51
325.15602238678099
  0
ARC
  5
7790
  8
0
 10
194.77640659433251
 20
110.5923167664139
 30
0.0
 40
13.38600000000006
 50
112.3122636439537
 51
135.75015352465999
  0
ARC
  5
7791
  8
0
 10
178.07973453878679
 20
123.70163619311469
 30
0.0
 40
13.386000000000021
 50
327.9749457761809
 51
351.41277328707253
  0
ARC
  5
7792
  8
0
 10
191.48840139246039
 20
114.7841803967026
 30
0.0
 40
2.7480000000000659
 50
138.5525011034278
 51
168.70584703755611
  0
ARC
  5
7793
  8
0
 10
189.77402026871761
 20
115.1778276348256
 30
0.0
 40
0.9910000000000108
 50
171.61347177981199
 51
226.67726278367471
  0
LINE
  5
7794
  8
0
 10
189.73960894346229
 20
113.80322016775609
 30
0.0
 11
189.09408877789971
 21
114.4568745046854
 31
0.0
  0
ARC
  5
7795
  8
0
 10
190.46862143692979
 20
114.4745039041378
 30
0.0
 40
0.9910000000000289
 50
222.6392775007439
 51
277.69011526742941
  0
ARC
  5
7796
  8
0
 10
190.09581182882539
 20
116.1935375628057
 30
0.0
 40
2.7480000000000309
 50
280.59834923705682
 51
310.75602238677772
  0
ARC
  5
7797
  8
0
 10
198.85410660136191
 20
102.68024341443
 30
0.0
 40
13.386000000000079
 50
97.912263643956763
 51
121.3501535246628
  0
ARC
  5
7798
  8
0
 10
185.94214637050749
 20
119.5300029545113
 30
0.0
 40
13.38600000000006
 50
313.57494577618121
 51
337.01277328707209
  0
ARC
  5
7799
  8
0
 10
196.71187422235209
 20
107.55810558312631
 30
0.0
 40
2.748000000000141
 50
124.1525011034267
 51
154.3058470375592
  0
ARC
  5
779A
  8
0
 10
195.14924962136959
 20
108.3657349176183
 30
0.0
 40
0.9910000000001147
 50
157.2134717798198
 51
212.2772627836699
  0
LINE
  5
779B
  8
0
 10
194.77406869828701
 20
107.04287067055699
 30
0.0
 11
194.31138578057289
 21
107.83652327954771
 31
0.0
  0
ARC
  5
779C
  8
0
 10
195.6471191173749
 20
107.5117671091045
 30
0.0
 40
0.9910000000000302
 50
208.23927750073949
 51
263.29011526742403
  0
ARC
  5
779D
  8
0
 10
195.71352829526481
 20
109.2695081436772
 30
0.0
 40
2.748000000000109
 50
266.19834923706389
 51
296.35602238678348
  0
ARC
  5
779E
  8
0
 10
200.83604553515951
 20
94.002659641443813
 30
0.0
 40
13.386000000000021
 50
83.512263643955706
 51
106.95015352466331
  0
ARC
  5
779F
  8
0
 10
192.5201030771691
 20
113.5341269339212
 30
0.0
 40
13.3860000000002
 50
299.17494577618407
 51
322.61277328707098
  0
ARC
  5
77A0
  8
0
 10
199.974190317965
 20
99.260026328966234
 30
0.0
 40
2.7480000000000291
 50
109.7525011034313
 51
139.90584703755661
  0
ARC
  5
77A1
  8
0
 10
198.66150769035389
 20
100.430891438488
 30
0.0
 40
0.9910000000000309
 50
142.81347177981411
 51
197.87726278367401
  0
LINE
  5
77A2
  8
0
 10
197.96912911534309
 20
99.242891371250153
 30
0.0
 11
197.7183574736118
 21
100.1266755163669
 31
0.0
  0
ARC
  5
77A3
  8
0
 10
198.93136254268239
 20
99.479937490231265
 30
0.0
 40
0.9909999999999923
 50
193.83927750075279
 51
248.89011526742519
  0
ARC
  5
77A4
  8
0
 10
199.43281777368389
 20
101.165940566987
 30
0.0
 40
2.7480000000000309
 50
251.79834923705869
 51
281.95602238678168
  0
ARC
  5
77A5
  8
0
 10
200.59769088345379
 20
85.104809949832443
 30
0.0
 40
13.38600000000004
 50
69.112263643953852
 51
92.550153524657901
  0
ARC
  5
77A6
  8
0
 10
165.50000178813929
 20
90.497120469808564
 30
0.0
 40
40.500000000000043
 50
7.2000000000002577
 51
10.11669811605266
  0
ARC
  5
77A7
  8
0
 10
197.40028744685989
 20
106.0907510730076
 30
0.0
 40
13.385999999999999
 50
284.77494577618501
 51
308.21277328707288
  0
ARC
  5
77A8
  8
0
 10
201.07036636105241
 20
90.411341471961833
 30
0.0
 40
2.748000000000026
 50
95.352501103426178
 51
125.5058470375603
  0
ARC
  5
77A9
  8
0
 10
200.0901063840144
 20
91.871872595541532
 30
0.0
 40
0.9910000000000202
 50
128.4134717798209
 51
183.47726278367389
  0
LINE
  5
77AA
  8
0
 10
199.1240398883819
 20
90.89338265475817
 30
0.0
 11
199.1009319126606
 21
91.811765986494706
 31
0.0
  0
ARC
  5
77AB
  8
0
 10
200.11499061983781
 20
90.883684441474756
 30
0.0
 40
0.991000000000009
 50
179.43927750073129
 51
234.4901152674222
  0
ARC
  5
77AC
  8
0
 10
197.53927000286251
 20
75.04574463333941
 30
0.0
 40
2.7480000000000322
 50
208.59834923705731
 51
238.75602238677561
  0
ARC
  5
77AD
  8
0
 10
165.50000178813929
 20
90.497120469808564
 30
0.0
 40
40.500000000000043
 50
194.40000000000049
 51
197.3166981160538
  0
ARC
  5
77AE
  8
0
 10
165.50000178813929
 20
90.497120469808564
 30
0.0
 40
40.500000000000057
 50
208.80000000000081
 51
211.71669811605389
  0
ARC
  5
77AF
  8
0
 10
165.50000178813929
 20
90.497120469808564
 30
0.0
 40
40.500000000000007
 50
223.20000000000061
 51
226.1166981160533
  0
ARC
  5
77B0
  8
0
 10
165.50000178813929
 20
90.497120469808564
 30
0.0
 40
40.500000000000057
 50
237.59999999999951
 51
240.51669811605339
  0
ARC
  5
77B1
  8
0
 10
165.50000178813929
 20
90.497120469808564
 30
0.0
 40
40.500000000000028
 50
252.00000000000099
 51
254.9166981160497
  0
ARC
  5
77B2
  8
0
 10
165.50000178813929
 20
90.497120469808564
 30
0.0
 40
40.500000000000028
 50
266.40000000000401
 51
269.31669811604883
  0
ARC
  5
77B3
  8
0
 10
165.50000178813929
 20
90.497120469808564
 30
0.0
 40
40.500000000000028
 50
280.8000000000024
 51
283.71669811605233
  0
ARC
  5
77B4
  8
0
 10
165.50000178813929
 20
90.497120469808564
 30
0.0
 40
40.5
 50
295.19999999999919
 51
298.11669811605429
  0
ARC
  5
77B5
  8
0
 10
165.50000178813929
 20
90.497120469808564
 30
0.0
 40
40.500000000000021
 50
309.60000000000321
 51
312.51669811605422
  0
ARC
  5
77B6
  8
0
 10
165.50000178813929
 20
90.497120469808564
 30
0.0
 40
40.500000000000028
 50
323.9999999999992
 51
326.91669811605482
  0
ARC
  5
77B7
  8
0
 10
165.50000178813929
 20
90.497120469808564
 30
0.0
 40
40.500000000000021
 50
338.40000000000219
 51
341.31669811605332
  0
ARC
  5
77B8
  8
0
 10
165.50000178813929
 20
90.497120469808564
 30
0.0
 40
40.500000000000028
 50
352.80000000000052
 51
355.71669811605392
  0
ARC
  5
77B9
  8
0
 10
165.50000178813929
 20
90.497120469808564
 30
0.0
 40
40.499999999999993
 50
21.600000000000019
 51
24.516698116053039
  0
ARC
  5
77BA
  8
0
 10
165.50000178813929
 20
90.497120469808564
 30
0.0
 40
40.500000000000007
 50
36.00000000000081
 51
38.91669811605113
  0
ARC
  5
77BB
  8
0
 10
165.50000178813929
 20
90.497120469808564
 30
0.0
 40
40.500000000000028
 50
50.400000000002258
 51
53.31669811605164
  0
ARC
  5
77BC
  8
0
 10
165.50000178813929
 20
90.497120469808564
 30
0.0
 40
40.500000000000043
 50
64.800000000001504
 51
67.716698116049855
  0
ARC
  5
77BD
  8
0
 10
165.50000178813929
 20
90.497120469808564
 30
0.0
 40
40.499999999999957
 50
79.1999999999978
 51
82.116698116053897
  0
ARC
  5
77BE
  8
0
 10
165.50000178813929
 20
90.497120469808564
 30
0.0
 40
40.500000000000007
 50
93.599999999996029
 51
96.516698116049355
  0
ARC
  5
77BF
  8
0
 10
165.50000178813929
 20
90.497120469808564
 30
0.0
 40
40.500000000000028
 50
107.99999999999901
 51
110.91669811605411
  0
ARC
  5
77C0
  8
0
 10
165.50000178813929
 20
90.497120469808564
 30
0.0
 40
40.499999999999993
 50
180.0000000000008
 51
182.916698116053
  0
LINE
  5
77C5
  8
0
 10
79.999999329447746
 20
67.997119575738907
 30
0.0
 11
95.000001788139343
 21
67.997119575738907
 31
0.0
  0
LINE
  5
77C6
  8
0
 10
95.000001788139343
 20
112.99712136387819
 30
0.0
 11
79.999999329447746
 21
112.99712136387819
 31
0.0
  0
LINE
  5
77C7
  8
3
 10
50.0
 20
88.436318282037973
 30
0.0
 11
79.999999329447746
 21
88.436318282037973
 31
0.0
  0
LINE
  5
77C8
  8
3
 10
79.999999329447746
 20
90.497120469808564
 30
0.0
 11
50.0
 21
90.497120469808564
 31
0.0
  0
LINE
  5
77D1
  8
3
 10
79.999999329447746
 20
100.56906118988989
 30
0.0
 11
50.0
 21
100.56906118988989
 31
0.0
  0
LINE
  5
77D2
  8
3
 10
50.0
 20
98.559955321252346
 30
0.0
 11
79.999999329447746
 21
98.559955321252346
 31
0.0
  0
LINE
  5
77DA
  8
3
 10
79.999999329447746
 20
80.425179749727235
 30
0.0
 11
50.0
 21
80.425179749727235
 31
0.0
  0
LINE
  5
77DB
  8
3
 10
50.0
 20
78.442169539630413
 30
0.0
 11
79.999999329447746
 21
78.442169539630413
 31
0.0
  0
LINE
  5
77E4
  8
3
 10
50.0
 20
108.1769738346338
 30
0.0
 11
79.999999329447746
 21
108.1769738346338
 31
0.0
  0
LINE
  5
77E7
  8
3
 10
79.999999329447746
 20
110.00814400613309
 30
0.0
 11
50.0
 21
110.00814400613309
 31
0.0
  0
LINE
  5
77EA
  8
3
 10
79.999999329447746
 20
70.986096933484063
 30
0.0
 11
50.0
 21
70.986096933484063
 31
0.0
  0
LINE
  5
77F0
  8
3
 10
50.0
 20
69.205477088689804
 30
0.0
 11
79.999999329447746
 21
69.205477088689804
 31
0.0
  0
LINE
  5
7824
  8
3
 10
50.0
 20
116.6831042617559
 30
0.0
 11
79.999999329447746
 21
116.6831042617559
 31
0.0
  0
LINE
  5
7827
  8
3
 10
79.999999329447746
 20
118.221278488636
 30
0.0
 11
50.0
 21
118.221278488636
 31
0.0
  0
LINE
  5
782C
  8
3
 10
79.999999329447746
 20
62.77296245098114
 30
0.0
 11
50.0
 21
62.77296245098114
 31
0.0
  0
LINE
  5
782D
  8
3
 10
50.0
 20
61.306617408990853
 30
0.0
 11
79.999999329447746
 21
61.306617408990853
 31
0.0
  0
LINE
  5
783D
  8
3
 10
79.999999329447746
 20
124.6924020349979
 30
0.0
 11
50.0
 21
124.6924020349979
 31
0.0
  0
LINE
  5
783E
  8
3
 10
50.0
 20
123.5438726842403
 30
0.0
 11
79.999999329447746
 21
123.5438726842403
 31
0.0
  0
LINE
  5
7844
  8
0
 10
95.000001788139343
 20
67.997119575738907
 30
0.0
 11
95.000001788139343
 21
112.99712136387819
 31
0.0
  0
LINE
  5
7847
  8
3
 10
79.999999329447746
 20
56.30183890461921
 30
0.0
 11
50.0
 21
56.30183890461921
 31
0.0
  0
LINE
  5
7848
  8
3
 10
50.0
 20
55.241904407739632
 30
0.0
 11
79.999999329447746
 21
55.241904407739632
 31
0.0
  0
LINE
  5
784D
  8
3
 10
50.0
 20
128.32818850874901
 30
0.0
 11
79.999999329447746
 21
128.32818850874901
 31
0.0
  0
LINE
  5
7850
  8
3
 10
79.999999329447746
 20
129.01490852236751
 30
0.0
 11
50.0
 21
129.01490852236751
 31
0.0
  0
LINE
  5
7853
  8
3
 10
79.999999329447746
 20
51.979332417249672
 30
0.0
 11
50.0
 21
51.979332417249672
 31
0.0
  0
LINE
  5
7856
  8
3
 10
50.0
 20
51.392405480146401
 30
0.0
 11
79.999999329447746
 21
51.392405480146401
 31
0.0
  0
LINE
  5
7859
  8
3
 10
50.0
 20
130.73544129729271
 30
0.0
 11
79.999999329447746
 21
130.73544129729271
 31
0.0
  0
LINE
  5
785C
  8
0
 10
79.999999329447746
 20
130.91720193624499
 30
0.0
 11
50.0
 21
130.91720193624499
 31
0.0
  0
LINE
  5
785F
  8
3
 10
79.999999329447746
 20
50.077039003372192
 30
0.0
 11
50.0
 21
50.077039003372192
 31
0.0
  0
LINE
  5
7862
  8
0
 10
50.0
 20
50.0
 30
0.0
 11
79.999999329447746
 21
50.0
 31
0.0
  0
LINE
  5
7863
  8
0
 10
79.999999329447746
 20
50.0
 30
0.0
 11
79.999999329447746
 21
130.91720193624499
 31
0.0
  0
LINE
  5
7864
  8
0
 10
50.0
 20
50.0
 30
0.0
 11
50.0
 21
130.91720193624499
 31
0.0
  0
LINE
  5
7888
  8
2
 10
95.000001788139343
 20
100.0365123152733
 30
0.0
 11
50.0
 21
100.0365123152733
 31
0.0
  0
LINE
  5
7895
  8
2
 10
95.000001788139343
 20
103.29712014645339
 30
0.0
 11
50.0
 21
103.29712014645339
 31
0.0
  0
LINE
  5
7904
  8
2
 10
50.0
 20
80.497120693325996
 30
0.0
 11
95.000001788139343
 21
80.497120693325996
 31
0.0
  0
LINE
  5
791D
  8
1
 10
210.00000178813929
 20
90.497120469808564
 30
0.0
 11
121.0000017881393
 21
90.497120469808564
 31
0.0
  0
LINE
  5
791E
  8
1
 10
165.50000178813929
 20
134.99712046980849
 30
0.0
 11
165.50000178813929
 21
45.997120469808571
 31
0.0
  0
CIRCLE
  5
792D
  8
5
 10
165.50000178813929
 20
90.497120469808564
 30
0.0
 40
37.5
  0
LINE
  5
7993
  8
1
 10
99.000001788139343
 20
90.497120469808564
 30
0.0
 11
46.0
 21
90.497120469808564
 31
0.0
  0
ENDSEC
  0
EOF
