  0
SECTION
  2
HEADER
  9
$ACADVER
  1
AC1009
  9
$INSBASE
 10
0.0
 20
0.0
 30
0.0
  9
$EXTMIN
 10
0.0
 20
-2.960436562073669
 30
0.0
  9
$EXTMAX
 10
275.0000017881394
 20
180.00000101327899
 30
0.0
  9
$LIMMIN
 10
0.0
 20
0.0
  9
$LIMMAX
 10
275.0
 20
175.0
  9
$ORTHOMODE
 70
     1
  9
$REGENMODE
 70
     1
  9
$FILLMODE
 70
     1
  9
$QTEXTMODE
 70
     0
  9
$MIRRTEXT
 70
     0
  9
$DRAGMODE
 70
     2
  9
$LTSCALE
 40
5.0
  9
$OSMODE
 70
    37
  9
$ATTMODE
 70
     1
  9
$TEXTSIZE
 40
0.2
  9
$TRACEWID
 40
0.05
  9
$TEXTSTYLE
  7
STANDARD
  9
$CLAYER
  8
0
  9
$CELTYPE
  6
BYLAYER
  9
$CECOLOR
 62
   256
  9
$DIMSCALE
 40
1.0
  9
$DIMASZ
 40
3.0
  9
$DIMEXO
 40
1.0
  9
$DIMDLI
 40
6.0
  9
$DIMRND
 40
0.0
  9
$DIMDLE
 40
0.0
  9
$DIMEXE
 40
1.0
  9
$DIMTP
 40
495.0
  9
$DIMTM
 40
0.0
  9
$DIMTXT
 40
3.0
  9
$DIMCEN
 40
0.0
  9
$DIMTSZ
 40
0.0
  9
$DIMTOL
 70
     0
  9
$DIMLIM
 70
     0
  9
$DIMTIH
 70
     0
  9
$DIMTOH
 70
     0
  9
$DIMSE1
 70
     0
  9
$DIMSE2
 70
     0
  9
$DIMTAD
 70
     1
  9
$DIMZIN
 70
     8
  9
$DIMBLK
  1

  9
$DIMASO
 70
     0
  9
$DIMSHO
 70
     0
  9
$DIMPOST
  1

  9
$DIMAPOST
  1

  9
$DIMALT
 70
     0
  9
$DIMALTD
 70
     2
  9
$DIMALTF
 40
25.399999999999999
  9
$DIMLFAC
 40
1.0
  9
$DIMTOFL
 70
     1
  9
$DIMTVP
 40
0.0
  9
$DIMTIX
 70
     1
  9
$DIMSOXD
 70
     0
  9
$DIMSAH
 70
     0
  9
$DIMBLK1
  1

  9
$DIMBLK2
  1

  9
$DIMSTYLE
  2
STANDARD
  9
$DIMCLRD
 70
     0
  9
$DIMCLRE
 70
     0
  9
$DIMCLRT
 70
     0
  9
$DIMTFAC
 40
1.0
  9
$DIMGAP
 40
1.0
  9
$LUNITS
 70
     2
  9
$LUPREC
 70
     1
  9
$SKETCHINC
 40
0.1
  9
$FILLETRAD
 40
0.0
  9
$AUNITS
 70
     0
  9
$AUPREC
 70
     0
  9
$MENU
  1
E:\r13\win\SUPPORT\ACAD
  9
$ELEVATION
 40
0.0
  9
$PELEVATION
 40
0.0
  9
$THICKNESS
 40
0.0
  9
$LIMCHECK
 70
     0
  9
$BLIPMODE
 70
     0
  9
$CHAMFERA
 40
0.0
  9
$CHAMFERB
 40
0.0
  9
$SKPOLY
 70
     0
  9
$TDCREATE
 40
2450653.5278402781
  9
$TDUPDATE
 40
2459439.612895417
  9
$TDINDWG
 40
0.6666673032
  9
$TDUSRTIMER
 40
0.6666673032
  9
$USRTIMER
 70
     1
  9
$ANGBASE
 50
0.0
  9
$ANGDIR
 70
     0
  9
$PDMODE
 70
     0
  9
$PDSIZE
 40
0.0
  9
$PLINEWID
 40
0.0
  9
$COORDS
 70
     1
  9
$SPLFRAME
 70
     0
  9
$SPLINETYPE
 70
     6
  9
$SPLINESEGS
 70
     8
  9
$ATTDIA
 70
     0
  9
$ATTREQ
 70
     1
  9
$HANDLING
 70
     1
  9
$HANDSEED
  5
9776
  9
$SURFTAB1
 70
     6
  9
$SURFTAB2
 70
     6
  9
$SURFTYPE
 70
     6
  9
$SURFU
 70
     6
  9
$SURFV
 70
     6
  9
$UCSNAME
  2

  9
$UCSORG
 10
0.0
 20
0.0
 30
0.0
  9
$UCSXDIR
 10
1.0
 20
0.0
 30
0.0
  9
$UCSYDIR
 10
0.0
 20
1.0
 30
0.0
  9
$PUCSNAME
  2

  9
$PUCSORG
 10
0.0
 20
0.0
 30
0.0
  9
$PUCSXDIR
 10
1.0
 20
0.0
 30
0.0
  9
$PUCSYDIR
 10
0.0
 20
1.0
 30
0.0
  9
$USERI1
 70
     4
  9
$USERI2
 70
     1
  9
$USERI3
 70
     1
  9
$USERI4
 70
     0
  9
$USERI5
 70
     0
  9
$USERR1
 40
1.0
  9
$USERR2
 40
3.0
  9
$USERR3
 40
3.0
  9
$USERR4
 40
3.0
  9
$USERR5
 40
10.0
  9
$WORLDVIEW
 70
     1
  9
$SHADEDGE
 70
     3
  9
$SHADEDIF
 70
    70
  9
$TILEMODE
 70
     1
  9
$MAXACTVP
 70
    16
  9
$PLIMCHECK
 70
     0
  9
$PEXTMIN
 10
1.0000000000000000E+020
 20
1.0000000000000000E+020
 30
1.0000000000000000E+020
  9
$PEXTMAX
 10
-1.0000000000000000E+020
 20
-1.0000000000000000E+020
 30
-1.0000000000000000E+020
  9
$PLIMMIN
 10
0.0
 20
0.0
  9
$PLIMMAX
 10
12.0
 20
9.0
  9
$UNITMODE
 70
     0
  9
$VISRETAIN
 70
     0
  9
$PLINEGEN
 70
     0
  9
$PSLTSCALE
 70
     0
  0
ENDSEC
  0
SECTION
  2
TABLES
  0
TABLE
  2
VPORT
 70
     1
  0
VPORT
  2
*ACTIVE
 70
     0
 10
0.0
 20
0.0
 11
1.0
 21
1.0
 12
260.1957585644372
 22
100.0
 13
0.0
 23
0.0
 14
5.0
 24
5.0
 15
10.0
 25
10.0
 16
0.0
 26
0.0
 36
1.0
 17
0.0
 27
0.0
 37
0.0
 40
200.0
 41
2.6019575856443722
 42
50.0
 43
0.0
 44
0.0
 50
0.0
 51
0.0
 71
     0
 72
   100
 73
     1
 74
     0
 75
     0
 76
     0
 77
     0
 78
     0
  0
ENDTAB
  0
TABLE
  2
LTYPE
 70
     5
  0
LTYPE
  2
CONTINUOUS
 70
     0
  3
Solid Line
 72
    65
 73
     0
 40
0.0
  0
LTYPE
  2
CENTER
 70
     0
  3
____ _ ____ _ ____ _ ____ _ ____ _ ____ _ ____ 
 72
    65
 73
     4
 40
2.0
 49
1.25
 49
-0.25
 49
0.25
 49
-0.25
  0
LTYPE
  2
HIDDEN
 70
     0
  3
__ __ __ __ __ __ __ __ __ __ __ __ __ __ __ __
 72
    65
 73
     2
 40
0.375
 49
0.25
 49
-0.125
  0
LTYPE
  2
PHANTOM
 70
     0
  3
_____ _ _ _____ _ _ _____ _ _ _____ _ _ ____
 72
    65
 73
     6
 40
2.5
 49
1.25
 49
-0.25
 49
0.25
 49
-0.25
 49
0.25
 49
-0.25
  0
LTYPE
  2
PHANTOM2
 70
     0
  3
___ _ _ ___ _ _ ___ _ _ ___ _ _
 72
    65
 73
     6
 40
1.25
 49
0.625
 49
-0.125
 49
0.125
 49
-0.125
 49
0.125
 49
-0.125
  0
ENDTAB
  0
TABLE
  2
LAYER
 70
     6
  0
LAYER
  2
0
 70
     0
 62
     7
  6
CONTINUOUS
  0
LAYER
  2
1
 70
     0
 62
     1
  6
CENTER
  0
LAYER
  2
2
 70
     0
 62
     2
  6
HIDDEN
  0
LAYER
  2
5
 70
     0
 62
     3
  6
PHANTOM
  0
LAYER
  2
DEFPOINTS
 70
     0
 62
     7
  6
CONTINUOUS
  0
LAYER
  2
3
 70
     0
 62
     3
  6
CONTINUOUS
  0
ENDTAB
  0
TABLE
  2
STYLE
 70
     2
  0
STYLE
  2
STANDARD
 70
     0
 40
0.0
 41
1.0
 50
0.0
 71
     0
 42
0.2
  3
simplex
  4
bigfont
  0
STYLE
  2
STANDARD1
 70
     0
 40
0.0
 41
1.0
 50
0.0
 71
     0
 42
3.0
  3
txt
  4

  0
ENDTAB
  0
TABLE
  2
VIEW
 70
     0
  0
ENDTAB
  0
TABLE
  2
UCS
 70
     0
  0
ENDTAB
  0
TABLE
  2
APPID
 70
    10
  0
APPID
  2
ACAD
 70
     0
  0
APPID
  2
_CALL_MAC$
 70
     0
  0
APPID
  2
ACAD_MLEADERVER
 70
     0
  0
APPID
  2
ACAD_EXEMPT_FROM_CAD_STANDARDS
 70
     0
  0
APPID
  2
ACAD_NAV_VCDISPLAY
 70
     0
  0
APPID
  2
ACAD_DSTYLE_DIMJAG
 70
     0
  0
APPID
  2
ACAD_DSTYLE_DIMTALN
 70
     0
  0
APPID
  2
ACAECLAYERSTANDARD
 70
     0
  0
APPID
  2
ACCMTRANSPARENCY
 70
     0
  0
APPID
  2
ACAD_DSTYLE_DIMRADIAL_EXTENSION
 70
     0
  0
ENDTAB
  0
TABLE
  2
DIMSTYLE
 70
     1
  0
DIMSTYLE
  2
STANDARD
 70
     0
  3

  4

  5

  6

  7

 40
1.0
 41
0.18
 42
0.0625
 43
0.38
 44
0.18
 45
0.0
 46
0.0
 47
0.0
 48
0.0
140
0.18
141
0.09
142
0.0
143
25.399999999999999
144
1.0
145
0.0
146
1.0
147
0.09
 71
     0
 72
     0
 73
     1
 74
     1
 75
     0
 76
     0
 77
     0
 78
     0
170
     0
171
     2
172
     0
173
     0
174
     0
175
     0
176
     0
177
     0
178
     0
  0
ENDTAB
  0
ENDSEC
  0
SECTION
  2
BLOCKS
  0
BLOCK
  8
0
  2
$MODEL_SPACE
 70
     2
 10
0.0
 20
0.0
 30
0.0
  3
$MODEL_SPACE
  1

  0
ENDBLK
  5
7
  8
0
  0
BLOCK
 67
     1
  8
0
  2
$PAPER_SPACE
 70
     0
 10
0.0
 20
0.0
 30
0.0
  3
$PAPER_SPACE
  1

  0
ENDBLK
  5
A
 67
     1
  8
0
  0
ENDSEC
  0
SECTION
  2
ENTITIES
  0
TEXT
  5
2BF
  8
0
 62
     3
 10
0.0
 20
0.0
 30
0.0
 40
10.0
  1
ZCL-3.0-40-A25-K
  7
STANDARD1
  0
LINE
  5
935E
  8
0
 10
204.00000159814951
 20
128.80000025033951
 30
0.0
 11
204.00000159814951
 21
124.8427202925086
 31
0.0
  0
ARC
  5
935F
  8
0
 10
208.00000178813929
 20
113.000001013279
 30
0.0
 40
12.49999999999997
 50
108.6629248849454
 51
71.337075115054631
  0
LINE
  5
9360
  8
0
 10
212.00000197812909
 20
128.80000025033951
 30
0.0
 11
204.00000159814951
 21
128.80000025033951
 31
0.0
  0
LINE
  5
9361
  8
0
 10
212.00000197812909
 20
124.8427202925086
 30
0.0
 11
212.00000197812909
 21
128.80000025033951
 31
0.0
  0
CIRCLE
  5
9362
  8
0
 10
208.00000178813929
 20
113.000001013279
 30
0.0
 40
30.0
  0
ARC
  5
9363
  8
0
 10
265.10561745859439
 20
109.9009668158975
 30
0.0
 40
1.0940000000000281
 50
96.015474372356337
 51
158.17946953507169
  0
ARC
  5
9364
  8
0
 10
264.94400053551499
 20
110.0332143620022
 30
0.0
 40
0.8970000000002492
 50
162.18764736394991
 51
180.86885143682221
  0
LINE
  5
9365
  8
0
 10
263.99243745207781
 20
109.11699682474141
 30
0.0
 11
264.0471023619175
 21
110.0196125451475
 31
0.0
  0
ARC
  5
9366
  8
0
 10
264.88089049988503
 20
108.9934581819105
 30
0.0
 40
0.8970000000007763
 50
172.0838279358243
 51
190.79668669299619
  0
ARC
  5
9367
  8
0
 10
265.0574740081783
 20
109.10488536386011
 30
0.0
 40
1.0939999999999661
 50
194.79997880020301
 51
256.93140565224633
  0
ARC
  5
9368
  8
0
 10
258.95688019364911
 20
88.414509954233978
 30
0.0
 40
20.479000000000301
 50
55.592763427981531
 51
73.39238211918962
  0
ARC
  5
9369
  8
0
 10
263.75884215666019
 20
122.57621293286481
 30
0.0
 40
20.47900000000034
 50
270.60398275294278
 51
288.40397601422478
  0
ARC
  5
936A
  8
0
 10
263.9177568115461
 20
101.0058346312191
 30
0.0
 40
1.094000000000019
 50
87.015474372355229
 51
149.1794695350697
  0
ARC
  5
936B
  8
0
 10
263.7788177351058
 20
101.1617364474822
 30
0.0
 40
0.897000000000551
 50
153.18764736395801
 51
171.86885143682261
  0
LINE
  5
936C
  8
0
 10
262.69564154744148
 20
100.40565598756071
 30
0.0
 11
262.89083558320999
 21
101.28860753029581
 31
0.0
  0
ARC
  5
936D
  8
0
 10
263.5538309869342
 20
100.1446539760065
 30
0.0
 40
0.8970000000006502
 50
163.0838279358195
 51
181.79668669300111
  0
ARC
  5
936E
  8
0
 10
263.74567151081601
 20
100.2270855577887
 30
0.0
 40
1.093999999999963
 50
185.79997880020741
 51
247.93140565224601
  0
ARC
  5
936F
  8
0
 10
254.48349832081229
 20
80.745786132968064
 30
0.0
 40
20.479000000000511
 50
46.592763427980863
 51
64.392382119183566
  0
ARC
  5
9370
  8
0
 10
264.57040789398508
 20
113.7357095090086
 30
0.0
 40
20.479000000000099
 50
261.60398275294523
 51
279.40397601422552
  0
ARC
  5
9371
  8
0
 10
261.35301545543228
 20
92.406038629222991
 30
0.0
 40
1.0939999999999599
 50
78.01547437236033
 51
140.1794695350728
  0
ARC
  5
9372
  8
0
 10
261.24017536680452
 20
92.581755895520132
 30
0.0
 40
0.8969999999998899
 50
144.18764736394141
 51
162.86885143682829
  0
LINE
  5
9373
  8
0
 10
260.0520600676536
 20
92.004430666565924
 30
0.0
 11
260.38297387957567
 21
92.845975607633619
 31
0.0
  0
ARC
  5
9374
  8
0
 10
260.85885182651992
 20
91.612391078611054
 30
0.0
 40
0.8970000000000608
 50
154.0838279358116
 51
172.7966866929911
  0
ARC
  5
9375
  8
0
 10
261.06122561561079
 20
91.663797321107467
 30
0.0
 40
1.093999999999999
 50
176.79997880019309
 51
238.93140565224709
  0
ARC
  5
9376
  8
0
 10
248.86553849346109
 20
73.871268127657942
 30
0.0
 40
20.47900000000006
 50
37.592763427980657
 51
55.39238211918434
  0
ARC
  5
9377
  8
0
 10
263.98902248657032
 20
104.8770905003115
 30
0.0
 40
20.47900000000017
 50
252.6039827529458
 51
270.40397601422552
  0
ARC
  5
9378
  8
0
 10
257.47454583432909
 20
84.313334328564906
 30
0.0
 40
1.0940000000000141
 50
69.015474372357474
 51
131.17946953507769
  0
ARC
  5
9379
  8
0
 10
257.3905832309913
 20
84.504540302627447
 30
0.0
 40
0.8969999999999082
 50
135.18764736395599
 51
153.86885143682611
  0
LINE
  5
937A
  8
0
 10
256.12678128480911
 20
84.120185300707845
 30
0.0
 11
256.58526766300201
 21
84.899603575468092
 31
0.0
  0
ARC
  5
937B
  8
0
 10
256.8623123496954
 20
83.606762119214977
 30
0.0
 40
0.8969999999997924
 50
145.0838279358081
 51
163.7966866930127
  0
ARC
  5
937C
  8
0
 10
257.07023628966749
 20
83.625877230127827
 30
0.0
 40
1.0939999999999619
 50
167.799978800209
 51
229.93140565224471
  0
ARC
  5
937D
  8
0
 10
242.2413335274837
 20
67.960229386810283
 30
0.0
 40
20.479000000000561
 50
28.59276342797914
 51
46.392382119187332
  0
ARC
  5
937E
  8
0
 10
262.02900157265339
 20
96.21848450683737
 30
0.0
 40
20.478999999999619
 50
243.60398275294131
 51
261.4039760142262
  0
ARC
  5
937F
  8
0
 10
252.377848742211
 20
76.926990967272815
 30
0.0
 40
1.0940000000000609
 50
60.01547437235709
 51
122.1794695350701
  0
ARC
  5
9380
  8
0
 10
252.32483106211319
 20
77.128977523443041
 30
0.0
 40
0.8969999999999929
 50
126.1876473639481
 51
144.86885143683261
  0
LINE
  5
9381
  8
0
 10
251.01646158099169
 20
76.947055011987715
 30
0.0
 11
251.59123289585111
 21
77.645155787467985
 31
0.0
  0
ARC
  5
9382
  8
0
 10
251.66262062213471
 20
76.324892251957635
 30
0.0
 40
0.8970000000001547
 50
136.08382793581831
 51
154.79668669300449
  0
ARC
  5
9383
  8
0
 10
251.87097493552531
 20
76.311245553816974
 30
0.0
 40
1.0940000000000401
 50
158.79997880020531
 51
220.9314056522403
  0
ARC
  5
9384
  8
0
 10
234.77399333362021
 20
63.158219301839381
 30
0.0
 40
20.478999999999338
 50
19.59276342797887
 51
37.392382119184617
  0
ARC
  5
9385
  8
0
 10
258.73860737207252
 20
87.973095144413122
 30
0.0
 40
20.479000000000301
 50
234.60398275294011
 51
252.4039760142249
  0
ARC
  5
9386
  8
0
 10
246.1884217764534
 20
70.428884832769995
 30
0.0
 40
1.0940000000000789
 50
51.015474372357652
 51
113.1794695350754
  0
ARC
  5
9387
  8
0
 10
246.1676544908353
 20
70.636678391680107
 30
0.0
 40
0.8969999999999982
 50
117.1876473639557
 51
135.8688514368464
  0
LINE
  5
9388
  8
0
 10
244.846933811903
 20
70.661670714616804
 30
0.0
 11
245.5238339602947
 21
71.261263638734846
 31
0.0
  0
ARC
  5
9389
  8
0
 10
245.38781031095661
 20
69.946085280111674
 30
0.0
 40
0.8970000000002047
 50
127.0838279358122
 51
145.79668669300341
  0
ARC
  5
938A
  8
0
 10
245.59146462308189
 20
69.900012799916482
 30
0.0
 40
1.093999999999985
 50
149.79997880020201
 51
211.93140565224141
  0
ARC
  5
938B
  8
0
 10
226.64738861012191
 20
59.583479297992881
 30
0.0
 40
20.47900000000006
 50
10.592763427980421
 51
28.392382119185179
  0
ARC
  5
938C
  8
0
 10
254.1988603102368
 20
80.343951264017676
 30
0.0
 40
20.47899999999953
 50
225.60398275294679
 51
243.40397601423101
  0
ARC
  5
938D
  8
0
 10
239.05866917048411
 20
64.979020864065674
 30
0.0
 40
1.09400000000005
 50
42.015474372360217
 51
104.1794695350722
  0
ARC
  5
938E
  8
0
 10
239.0706636388399
 20
65.187504858667978
 30
0.0
 40
0.8969999999999359
 50
108.18764736393911
 51
126.8688514368381
  0
LINE
  5
938F
  8
0
 10
237.770113453269
 20
65.418794006109266
 30
0.0
 11
238.53247734904289
 21
65.905115753412275
 31
0.0
  0
ARC
  5
9390
  8
0
 10
238.1923880709241
 20
64.627408601370803
 30
0.0
 40
0.8969999999998627
 50
118.0838279358095
 51
136.796686693
  0
ARC
  5
9391
  8
0
 10
238.38632773673001
 20
64.550044796489004
 30
0.0
 40
1.0939999999999921
 50
140.79997880019999
 51
202.93140565224559
  0
ARC
  5
9392
  8
0
 10
218.06162333593849
 20
57.324031338048883
 30
0.0
 40
20.478999999999768
 50
1.5927634279814029
 51
19.392382119186401
  0
ARC
  5
9393
  8
0
 10
248.52154402636671
 20
73.518907707665477
 30
0.0
 40
20.478999999999939
 50
216.60398275294179
 51
234.40397601422629
  0
ARC
  5
9394
  8
0
 10
231.16414909575411
 20
60.711592799130891
 30
0.0
 40
1.094000000000017
 50
33.015474372354383
 51
95.179469535078397
  0
ARC
  5
9395
  8
0
 10
231.2086099744659
 20
60.91563366155949
 30
0.0
 40
0.8970000000000074
 50
99.18764736395454
 51
117.868851436843
  0
LINE
  5
9396
  8
0
 10
229.96025468409059
 20
61.347528547048597
 30
0.0
 11
230.7893087267876
 21
61.70859858393672
 31
0.0
  0
ARC
  5
9397
  8
0
 10
230.2535290778246
 20
60.499825687240786
 30
0.0
 40
0.8970000000001817
 50
109.0838279358197
 51
127.79668669300879
  0
ARC
  5
9398
  8
0
 10
230.43297865908971
 20
60.393075511304801
 30
0.0
 40
1.094000000000007
 50
131.7999788002065
 51
193.93140565224351
  0
ARC
  5
9399
  8
0
 10
209.22810754664039
 20
56.435510529458583
 30
0.0
 40
20.479000000000021
 50
352.5927634279808
 51
10.39238211918701
  0
ARC
  5
939A
  8
0
 10
241.84645288930281
 20
67.666019698733606
 30
0.0
 40
20.478999999999861
 50
207.60398275294611
 51
225.4039760142291
  0
ARC
  5
939B
  8
0
 10
222.69925083691319
 20
57.731678879706067
 30
0.0
 40
1.0940000000000529
 50
24.015474372349171
 51
86.179469535073494
  0
ARC
  5
939C
  8
0
 10
222.77508335159001
 20
57.92625244675488
 30
0.0
 40
0.8970000000004219
 50
90.187647363954454
 51
108.8688514368458
  0
LINE
  5
939D
  8
0
 10
221.6096597835421
 20
58.54811444878581
 30
0.0
 11
222.4849912449717
 21
58.775047957897222
 31
0.0
  0
ARC
  5
939E
  8
0
 10
221.7667143876302
 20
57.664971327730392
 30
0.0
 40
0.897000000000199
 50
100.0838279358219
 51
118.7966866930044
  0
ARC
  5
939F
  8
0
 10
221.9272552401049
 20
57.531463324355002
 30
0.0
 40
1.0939999999999941
 50
122.7999788002069
 51
184.93140565224019
  0
ARC
  5
93A0
  8
0
 10
200.36435171771839
 20
56.939795203361079
 30
0.0
 40
20.479000000000571
 50
343.5927634279829
 51
1.3923821191867931
  0
ARC
  5
93A1
  8
0
 10
234.33794979619739
 20
62.929404764623882
 30
0.0
 40
20.47900000000017
 50
198.60398275294591
 51
216.4039760142274
  0
ARC
  5
93A2
  8
0
 10
213.87240828248079
 20
56.112654476254789
 30
0.0
 40
1.094000000000054
 50
15.015474372346929
 51
77.17946953506771
  0
ARC
  5
93A3
  8
0
 10
213.97774518493731
 20
56.292969700950891
 30
0.0
 40
0.8970000000003077
 50
81.18764736394759
 51
99.868851436832884
  0
LINE
  5
93A4
  8
0
 10
212.92395080626011
 20
57.08948820829395
 30
0.0
 11
213.82400515675539
 21
57.176697254180937
 31
0.0
  0
ARC
  5
93A5
  8
0
 10
212.94091754413651
 20
56.192649045512781
 30
0.0
 40
0.8970000000003411
 50
91.083827935824687
 51
109.7966866930124
  0
ARC
  5
93A6
  8
0
 10
213.07859661922839
 20
56.035670624828889
 30
0.0
 40
1.0940000000000341
 50
113.79997880021369
 51
175.93140565224121
  0
ARC
  5
93A7
  8
0
 10
191.68861093480129
 20
58.82446819745968
 30
0.0
 40
20.478999999999608
 50
334.5927634279787
 51
352.3923821191882
  0
ARC
  5
93A8
  8
0
 10
226.18091901249539
 20
59.425694084937788
 30
0.0
 40
20.47900000000023
 50
189.6039827529444
 51
207.40397601422521
  0
ARC
  5
93A9
  8
0
 10
204.900967590758
 20
55.894385342824002
 30
0.0
 40
1.093999999999985
 50
6.0154743723432968
 51
68.17946953506852
  0
ARC
  5
93AA
  8
0
 10
205.03321513686259
 20
56.056002265903487
 30
0.0
 40
0.8970000000001313
 50
72.187647363944237
 51
90.868851436838483
  0
LINE
  5
93AB
  8
0
 10
204.11699759960169
 20
57.007565349340467
 30
0.0
 11
205.01961332000789
 21
56.952900439500837
 31
0.0
  0
ARC
  5
93AC
  8
0
 10
203.99345895677089
 20
56.119112301534699
 30
0.0
 40
0.8969999999994174
 50
82.083827935816316
 51
100.79668669303069
  0
ARC
  5
93AD
  8
0
 10
204.1048861387205
 20
55.942528793240093
 30
0.0
 40
1.094000000000056
 50
104.7999788002236
 51
166.93140565224499
  0
ARC
  5
93AE
  8
0
 10
183.41451072909459
 20
62.043122607769298
 30
0.0
 40
20.479000000000021
 50
325.59276342798398
 51
343.3923821191886
  0
ARC
  5
93AF
  8
0
 10
217.57621370772469
 20
57.241160644758189
 30
0.0
 40
20.478999999999861
 50
180.6039827529444
 51
198.4039760142287
  0
ARC
  5
93B0
  8
0
 10
196.0058354060794
 20
57.082245989872291
 30
0.0
 40
1.09400000000007
 50
357.01547437234302
 51
59.179469535063539
  0
ARC
  5
93B1
  8
0
 10
196.16173722234279
 20
57.221185066313268
 30
0.0
 40
0.8969999999999044
 50
63.187647363934403
 51
81.868851436837076
  0
LINE
  5
93B2
  8
0
 10
195.4056567624211
 20
58.30436125397685
 30
0.0
 11
196.2886083051562
 21
58.109167218208341
 31
0.0
  0
ARC
  5
93B3
  8
0
 10
195.14465475086689
 20
57.446171814484892
 30
0.0
 40
0.8969999999999917
 50
73.083827935817482
 51
91.79668669301735
  0
ARC
  5
93B4
  8
0
 10
195.22708633264909
 20
57.254331290602288
 30
0.0
 40
1.0939999999999801
 50
95.799978800217019
 51
157.9314056522413
  0
ARC
  5
93B5
  8
0
 10
175.74578690782889
 20
66.516504480605875
 30
0.0
 40
20.47900000000007
 50
316.59276342797921
 51
334.39238211918871
  0
ARC
  5
93B6
  8
0
 10
208.735710283869
 20
56.429594907433277
 30
0.0
 40
20.479000000000092
 50
171.6039827529448
 51
189.40397601422799
  0
ARC
  5
93B7
  8
0
 10
187.4060394040834
 20
59.646987345986098
 30
0.0
 40
1.093999999999937
 50
348.01547437233887
 51
50.179469535076521
  0
ARC
  5
93B8
  8
0
 10
187.5817566703804
 20
59.759827434613783
 30
0.0
 40
0.897000000000003
 50
54.187647363949338
 51
72.868851436844025
  0
LINE
  5
93B9
  8
0
 10
187.00443144142631
 20
60.947942733764677
 30
0.0
 11
187.845976382494
 21
60.617028921842611
 31
0.0
  0
ARC
  5
93BA
  8
0
 10
186.61239185347151
 20
60.141150974898771
 30
0.0
 40
0.8969999999998051
 50
64.08382793580472
 51
82.796686693002883
  0
ARC
  5
93BB
  8
0
 10
186.66379809596779
 20
59.938777185807481
 30
0.0
 40
1.094000000000017
 50
86.799978800204627
 51
148.93140565224039
  0
ARC
  5
93BC
  8
0
 10
168.8712689025183
 20
72.134464307957387
 30
0.0
 40
20.47900000000017
 50
307.59276342798358
 51
325.39238211918928
  0
ARC
  5
93BD
  8
0
 10
199.87709127517149
 20
57.010980314848211
 30
0.0
 40
20.478999999999889
 50
162.60398275294301
 51
180.40397601422791
  0
ARC
  5
93BE
  8
0
 10
179.31333510342529
 20
63.525456967089191
 30
0.0
 40
1.0940000000000449
 50
339.01547437233648
 51
41.179469535080521
  0
ARC
  5
93BF
  8
0
 10
179.50454107748769
 20
63.609419570426972
 30
0.0
 40
0.8970000000000892
 50
45.187647363953708
 51
63.868851436850207
  0
LINE
  5
93C0
  8
0
 10
179.1201860755682
 20
64.87322151660922
 30
0.0
 11
179.89960435032839
 21
64.414735138416319
 31
0.0
  0
ARC
  5
93C1
  8
0
 10
178.60676289407519
 20
64.137690451722705
 30
0.0
 40
0.8970000000000071
 50
55.083827935823933
 51
73.796686693008937
  0
ARC
  5
93C2
  8
0
 10
178.62587800498821
 20
63.929766511750699
 30
0.0
 40
1.094000000000042
 50
77.799978800207455
 51
139.9314056522463
  0
ARC
  5
93C3
  8
0
 10
162.96023016167101
 20
78.75866927393443
 30
0.0
 40
20.47900000000012
 50
298.59276342797813
 51
316.39238211918962
  0
ARC
  5
93C4
  8
0
 10
191.21848528169829
 20
58.971001228764692
 30
0.0
 40
20.479000000000301
 50
153.60398275294531
 51
171.40397601422731
  0
ARC
  5
93C5
  8
0
 10
171.92699174213331
 20
68.622154059207389
 30
0.0
 40
1.0939999999999741
 50
330.0154743723333
 51
32.179469535074858
  0
ARC
  5
93C6
  8
0
 10
172.1289782983032
 20
68.675171739305
 30
0.0
 40
0.8970000000003485
 50
36.187647363951051
 51
54.86885143684939
  0
LINE
  5
93C7
  8
0
 10
171.9470557868481
 20
69.983541220426588
 30
0.0
 11
172.64515656232831
 21
69.408769905567198
 31
0.0
  0
ARC
  5
93C8
  8
0
 10
171.3248930268181
 20
69.337382179283935
 30
0.0
 40
0.8969999999998976
 50
46.083827935813723
 51
64.796686692997213
  0
ARC
  5
93C9
  8
0
 10
171.3112463286775
 20
69.12902786589305
 30
0.0
 40
1.0940000000000909
 50
68.799978800200904
 51
130.93140565224829
  0
ARC
  5
93CA
  8
0
 10
158.15822007669931
 20
86.226009467798946
 30
0.0
 40
20.479000000000301
 50
289.5927634279841
 51
307.3923821191874
  0
ARC
  5
93CB
  8
0
 10
182.97309591927339
 20
62.261395429345889
 30
0.0
 40
20.479000000000319
 50
144.6039827529421
 51
162.40397601422819
  0
ARC
  5
93CC
  8
0
 10
165.42888560763049
 20
74.811581024964823
 30
0.0
 40
1.0940000000000041
 50
321.01547437233529
 51
23.179469535075299
  0
ARC
  5
93CD
  8
0
 10
165.63667916654049
 20
74.832348310583086
 30
0.0
 40
0.896999999999997
 50
27.187647363945601
 51
45.868851436857383
  0
LINE
  5
93CE
  8
0
 10
165.6616714894771
 20
76.153068989515333
 30
0.0
 11
166.2612644135952
 21
75.476168841123609
 31
0.0
  0
ARC
  5
93CF
  8
0
 10
164.946086054972
 20
75.61219249046178
 30
0.0
 40
0.8970000000001641
 50
37.08382793582166
 51
55.796686693011793
  0
ARC
  5
93D0
  8
0
 10
164.90001357477689
 20
75.408538178336272
 30
0.0
 40
1.0940000000000849
 50
59.799978800212592
 51
121.9314056522404
  0
ARC
  5
93D1
  8
0
 10
154.58348007285309
 20
94.352614191296425
 30
0.0
 40
20.479000000000081
 50
280.59276342798069
 51
298.39238211918888
  0
ARC
  5
93D2
  8
0
 10
175.3439520388782
 20
66.801142491181594
 30
0.0
 40
20.478999999999669
 50
135.60398275294509
 51
153.4039760142289
  0
ARC
  5
93D3
  8
0
 10
159.9790216389261
 20
81.941333630934224
 30
0.0
 40
1.0939999999999599
 50
312.01547437232972
 51
14.179469535071281
  0
ARC
  5
93D4
  8
0
 10
160.18750563352859
 20
81.929339162578415
 30
0.0
 40
0.896999999999725
 50
18.187647363942709
 51
36.868851436858179
  0
LINE
  5
93D5
  8
0
 10
160.41879478096959
 20
83.229889348149328
 30
0.0
 11
160.9051165282726
 21
82.46752545237544
 31
0.0
  0
ARC
  5
93D6
  8
0
 10
159.62740937623079
 20
82.807614730493981
 30
0.0
 40
0.8970000000003681
 50
28.083827935818199
 51
46.796686693001689
  0
ARC
  5
93D7
  8
0
 10
159.5500455713495
 20
82.613675064688294
 30
0.0
 40
1.0939999999999901
 50
50.799978800208009
 51
112.93140565224419
  0
ARC
  5
93D8
  8
0
 10
152.32403211290921
 20
102.9383794654803
 30
0.0
 40
20.479000000000251
 50
271.59276342798461
 51
289.39238211918848
  0
ARC
  5
93D9
  8
0
 10
168.51890848252631
 20
72.478458775051223
 30
0.0
 40
20.479000000000639
 50
126.6039827529416
 51
144.40397601422691
  0
ARC
  5
93DA
  8
0
 10
155.71159357399119
 20
89.835853705664334
 30
0.0
 40
1.0940000000000849
 50
303.01547437233432
 51
5.1794695350752979
  0
ARC
  5
93DB
  8
0
 10
155.91563443641979
 20
89.791392826952432
 30
0.0
 40
0.8970000000000027
 50
9.1876473639517506
 51
27.868851436869239
  0
LINE
  5
93DC
  8
0
 10
156.34752932190889
 20
91.039748117327719
 30
0.0
 11
156.7085993587971
 21
90.210694074630766
 31
0.0
  0
ARC
  5
93DD
  8
0
 10
155.499826462101
 20
90.746473723593795
 30
0.0
 40
0.897000000000321
 50
19.08382793580553
 51
37.796686693002997
  0
ARC
  5
93DE
  8
0
 10
155.39307628616521
 20
90.56702414232862
 30
0.0
 40
1.0940000000000401
 50
41.799978800207157
 51
103.9314056522925
  0
ARC
  5
93DF
  8
0
 10
151.43551130431899
 20
111.7718952547782
 30
0.0
 40
20.47900000000033
 50
262.59276342798267
 51
280.39238211918178
  0
ARC
  5
93E0
  8
0
 10
162.66602047359419
 20
79.153549912115423
 30
0.0
 40
20.47900000000018
 50
117.60398275294421
 51
135.40397601422691
  0
ARC
  5
93E1
  8
0
 10
152.73167965456651
 20
98.300751964505196
 30
0.0
 40
1.094000000000025
 50
294.01547437233461
 51
356.17946953506879
  0
ARC
  5
93E2
  8
0
 10
152.9262532216155
 20
98.224919449828462
 30
0.0
 40
0.8970000000002508
 50
0.1876473639439
 51
18.868851436863039
  0
LINE
  5
93E3
  8
0
 10
153.54811522364611
 20
99.390343017876177
 30
0.0
 11
153.7750487327576
 21
98.515011556446581
 31
0.0
  0
ARC
  5
93E4
  8
0
 10
152.66497210259149
 20
99.233288413788543
 30
0.0
 40
0.8969999999996026
 50
10.083827935807321
 51
28.796686693015818
  0
ARC
  5
93E5
  8
0
 10
152.53146409921541
 20
99.072747561313506
 30
0.0
 40
1.0940000000000321
 50
32.799978800210347
 51
94.931405652243626
  0
ARC
  5
93E6
  8
0
 10
151.93979597822141
 20
120.6356510836994
 30
0.0
 40
20.47900000000006
 50
253.59276342797889
 51
271.39238211918428
  0
ARC
  5
93E7
  8
0
 10
157.92940553948441
 20
86.662053005220855
 30
0.0
 40
20.479000000000301
 50
108.6039827529433
 51
126.4039760142238
  0
ARC
  5
93E8
  8
0
 10
151.1126552511152
 20
107.1275945189375
 30
0.0
 40
1.093999999999975
 50
285.01547437231858
 51
347.17946953507129
  0
ARC
  5
93E9
  8
0
 10
151.29297047581139
 20
107.022257616481
 30
0.0
 40
0.8970000000001629
 50
351.18764736394871
 51
9.8688514368636842
  0
LINE
  5
93EA
  8
0
 10
152.0894889831543
 20
108.0760519951582
 30
0.0
 11
152.17669802904129
 21
107.1759976446629
 31
0.0
  0
ARC
  5
93EB
  8
0
 10
151.19264982037311
 20
108.05908525728189
 30
0.0
 40
0.897000000000368
 50
1.0838279358214951
 51
19.796686693015801
  0
ARC
  5
93EC
  8
0
 10
151.03567139968919
 20
107.92140618219
 30
0.0
 40
1.094000000000007
 50
23.799978800210098
 51
85.931405652282962
  0
ARC
  5
93ED
  8
0
 10
153.82446897232029
 20
129.3113918666179
 30
0.0
 40
20.479000000000511
 50
244.59276342798529
 51
262.39238211918558
  0
ARC
  5
93EE
  8
0
 10
154.42569485979811
 20
94.819083788923038
 30
0.0
 40
20.478999999999989
 50
99.603982752944347
 51
117.4039760142274
  0
ARC
  5
93EF
  8
0
 10
150.89438611768429
 20
116.0990352106604
 30
0.0
 40
1.0940000000000589
 50
276.01547437233017
 51
338.17946953506942
  0
ARC
  5
93F0
  8
0
 10
151.05600304076421
 20
115.9667876645556
 30
0.0
 40
0.8969999999997622
 50
342.1876473639378
 51
0.8688514368711068
  0
LINE
  5
93F1
  8
0
 10
152.00756612420079
 20
116.8830052018166
 30
0.0
 11
151.95290121436119
 21
115.9803894814104
 31
0.0
  0
ARC
  5
93F2
  8
0
 10
151.11911307639431
 20
117.0065438446475
 30
0.0
 40
0.8970000000002502
 50
352.08382793582911
 51
10.79668669301862
  0
ARC
  5
93F3
  8
0
 10
150.9425295681005
 20
116.8951166626978
 30
0.0
 40
1.0940000000000221
 50
14.799978800222039
 51
76.931405652246227
  0
ARC
  5
93F4
  8
0
 10
157.0431233826292
 20
137.58549207232301
 30
0.0
 40
20.478999999999289
 50
235.59276342798159
 51
253.39238211918959
  0
ARC
  5
93F5
  8
0
 10
152.24116141961849
 20
103.4237890936936
 30
0.0
 40
20.4789999999999
 50
90.603982752942784
 51
108.4039760142248
  0
ARC
  5
93F6
  8
0
 10
152.08224676473259
 20
124.99416739533881
 30
0.0
 40
1.094000000000027
 50
267.01547437232273
 51
329.17946953506618
  0
ARC
  5
93F7
  8
0
 10
152.22118584117379
 20
124.8382655790754
 30
0.0
 40
0.8969999999997583
 50
333.18764736393553
 51
351.86885143686948
  0
LINE
  5
93F8
  8
0
 10
153.3043620288372
 20
125.5943460389972
 30
0.0
 11
153.1091679930687
 21
124.7113944962621
 31
0.0
  0
ARC
  5
93F9
  8
0
 10
152.44617258934491
 20
125.8553480505515
 30
0.0
 40
0.8970000000005047
 50
343.08382793582189
 51
1.796686693009276
  0
ARC
  5
93FA
  8
0
 10
152.25433206546271
 20
125.7729164687692
 30
0.0
 40
1.0940000000000709
 50
5.7999788002131218
 51
67.931405652288063
  0
ARC
  5
93FB
  8
0
 10
161.5165052554662
 20
145.2542158935895
 30
0.0
 40
20.479000000000092
 50
226.59276342798091
 51
244.39238211918359
  0
ARC
  5
93FC
  8
0
 10
151.42959568229361
 20
112.26429251754961
 30
0.0
 40
20.478999999999811
 50
81.603982752945228
 51
99.403976014225492
  0
ARC
  5
93FD
  8
0
 10
154.6469881208464
 20
133.59396339733499
 30
0.0
 40
1.09400000000007
 50
258.0154743723204
 51
320.17946953506498
  0
ARC
  5
93FE
  8
0
 10
154.75982820947399
 20
133.41824613103799
 30
0.0
 40
0.8970000000002451
 50
324.18764736394792
 51
342.86885143686789
  0
LINE
  5
93FF
  8
0
 10
155.947943508625
 20
133.995571359992
 30
0.0
 11
155.6170296967029
 21
133.1540264189243
 31
0.0
  0
ARC
  5
9400
  8
0
 10
155.1411517497591
 20
134.38761094794691
 30
0.0
 40
0.8969999999999089
 50
334.08382793581461
 51
352.7966866930098
  0
ARC
  5
9401
  8
0
 10
154.93877796066789
 20
134.33620470545051
 30
0.0
 40
1.0940000000001
 50
356.79997880020608
 51
58.931405652292767
  0
ARC
  5
9402
  8
0
 10
167.13446508281791
 20
152.12873389890021
 30
0.0
 40
20.479000000000401
 50
217.5927634279806
 51
235.39238211918439
  0
ARC
  5
9403
  8
0
 10
152.01098108970859
 20
121.1229115262466
 30
0.0
 40
20.479000000000109
 50
72.603982752945853
 51
90.403976014225464
  0
ARC
  5
9404
  8
0
 10
158.52545774194959
 20
141.68666769799299
 30
0.0
 40
1.0939999999999619
 50
249.01547437232239
 51
311.17946953507868
  0
ARC
  5
9405
  8
0
 10
158.60942034528739
 20
141.49546172393059
 30
0.0
 40
0.8970000000001082
 50
315.18764736395713
 51
333.8688514368859
  0
LINE
  5
9406
  8
0
 10
159.8732222914696
 20
141.87981672585011
 30
0.0
 11
159.4147359132767
 21
141.10039845108989
 31
0.0
  0
ARC
  5
9407
  8
0
 10
159.13769122658351
 20
142.3932399073428
 30
0.0
 40
0.8969999999995652
 50
325.08382793580938
 51
343.79668669302208
  0
ARC
  5
9408
  8
0
 10
158.9297672866112
 20
142.3741247964301
 30
0.0
 40
1.0940000000000181
 50
347.79997880021619
 51
49.931405652244678
  0
ARC
  5
9409
  8
0
 10
173.7586700487943
 20
158.0397726397469
 30
0.0
 40
20.478999999999552
 50
208.59276342797989
 51
226.39238211918729
  0
ARC
  5
940A
  8
0
 10
153.97100200362519
 20
129.78151751972021
 30
0.0
 40
20.47900000000006
 50
63.60398275294169
 51
81.403976014226245
  0
ARC
  5
940B
  8
0
 10
163.6221548340678
 20
149.07301105928499
 30
0.0
 40
1.093999999999965
 50
240.01547437231949
 51
302.17946953507732
  0
ARC
  5
940C
  8
0
 10
163.6751725141655
 20
148.871024503115
 30
0.0
 40
0.897000000000191
 50
306.18764736396389
 51
324.86885143689
  0
LINE
  5
940D
  8
0
 10
164.98354199528691
 20
149.05294701457029
 30
0.0
 11
164.40877068042749
 21
148.35484623908999
 31
0.0
  0
ARC
  5
940E
  8
0
 10
164.3373829541442
 20
149.67510977460029
 30
0.0
 40
0.8970000000000911
 50
316.08382793581842
 51
334.79668669300531
  0
ARC
  5
940F
  8
0
 10
164.12902864075349
 20
149.68875647274101
 30
0.0
 40
1.093999999999987
 50
338.79997880020528
 51
40.931405652288099
  0
ARC
  5
9410
  8
0
 10
181.2260102426587
 20
162.84178272471871
 30
0.0
 40
20.47899999999963
 50
199.5927634279833
 51
217.39238211918399
  0
ARC
  5
9411
  8
0
 10
157.26139620420619
 20
138.0269068821448
 30
0.0
 40
20.479000000000362
 50
54.603982752947331
 51
72.403976014224881
  0
ARC
  5
9412
  8
0
 10
169.81158179982521
 20
155.57111719378781
 30
0.0
 40
1.093999999999989
 50
231.01547437231551
 51
293.17946953508959
  0
ARC
  5
9413
  8
0
 10
169.83234908544361
 20
155.3633236348777
 30
0.0
 40
0.8969999999998726
 50
297.18764736396298
 51
315.86885143691268
  0
LINE
  5
9414
  8
0
 10
171.15306976437569
 20
155.33833131194109
 30
0.0
 11
170.47616961598391
 21
154.7387383878231
 31
0.0
  0
ARC
  5
9415
  8
0
 10
170.61219326532211
 20
156.05391674644619
 30
0.0
 40
0.897000000000188
 50
307.08382793582803
 51
325.7966866930152
  0
ARC
  5
9416
  8
0
 10
170.40853895319671
 20
156.09998922664141
 30
0.0
 40
1.0939999999999781
 50
329.79997880021438
 51
31.931405652248941
  0
ARC
  5
9417
  8
0
 10
189.35261496615681
 20
166.41652272856501
 30
0.0
 40
20.479000000000099
 50
190.5927634279812
 51
208.39238211918521
  0
ARC
  5
9418
  8
0
 10
161.80114326604189
 20
145.65605076253991
 30
0.0
 40
20.478999999999889
 50
45.603982752947402
 51
63.4039760142307
  0
ARC
  5
9419
  8
0
 10
176.94133440579449
 20
161.02098116249209
 30
0.0
 40
1.093999999999991
 50
222.01547437232099
 51
284.17946953508567
  0
ARC
  5
941A
  8
0
 10
176.9293399374387
 20
160.8124971678898
 30
0.0
 40
0.8969999999998842
 50
288.18764736395951
 51
306.86885143690228
  0
LINE
  5
941B
  8
0
 10
178.22989012300971
 20
160.58120802044871
 30
0.0
 11
177.46752622723579
 21
160.0948862731457
 31
0.0
  0
ARC
  5
941C
  8
0
 10
177.80761550535439
 20
161.37259342518729
 30
0.0
 40
0.8970000000002723
 50
298.08382793582439
 51
316.79668669301782
  0
ARC
  5
941D
  8
0
 10
177.6136758395487
 20
161.44995723006889
 30
0.0
 40
1.0940000000000341
 50
320.79997880021102
 51
22.931405652244148
  0
ARC
  5
941E
  8
0
 10
197.93838024034011
 20
168.6759706885091
 30
0.0
 40
20.478999999999861
 50
181.59276342798219
 51
199.39238211918709
  0
ARC
  5
941F
  8
0
 10
167.47845954991249
 20
152.4810943188929
 30
0.0
 40
20.478999999999289
 50
36.603982752942478
 51
54.403976014226302
  0
ARC
  5
9420
  8
0
 10
184.83585448052469
 20
165.288409227427
 30
0.0
 40
1.094000000000076
 50
213.0154743723061
 51
275.1794695350784
  0
ARC
  5
9421
  8
0
 10
184.79139360181281
 20
165.0843683649982
 30
0.0
 40
0.896999999999789
 50
279.18764736395462
 51
297.86885143690893
  0
LINE
  5
9422
  8
0
 10
186.0397488921881
 20
164.6524734795093
 30
0.0
 11
185.21069484949109
 21
164.2914034426212
 31
0.0
  0
ARC
  5
9423
  8
0
 10
185.74647449845429
 20
165.50017633931691
 30
0.0
 40
0.8969999999999077
 50
289.0838279358058
 51
307.79668669300889
  0
ARC
  5
9424
  8
0
 10
185.56702491718889
 20
165.60692651525309
 30
0.0
 40
1.0939999999999179
 50
311.79997880021472
 51
13.93140565224828
  0
ARC
  5
9425
  8
0
 10
206.7718960296383
 20
169.5644914970994
 30
0.0
 40
20.479000000000021
 50
172.59276342798071
 51
190.3923821191878
  0
ARC
  5
9426
  8
0
 10
174.15355068697579
 20
158.3339823278242
 30
0.0
 40
20.479000000000141
 50
27.60398275294683
 51
45.403976014228597
  0
ARC
  5
9427
  8
0
 10
193.30075273936549
 20
168.2683231468518
 30
0.0
 40
1.0940000000000489
 50
204.01547437231639
 51
266.17946953507999
  0
ARC
  5
9428
  8
0
 10
193.2249202246889
 20
168.0737495798023
 30
0.0
 40
0.8969999999997678
 50
270.18764736394797
 51
288.8688514369079
  0
LINE
  5
9429
  8
0
 10
194.3903437927365
 20
167.45188757777211
 30
0.0
 11
193.51501233130691
 21
167.22495406866071
 31
0.0
  0
ARC
  5
942A
  8
0
 10
194.2332891886486
 20
168.33503069882769
 30
0.0
 40
0.8970000000004084
 50
280.0838279358087
 51
298.7966866930044
  0
ARC
  5
942B
  8
0
 10
194.07274833617379
 20
168.46853870220289
 30
0.0
 40
1.0940000000000489
 50
302.7999788002075
 51
4.9314056522902838
  0
ARC
  5
942C
  8
0
 10
215.6356518585595
 20
169.06020682319701
 30
0.0
 40
20.478999999999779
 50
163.59276342798211
 51
181.39238211918521
  0
ARC
  5
942D
  8
0
 10
208.00000178813929
 20
113.000001013279
 30
0.0
 40
62.999999999999993
 50
98.999999999998579
 51
100.9892934913704
  0
ARC
  5
942E
  8
0
 10
181.66205378008141
 20
163.0705972619339
 30
0.0
 40
20.47900000000007
 50
18.603982752947442
 51
36.403976014227439
  0
ARC
  5
942F
  8
0
 10
202.1275952937979
 20
169.8873475503031
 30
0.0
 40
1.0939999999999921
 50
195.01547437230971
 51
257.17946953501422
  0
ARC
  5
9430
  8
0
 10
202.02225839134141
 20
169.70703232560689
 30
0.0
 40
0.8970000000001718
 50
261.18764736388158
 51
279.86885143682622
  0
LINE
  5
9431
  8
0
 10
203.07605277001861
 20
168.91051381826401
 30
0.0
 11
202.17599841952321
 21
168.82330477237701
 31
0.0
  0
ARC
  5
9432
  8
0
 10
203.05908603214229
 20
169.80735298104511
 30
0.0
 40
0.8970000000003041
 50
271.08382793580518
 51
289.79668669298451
  0
ARC
  5
9433
  8
0
 10
202.92140695705041
 20
169.96433140172911
 30
0.0
 40
1.0940000000000141
 50
293.7999788001926
 51
355.93140565224769
  0
ARC
  5
9434
  8
0
 10
224.31139264147771
 20
167.17553382909821
 30
0.0
 40
20.478999999999921
 50
154.59276342797881
 51
172.39238211918649
  0
ARC
  5
9435
  8
0
 10
208.00000178813929
 20
113.000001013279
 30
0.0
 40
63.000000000000092
 50
90.0
 51
91.989293491369338
  0
ARC
  5
9436
  8
0
 10
189.8190845637827
 20
166.57430794162011
 30
0.0
 40
20.479000000000578
 50
9.6039827529428781
 51
27.403976014224519
  0
ARC
  5
9437
  8
0
 10
211.0990359855208
 20
170.1056166837341
 30
0.0
 40
1.09400000000007
 50
186.01547437236269
 51
248.1794695350894
  0
ARC
  5
9438
  8
0
 10
210.96678843941601
 20
169.94399976065401
 30
0.0
 40
0.8969999999996945
 50
252.1876473639646
 51
270.8688514368385
  0
LINE
  5
9439
  8
0
 10
211.88300597667691
 20
168.99243667721751
 30
0.0
 11
210.98039025627079
 21
169.04710158705711
 31
0.0
  0
ARC
  5
943A
  8
0
 10
212.00654461950779
 20
169.88088972502479
 30
0.0
 40
0.8970000000009077
 50
262.08382793581637
 51
280.79668669298428
  0
ARC
  5
943B
  8
0
 10
211.89511743755821
 20
170.05747323331801
 30
0.0
 40
1.094000000000072
 50
284.7999788001967
 51
346.9314056522411
  0
ARC
  5
943C
  8
0
 10
232.5854928471835
 20
163.95687941878899
 30
0.0
 40
20.478999999999431
 50
145.59276342797759
 51
163.39238211918769
  0
ARC
  5
943D
  8
0
 10
208.00000178813929
 20
113.000001013279
 30
0.0
 40
63.0
 50
81.000000000001407
 51
82.989293491374724
  0
ARC
  5
943E
  8
0
 10
198.423789868554
 20
168.7588413817999
 30
0.0
 40
20.478999999999889
 50
0.6039827529427413
 51
18.403976014227919
  0
ARC
  5
943F
  8
0
 10
219.99416817019929
 20
168.91775603668569
 30
0.0
 40
1.093999999999987
 50
177.0154743723584
 51
239.17946953507891
  0
ARC
  5
9440
  8
0
 10
219.83826635393621
 20
168.77881696024551
 30
0.0
 40
0.8970000000006747
 50
243.1876473639708
 51
261.86885143681741
  0
LINE
  5
9441
  8
0
 10
220.5943468138575
 20
167.6956407725811
 30
0.0
 11
219.7113952711224
 21
167.89083480834961
 31
0.0
  0
ARC
  5
9442
  8
0
 10
220.85534882541191
 20
168.55383021207331
 30
0.0
 40
0.897000000000194
 50
253.08382793580409
 51
271.79668669299127
  0
ARC
  5
9443
  8
0
 10
220.77291724362959
 20
168.74567073595571
 30
0.0
 40
1.0940000000000321
 50
275.79997880019738
 51
337.93140565224212
  0
ARC
  5
9444
  8
0
 10
240.25421666844949
 20
159.4834975459525
 30
0.0
 40
20.47899999999952
 50
136.59276342797909
 51
154.3923821191886
  0
ARC
  5
9445
  8
0
 10
208.00000178813929
 20
113.000001013279
 30
0.0
 40
63.000000000000057
 50
72.000000000001023
 51
73.989293491368855
  0
ARC
  5
9446
  8
0
 10
207.26429329240989
 20
169.57040711912481
 30
0.0
 40
20.47899999999991
 50
351.60398275294398
 51
9.4039760142272222
  0
ARC
  5
9447
  8
0
 10
228.59396417219551
 20
166.3530146805719
 30
0.0
 40
1.0940000000000001
 50
168.0154743723642
 51
230.17946953508519
  0
ARC
  5
9448
  8
0
 10
228.41824690589851
 20
166.2401745919444
 30
0.0
 40
0.8970000000003026
 50
234.18764736395801
 51
252.86885143682369
  0
LINE
  5
9449
  8
0
 10
228.99557213485241
 20
165.0520592927933
 30
0.0
 11
228.15402719378471
 21
165.38297310471529
 31
0.0
  0
ARC
  5
944A
  8
0
 10
229.38761172280741
 20
165.85885105165991
 30
0.0
 40
0.8970000000006153
 50
244.0838279358193
 51
262.79668669299627
  0
ARC
  5
944B
  8
0
 10
229.33620548031081
 20
166.06122484075061
 30
0.0
 40
1.0940000000001651
 50
266.79997880019812
 51
328.93140565223899
  0
ARC
  5
944C
  8
0
 10
247.1287346737605
 20
153.86553771860079
 30
0.0
 40
20.47900000000006
 50
127.5927634279836
 51
145.39238211918931
  0
ARC
  5
944D
  8
0
 10
216.12291230110719
 20
168.9890217117098
 30
0.0
 40
20.478999999999861
 50
342.60398275294301
 51
0.403976014227065
  0
ARC
  5
944E
  8
0
 10
236.6866684728534
 20
162.4745450594688
 30
0.0
 40
1.093999999999973
 50
159.0154743723632
 51
221.1794695350824
  0
ARC
  5
944F
  8
0
 10
236.4954624987908
 20
162.39058245613089
 30
0.0
 40
0.8969999999998211
 50
225.18764736396241
 51
243.86885143682841
  0
LINE
  5
9450
  8
0
 10
236.87981750071049
 20
161.1267805099487
 30
0.0
 11
236.10039922595021
 21
161.5852668881416
 31
0.0
  0
ARC
  5
9451
  8
0
 10
237.3932406822033
 20
161.86231157483491
 30
0.0
 40
0.8969999999996327
 50
235.0838279358081
 51
253.79668669299531
  0
ARC
  5
9452
  8
0
 10
237.37412557129051
 20
162.07023551480719
 30
0.0
 40
1.0940000000000569
 50
257.79997880020068
 51
319.93140565224633
  0
ARC
  5
9453
  8
0
 10
253.03977341460791
 20
147.24133275262361
 30
0.0
 40
20.479000000000148
 50
118.5927634279781
 51
136.39238211918959
  0
ARC
  5
9454
  8
0
 10
224.78151829458011
 20
167.02900079779329
 30
0.0
 40
20.479000000000529
 50
333.6039827529446
 51
351.40397601422808
  0
ARC
  5
9455
  8
0
 10
244.07301183414549
 20
157.3778479673505
 30
0.0
 40
1.093999999999973
 50
150.01547437235661
 51
212.17946953507831
  0
ARC
  5
9456
  8
0
 10
243.87102527797541
 20
157.32483028725281
 30
0.0
 40
0.8970000000000817
 50
216.1876473639602
 51
234.868851436825
  0
LINE
  5
9457
  8
0
 10
244.05294778943059
 20
156.01646080613139
 30
0.0
 11
243.35484701395029
 21
156.5912321209907
 31
0.0
  0
ARC
  5
9458
  8
0
 10
244.6751105494609
 20
156.66261984727441
 30
0.0
 40
0.8970000000003
 50
226.0838279358218
 51
244.79668669298991
  0
ARC
  5
9459
  8
0
 10
244.68875724760139
 20
156.87097416066501
 30
0.0
 40
1.09400000000008
 50
248.79997880019391
 51
310.9314056522407
  0
ARC
  5
945A
  8
0
 10
257.84178349957938
 20
139.77399255875909
 30
0.0
 40
20.479000000000131
 50
109.592763427984
 51
127.3923821191874
  0
ARC
  5
945B
  8
0
 10
233.02690765700549
 20
163.73860659721191
 30
0.0
 40
20.478999999999971
 50
324.6039827529421
 51
342.40397601422887
  0
ARC
  5
945C
  8
0
 10
250.57111796864839
 20
151.1884210015931
 30
0.0
 40
1.0940000000000001
 50
141.0154743723659
 51
203.1794695350805
  0
ARC
  5
945D
  8
0
 10
250.36332440973831
 20
151.16765371597481
 30
0.0
 40
0.8969999999999503
 50
207.18764736395801
 51
225.8688514368389
  0
LINE
  5
945E
  8
0
 10
250.3383320868015
 20
149.84693303704259
 30
0.0
 11
249.73873916268349
 21
150.52383318543431
 31
0.0
  0
ARC
  5
945F
  8
0
 10
251.0539175213064
 20
150.38780953609611
 30
0.0
 40
0.8969999999999696
 50
217.0838279358112
 51
235.79668669299599
  0
ARC
  5
9460
  8
0
 10
251.09999000150199
 20
150.59146384822159
 30
0.0
 40
1.094000000000015
 50
239.79997880018999
 51
301.93140565224758
  0
ARC
  5
9461
  8
0
 10
261.41652350342542
 20
131.6473878352615
 30
0.0
 40
20.47900000000007
 50
100.5927634279807
 51
118.3923821191888
  0
ARC
  5
9462
  8
0
 10
240.6560515373998
 20
159.19885953537701
 30
0.0
 40
20.47900000000071
 50
315.60398275294511
 51
333.40397601422887
  0
ARC
  5
9463
  8
0
 10
256.02098193735281
 20
144.0586683956237
 30
0.0
 40
1.0940000000000361
 50
132.01547437236479
 51
194.17946953507521
  0
ARC
  5
9464
  8
0
 10
255.8124979427505
 20
144.07066286397981
 30
0.0
 40
0.8970000000001911
 50
198.18764736396099
 51
216.86885143683469
  0
LINE
  5
9465
  8
0
 10
255.5812087953091
 20
142.77011267840859
 30
0.0
 11
255.094887048006
 21
143.53247657418251
 31
0.0
  0
ARC
  5
9466
  8
0
 10
256.37259420004762
 20
143.1923872960638
 30
0.0
 40
0.8970000000000657
 50
208.0838279358058
 51
226.79668669299139
  0
ARC
  5
9467
  8
0
 10
256.44995800492939
 20
143.3863269618696
 30
0.0
 40
1.0939999999999921
 50
230.7999788001907
 51
292.93140565224428
  0
ARC
  5
9468
  8
0
 10
263.67597146336948
 20
123.0616225610779
 30
0.0
 40
20.479000000000049
 50
91.592763427978085
 51
109.3923821191884
  0
ARC
  5
9469
  8
0
 10
247.4810950937528
 20
153.5215432515063
 30
0.0
 40
20.478999999999932
 50
306.60398275294159
 51
324.403976014227
  0
ARC
  5
946A
  8
0
 10
260.28841000228749
 20
136.1641483208937
 30
0.0
 40
1.094000000000023
 50
123.0154743723577
 51
185.17946953508911
  0
ARC
  5
946B
  8
0
 10
260.08436913985878
 20
136.20860919960549
 30
0.0
 40
0.8969999999999222
 50
189.18764736396719
 51
207.86885143684299
  0
LINE
  5
946C
  8
0
 10
259.65247425436968
 20
134.9602539092302
 30
0.0
 11
259.29140421748161
 21
135.78930795192721
 31
0.0
  0
ARC
  5
946D
  8
0
 10
260.5001771141778
 20
135.2535283029643
 30
0.0
 40
0.8970000000003143
 50
199.08382793581691
 51
217.79668669299321
  0
ARC
  5
946E
  8
0
 10
264.56449227195981
 20
114.22810677178001
 30
0.0
 40
20.479000000000099
 50
82.592763427982661
 51
100.3923821191883
  0
ARC
  5
946F
  8
0
 10
263.26832392171229
 20
127.6992500620528
 30
0.0
 40
1.0939999999999901
 50
114.0154743723629
 51
176.17946953507769
  0
ARC
  5
9470
  8
0
 10
263.07375035466299
 20
127.7750825767295
 30
0.0
 40
0.8969999999999962
 50
180.18764736395531
 51
198.86885143683941
  0
LINE
  5
9471
  8
0
 10
262.45188835263252
 20
126.6096590086818
 30
0.0
 11
262.22495484352112
 21
127.4849904701114
 31
0.0
  0
ARC
  5
9472
  8
0
 10
263.33503147368771
 20
126.76671361276949
 30
0.0
 40
0.8969999999998973
 50
190.08382793580969
 51
208.79668669299321
  0
ARC
  5
9473
  8
0
 10
263.46853947706342
 20
126.9272544652444
 30
0.0
 40
1.093999999999973
 50
212.7999788001965
 51
274.9314056522436
  0
ARC
  5
9474
  8
0
 10
264.0602075980575
 20
105.36435094285829
 30
0.0
 40
20.47900000000023
 50
73.592763427978895
 51
91.392382119184347
  0
ARC
  5
9475
  8
0
 10
258.07059803679448
 20
139.3379490213369
 30
0.0
 40
20.47900000000001
 50
288.60398275294341
 51
306.40397601423109
  0
ARC
  5
9476
  8
0
 10
264.8873483251636
 20
118.87240750762039
 30
0.0
 40
1.0940000000000789
 50
105.01547437235909
 51
167.1794695350728
  0
ARC
  5
9477
  8
0
 10
264.70703310046719
 20
118.97774441007689
 30
0.0
 40
0.897000000000167
 50
171.18764736395019
 51
189.86885143682559
  0
LINE
  5
9478
  8
0
 10
263.91051459312439
 20
117.9239500313997
 30
0.0
 11
263.8233055472374
 21
118.82400438189509
 31
0.0
  0
ARC
  5
9479
  8
0
 10
264.80735375590569
 20
117.940916769276
 30
0.0
 40
0.8970000000004056
 50
181.08382793581819
 51
199.7966866929907
  0
ARC
  5
947A
  8
0
 10
264.96433217658949
 20
118.0785958443679
 30
0.0
 40
1.0939999999999961
 50
203.79997880019479
 51
265.93140565224382
  0
ARC
  5
947B
  8
0
 10
262.1755346039584
 20
96.688610159940339
 30
0.0
 40
20.479000000000301
 50
64.592763427978014
 51
82.392382119185655
  0
ARC
  5
947C
  8
0
 10
208.00000178813929
 20
113.000001013279
 30
0.0
 40
63.000000000000092
 50
0.0000000000008142
 51
1.9892934913717339
  0
ARC
  5
947D
  8
0
 10
261.57430871648069
 20
131.18091823763501
 30
0.0
 40
20.479000000000031
 50
279.60398275294432
 51
297.40397601422751
  0
CIRCLE
  5
947E
  8
0
 10
208.00000178813929
 20
113.000001013279
 30
0.0
 40
42.5
  0
ARC
  5
947F
  8
0
 10
260.60692729011362
 20
135.43297788422939
 30
0.0
 40
1.094000000000042
 50
221.7999788001967
 51
283.93140565224547
  0
ARC
  5
9480
  8
0
 10
208.00000178813929
 20
113.000001013279
 30
0.0
 40
63.000000000000043
 50
180.0
 51
181.98929349137251
  0
ARC
  5
9481
  8
0
 10
253.3339831026851
 20
146.846452114442
 30
0.0
 40
20.478999999999381
 50
297.60398275294432
 51
315.40397601422688
  0
ARC
  5
9482
  8
0
 10
208.00000178813929
 20
113.000001013279
 30
0.0
 40
63.000000000000043
 50
9.0000000000003109
 51
10.98929349137075
  0
ARC
  5
9483
  8
0
 10
208.00000178813929
 20
113.000001013279
 30
0.0
 40
62.999999999999979
 50
189.00000000000111
 51
190.98929349137151
  0
ARC
  5
9484
  8
0
 10
208.00000178813929
 20
113.000001013279
 30
0.0
 40
63.000000000000043
 50
198.00000000000179
 51
199.9892934913716
  0
ARC
  5
9485
  8
0
 10
208.00000178813929
 20
113.000001013279
 30
0.0
 40
63.000000000000057
 50
207.00000000000099
 51
208.98929349137001
  0
ARC
  5
9486
  8
0
 10
208.00000178813929
 20
113.000001013279
 30
0.0
 40
62.999999999999972
 50
216.00000000000151
 51
217.98929349137231
  0
ARC
  5
9487
  8
0
 10
208.00000178813929
 20
113.000001013279
 30
0.0
 40
63.0
 50
225.0
 51
226.98929349137009
  0
ARC
  5
9488
  8
0
 10
208.00000178813929
 20
113.000001013279
 30
0.0
 40
63.000000000000043
 50
234.00000000000441
 51
235.9892934913737
  0
ARC
  5
9489
  8
0
 10
208.00000178813929
 20
113.000001013279
 30
0.0
 40
63.000000000000043
 50
242.99999999999821
 51
244.98929349136949
  0
ARC
  5
948A
  8
0
 10
208.00000178813929
 20
113.000001013279
 30
0.0
 40
63.000000000000043
 50
252.00000000000099
 51
253.98929349137549
  0
ARC
  5
948B
  8
0
 10
208.00000178813929
 20
113.000001013279
 30
0.0
 40
63.000000000000007
 50
261.00000000000142
 51
262.98929349137472
  0
ARC
  5
948C
  8
0
 10
208.00000178813929
 20
113.000001013279
 30
0.0
 40
63.000000000000043
 50
270.0
 51
271.98929349136932
  0
ARC
  5
948D
  8
0
 10
208.00000178813929
 20
113.000001013279
 30
0.0
 40
63.000000000000043
 50
278.99999999999858
 51
280.9892934913704
  0
ARC
  5
948E
  8
0
 10
208.00000178813929
 20
113.000001013279
 30
0.0
 40
63.000000000000057
 50
287.99999999999898
 51
289.98929349136961
  0
ARC
  5
948F
  8
0
 10
208.00000178813929
 20
113.000001013279
 30
0.0
 40
63.000000000000043
 50
297.00000000000182
 51
298.98929349136932
  0
ARC
  5
9490
  8
0
 10
208.00000178813929
 20
113.000001013279
 30
0.0
 40
63.000000000000028
 50
306.00000000000267
 51
307.98929349137052
  0
ARC
  5
9491
  8
0
 10
208.00000178813929
 20
113.000001013279
 30
0.0
 40
63.000000000000028
 50
315.00000000000063
 51
316.98929349137069
  0
ARC
  5
9492
  8
0
 10
208.00000178813929
 20
113.000001013279
 30
0.0
 40
63.00000000000005
 50
323.9999999999992
 51
325.98929349137359
  0
ARC
  5
9493
  8
0
 10
208.00000178813929
 20
113.000001013279
 30
0.0
 40
63.000000000000028
 50
332.99999999999972
 51
334.98929349137393
  0
ARC
  5
9494
  8
0
 10
208.00000178813929
 20
113.000001013279
 30
0.0
 40
63.000000000000092
 50
341.99999999999972
 51
343.9892934913708
  0
ARC
  5
9495
  8
0
 10
208.00000178813929
 20
113.000001013279
 30
0.0
 40
63.000000000000057
 50
351.00000000000051
 51
352.98929349137228
  0
ARC
  5
9496
  8
0
 10
208.00000178813929
 20
113.000001013279
 30
0.0
 40
63.000000000000057
 50
53.999999999997243
 51
55.989293491373779
  0
ARC
  5
9497
  8
0
 10
208.00000178813929
 20
113.000001013279
 30
0.0
 40
63.000000000000071
 50
18.00000000000103
 51
19.989293491370841
  0
ARC
  5
9498
  8
0
 10
208.00000178813929
 20
113.000001013279
 30
0.0
 40
63.000000000000107
 50
27.00000000000032
 51
28.98929349136926
  0
ARC
  5
9499
  8
0
 10
208.00000178813929
 20
113.000001013279
 30
0.0
 40
63.000000000000028
 50
36.00000000000081
 51
37.989293491372308
  0
ARC
  5
949A
  8
0
 10
208.00000178813929
 20
113.000001013279
 30
0.0
 40
62.999999999999979
 50
44.999999999999417
 51
46.989293491370049
  0
ARC
  5
949B
  8
0
 10
208.00000178813929
 20
113.000001013279
 30
0.0
 40
62.999999999999979
 50
143.99999999999909
 51
145.98929349137291
  0
ARC
  5
949C
  8
0
 10
208.00000178813929
 20
113.000001013279
 30
0.0
 40
63.000000000000028
 50
62.999999999998238
 51
64.989293491369565
  0
ARC
  5
949D
  8
0
 10
208.00000178813929
 20
113.000001013279
 30
0.0
 40
63.000000000000043
 50
161.99999999999889
 51
163.98929349137001
  0
ARC
  5
949E
  8
0
 10
208.00000178813929
 20
113.000001013279
 30
0.0
 40
62.999999999999993
 50
170.99999999999969
 51
172.98929349137151
  0
ARC
  5
949F
  8
0
 10
208.00000178813929
 20
113.000001013279
 30
0.0
 40
63.0
 50
135.00000000000051
 51
136.98929349137009
  0
ARC
  5
94A0
  8
0
 10
208.00000178813929
 20
113.000001013279
 30
0.0
 40
62.999999999999993
 50
117.00000000000171
 51
118.9892934913693
  0
ARC
  5
94A1
  8
0
 10
208.00000178813929
 20
113.000001013279
 30
0.0
 40
63.000000000000043
 50
107.99999999999901
 51
109.98929349136959
  0
ARC
  5
94A2
  8
0
 10
208.00000178813929
 20
113.000001013279
 30
0.0
 40
63.000000000000028
 50
152.99999999999969
 51
154.9892934913731
  0
ARC
  5
94A3
  8
0
 10
208.00000178813929
 20
113.000001013279
 30
0.0
 40
62.999999999999993
 50
126.0000000000027
 51
127.9892934913705
  0
LINE
  5
94A8
  8
3
 10
79.999999329447746
 20
141.60191193223
 30
0.0
 11
50.0
 21
141.60191193223
 31
0.0
  0
LINE
  5
94A9
  8
0
 10
79.999999329447746
 20
83.000001683831215
 30
0.0
 11
95.000001788139343
 21
83.000001683831215
 31
0.0
  0
LINE
  5
94AA
  8
0
 10
95.000001788139343
 20
143.00000034272671
 30
0.0
 11
79.999999329447746
 21
143.00000034272671
 31
0.0
  0
LINE
  5
94AB
  8
3
 10
79.999999329447746
 20
110.81309798173599
 30
0.0
 11
50.0
 21
110.81309798173599
 31
0.0
  0
LINE
  5
94AD
  8
3
 10
79.999999329447746
 20
113.0000010132789
 30
0.0
 11
50.0
 21
113.0000010132789
 31
0.0
  0
LINE
  5
94B6
  8
3
 10
79.999999329447746
 20
120.68945420905941
 30
0.0
 11
50.0
 21
120.68945420905941
 31
0.0
  0
LINE
  5
94B9
  8
3
 10
79.999999329447746
 20
122.85537198185919
 30
0.0
 11
50.0
 21
122.85537198185919
 31
0.0
  0
LINE
  5
94BC
  8
3
 10
79.999999329447746
 20
103.1446300446987
 30
0.0
 11
50.0
 21
103.1446300446987
 31
0.0
  0
LINE
  5
94BD
  8
3
 10
79.999999329447746
 20
100.9905908256769
 30
0.0
 11
50.0
 21
100.9905908256769
 31
0.0
  0
LINE
  5
94C8
  8
3
 10
79.999999329447746
 20
132.4680719524622
 30
0.0
 11
50.0
 21
132.4680719524622
 31
0.0
  0
LINE
  5
94C9
  8
3
 10
79.999999329447746
 20
130.37647046148771
 30
0.0
 11
50.0
 21
130.37647046148771
 31
0.0
  0
LINE
  5
94CF
  8
3
 10
79.999999329447746
 20
93.531930074095726
 30
0.0
 11
50.0
 21
93.531930074095726
 31
0.0
  0
LINE
  5
94D0
  8
3
 10
79.999999329447746
 20
91.463794186711311
 30
0.0
 11
50.0
 21
91.463794186711311
 31
0.0
  0
LINE
  5
94DA
  8
3
 10
79.999999329447746
 20
141.60140156745911
 30
0.0
 11
50.0
 21
141.60140156745911
 31
0.0
  0
LINE
  5
94DB
  8
3
 10
79.999999329447746
 20
139.63561989367011
 30
0.0
 11
50.0
 21
139.63561989367011
 31
0.0
  0
LINE
  5
94EF
  8
3
 10
79.999999329447746
 20
84.398600459098816
 30
0.0
 11
50.0
 21
84.398600459098816
 31
0.0
  0
LINE
  5
94F0
  8
3
 10
79.999999329447746
 20
82.467292621731744
 30
0.0
 11
50.0
 21
82.467292621731744
 31
0.0
  0
LINE
  5
952F
  8
3
 10
79.999999329447746
 20
148.2389114797115
 30
0.0
 11
50.0
 21
148.2389114797115
 31
0.0
  0
LINE
  5
9532
  8
3
 10
79.999999329447746
 20
150.03047063946721
 30
0.0
 11
50.0
 21
150.03047063946721
 31
0.0
  0
LINE
  5
9542
  8
3
 10
79.999999329447746
 20
75.969531387090683
 30
0.0
 11
50.0
 21
75.969531387090683
 31
0.0
  0
LINE
  5
9543
  8
3
 10
79.999999329447746
 20
74.222604930400834
 30
0.0
 11
50.0
 21
74.222604930400834
 31
0.0
  0
LINE
  5
9556
  8
3
 10
79.999999329447746
 20
157.54772648215291
 30
0.0
 11
50.0
 21
157.54772648215291
 31
0.0
  0
LINE
  5
9557
  8
3
 10
79.999999329447746
 20
155.97450658679
 30
0.0
 11
50.0
 21
155.97450658679
 31
0.0
  0
LINE
  5
955D
  8
3
 10
79.999999329447746
 20
68.452275544404984
 30
0.0
 11
50.0
 21
68.452275544404984
 31
0.0
  0
LINE
  5
9561
  8
3
 10
79.999999329447746
 20
66.932748258113861
 30
0.0
 11
50.0
 21
66.932748258113861
 31
0.0
  0
LINE
  5
9568
  8
3
 10
79.999999329447746
 20
162.65192553400991
 30
0.0
 11
50.0
 21
162.65192553400991
 31
0.0
  0
LINE
  5
956B
  8
3
 10
79.999999329447746
 20
163.9680705964565
 30
0.0
 11
50.0
 21
163.9680705964565
 31
0.0
  0
LINE
  5
956E
  8
3
 10
79.999999329447746
 20
62.031931430101388
 30
0.0
 11
50.0
 21
62.031931430101388
 31
0.0
  0
LINE
  5
956F
  8
3
 10
79.999999329447746
 20
60.77721640467643
 30
0.0
 11
50.0
 21
60.77721640467643
 31
0.0
  0
LINE
  5
9574
  8
3
 10
79.999999329447746
 20
168.10674890875811
 30
0.0
 11
50.0
 21
168.10674890875811
 31
0.0
  0
LINE
  5
9577
  8
3
 10
79.999999329447746
 20
169.13341283798209
 30
0.0
 11
50.0
 21
169.13341283798209
 31
0.0
  0
LINE
  5
957A
  8
0
 10
95.000001788139343
 20
83.000001683831215
 30
0.0
 11
95.000001788139343
 21
143.00000034272671
 31
0.0
  0
LINE
  5
957B
  8
3
 10
79.999999329447746
 20
56.866589188575738
 30
0.0
 11
50.0
 21
56.866589188575738
 31
0.0
  0
LINE
  5
957E
  8
3
 10
79.999999329447746
 20
55.907587707042687
 30
0.0
 11
50.0
 21
55.907587707042687
 31
0.0
  0
LINE
  5
9581
  8
3
 10
79.999999329447746
 20
172.2046613693237
 30
0.0
 11
50.0
 21
172.2046613693237
 31
0.0
  0
LINE
  5
9584
  8
3
 10
79.999999329447746
 20
172.9165606200695
 30
0.0
 11
50.0
 21
172.9165606200695
 31
0.0
  0
LINE
  5
9587
  8
3
 10
79.999999329447746
 20
53.083441406488411
 30
0.0
 11
50.0
 21
53.083441406488411
 31
0.0
  0
LINE
  5
958A
  8
3
 10
79.999999329447746
 20
52.443760633468621
 30
0.0
 11
50.0
 21
52.443760633468621
 31
0.0
  0
LINE
  5
958D
  8
3
 10
79.999999329447746
 20
174.84475970268241
 30
0.0
 11
50.0
 21
174.84475970268241
 31
0.0
  0
LINE
  5
9590
  8
3
 10
79.999999329447746
 20
175.22436678409571
 30
0.0
 11
50.0
 21
175.22436678409571
 31
0.0
  0
LINE
  5
9593
  8
3
 10
79.999999329447746
 20
50.775635242462151
 30
0.0
 11
50.0
 21
50.775635242462151
 31
0.0
  0
LINE
  5
9596
  8
3
 10
79.999999329447746
 20
50.471025705337517
 30
0.0
 11
50.0
 21
50.471025705337517
 31
0.0
  0
LINE
  5
9599
  8
3
 10
79.999999329447746
 20
175.96203386783591
 30
0.0
 11
50.0
 21
175.96203386783591
 31
0.0
  0
LINE
  5
959C
  8
0
 10
79.999999329447746
 20
176.00000202655789
 30
0.0
 11
50.0
 21
176.00000202655789
 31
0.0
  0
LINE
  5
959F
  8
0
 10
79.999999329447746
 20
50.0
 30
0.0
 11
50.0
 21
50.0
 31
0.0
  0
LINE
  5
95A0
  8
0
 10
79.999999329447633
 20
176.00000202655789
 30
0.0
 11
79.999999329447746
 21
50.0
 31
0.0
  0
LINE
  5
95A1
  8
0
 10
50.0
 20
176.00000202655789
 30
0.0
 11
50.0
 21
50.0
 31
0.0
  0
LINE
  5
95B5
  8
2
 10
54.999999888241291
 20
70.500000566244125
 30
0.0
 11
54.999999888241291
 21
155.50000146031371
 31
0.0
  0
LINE
  5
95B6
  8
2
 10
75.000000372529016
 20
70.500000566244125
 30
0.0
 11
75.000000372529016
 21
155.50000146031371
 31
0.0
  0
LINE
  5
95E7
  8
2
 10
95.000001788139343
 20
124.8427202925086
 30
0.0
 11
50.0
 21
124.8427202925086
 31
0.0
  0
LINE
  5
95F3
  8
2
 10
95.000001788139343
 20
128.80000025033951
 30
0.0
 11
50.0
 21
128.80000025033951
 31
0.0
  0
LINE
  5
968B
  8
2
 10
50.0
 20
70.500000566244125
 30
0.0
 11
54.999999888241291
 21
70.500000566244125
 31
0.0
  0
LINE
  5
968C
  8
2
 10
54.999999888241291
 20
155.50000146031371
 30
0.0
 11
50.0
 21
155.50000146031371
 31
0.0
  0
LINE
  5
968D
  8
2
 10
75.000000372529016
 20
70.500000566244125
 30
0.0
 11
79.999999329447746
 21
70.500000566244125
 31
0.0
  0
LINE
  5
968E
  8
2
 10
79.999999329447746
 20
155.50000146031371
 30
0.0
 11
75.000000372529016
 21
155.50000146031371
 31
0.0
  0
LINE
  5
9693
  8
2
 10
50.0
 20
83.000001683831215
 30
0.0
 11
54.999999888241291
 21
83.000001683831215
 31
0.0
  0
LINE
  5
9694
  8
2
 10
54.999999888241291
 20
143.00000034272671
 30
0.0
 11
50.0
 21
143.00000034272671
 31
0.0
  0
LINE
  5
9695
  8
2
 10
75.000000372529016
 20
83.000001683831215
 30
0.0
 11
79.999999329447746
 21
83.000001683831215
 31
0.0
  0
LINE
  5
9696
  8
2
 10
79.999999329447746
 20
143.00000034272671
 30
0.0
 11
75.000000372529016
 21
143.00000034272671
 31
0.0
  0
LINE
  5
969A
  8
2
 10
50.0
 20
100.5000008270144
 30
0.0
 11
95.000001788139343
 21
100.5000008270144
 31
0.0
  0
LINE
  5
96B2
  8
1
 10
275.0000017881394
 20
113.000001013279
 30
0.0
 11
141.00000178813929
 21
113.000001013279
 31
0.0
  0
LINE
  5
96B3
  8
1
 10
208.00000178813929
 20
180.00000101327899
 30
0.0
 11
208.00000178813929
 21
46.00000101327899
 31
0.0
  0
CIRCLE
  5
96B4
  8
5
 10
208.00000178813929
 20
113.000001013279
 30
0.0
 40
60.0
  0
LINE
  5
9714
  8
1
 10
46.0
 20
113.0000010132789
 30
0.0
 11
99.000001788139343
 21
113.0000010132789
 31
0.0
  0
ENDSEC
  0
EOF
