  0
SECTION
  2
HEADER
  9
$ACADVER
  1
AC1009
  9
$INSBASE
 10
0.0
 20
0.0
 30
0.0
  9
$EXTMIN
 10
0.0
 20
-2.960436562073669
 30
0.0
  9
$EXTMAX
 10
268.99999275058508
 20
141.49999935179949
 30
0.0
  9
$LIMMIN
 10
0.0
 20
0.0
  9
$LIMMAX
 10
275.0
 20
175.0
  9
$ORTHOMODE
 70
     1
  9
$REGENMODE
 70
     1
  9
$FILLMODE
 70
     1
  9
$QTEXTMODE
 70
     0
  9
$MIRRTEXT
 70
     0
  9
$DRAGMODE
 70
     2
  9
$LTSCALE
 40
5.0
  9
$OSMODE
 70
    37
  9
$ATTMODE
 70
     1
  9
$TEXTSIZE
 40
0.2
  9
$TRACEWID
 40
0.05
  9
$TEXTSTYLE
  7
STANDARD
  9
$CLAYER
  8
0
  9
$CELTYPE
  6
BYLAYER
  9
$CECOLOR
 62
   256
  9
$DIMSCALE
 40
1.0
  9
$DIMASZ
 40
3.0
  9
$DIMEXO
 40
1.0
  9
$DIMDLI
 40
6.0
  9
$DIMRND
 40
0.0
  9
$DIMDLE
 40
0.0
  9
$DIMEXE
 40
1.0
  9
$DIMTP
 40
495.0
  9
$DIMTM
 40
0.0
  9
$DIMTXT
 40
3.0
  9
$DIMCEN
 40
0.0
  9
$DIMTSZ
 40
0.0
  9
$DIMTOL
 70
     0
  9
$DIMLIM
 70
     0
  9
$DIMTIH
 70
     0
  9
$DIMTOH
 70
     0
  9
$DIMSE1
 70
     0
  9
$DIMSE2
 70
     0
  9
$DIMTAD
 70
     1
  9
$DIMZIN
 70
     8
  9
$DIMBLK
  1

  9
$DIMASO
 70
     0
  9
$DIMSHO
 70
     0
  9
$DIMPOST
  1

  9
$DIMAPOST
  1

  9
$DIMALT
 70
     0
  9
$DIMALTD
 70
     2
  9
$DIMALTF
 40
25.399999999999999
  9
$DIMLFAC
 40
1.0
  9
$DIMTOFL
 70
     1
  9
$DIMTVP
 40
0.0
  9
$DIMTIX
 70
     1
  9
$DIMSOXD
 70
     0
  9
$DIMSAH
 70
     0
  9
$DIMBLK1
  1

  9
$DIMBLK2
  1

  9
$DIMSTYLE
  2
STANDARD
  9
$DIMCLRD
 70
     0
  9
$DIMCLRE
 70
     0
  9
$DIMCLRT
 70
     0
  9
$DIMTFAC
 40
1.0
  9
$DIMGAP
 40
1.0
  9
$LUNITS
 70
     2
  9
$LUPREC
 70
     1
  9
$SKETCHINC
 40
0.1
  9
$FILLETRAD
 40
0.0
  9
$AUNITS
 70
     0
  9
$AUPREC
 70
     0
  9
$MENU
  1
E:\r13\win\SUPPORT\ACAD
  9
$ELEVATION
 40
0.0
  9
$PELEVATION
 40
0.0
  9
$THICKNESS
 40
0.0
  9
$LIMCHECK
 70
     0
  9
$BLIPMODE
 70
     0
  9
$CHAMFERA
 40
0.0
  9
$CHAMFERB
 40
0.0
  9
$SKPOLY
 70
     0
  9
$TDCREATE
 40
2450653.5278402781
  9
$TDUPDATE
 40
2459439.6129035531
  9
$TDINDWG
 40
0.2939675
  9
$TDUSRTIMER
 40
0.2939675
  9
$USRTIMER
 70
     1
  9
$ANGBASE
 50
0.0
  9
$ANGDIR
 70
     0
  9
$PDMODE
 70
     0
  9
$PDSIZE
 40
0.0
  9
$PLINEWID
 40
0.0
  9
$COORDS
 70
     1
  9
$SPLFRAME
 70
     0
  9
$SPLINETYPE
 70
     6
  9
$SPLINESEGS
 70
     8
  9
$ATTDIA
 70
     0
  9
$ATTREQ
 70
     1
  9
$HANDLING
 70
     1
  9
$HANDSEED
  5
3E98
  9
$SURFTAB1
 70
     6
  9
$SURFTAB2
 70
     6
  9
$SURFTYPE
 70
     6
  9
$SURFU
 70
     6
  9
$SURFV
 70
     6
  9
$UCSNAME
  2

  9
$UCSORG
 10
0.0
 20
0.0
 30
0.0
  9
$UCSXDIR
 10
1.0
 20
0.0
 30
0.0
  9
$UCSYDIR
 10
0.0
 20
1.0
 30
0.0
  9
$PUCSNAME
  2

  9
$PUCSORG
 10
0.0
 20
0.0
 30
0.0
  9
$PUCSXDIR
 10
1.0
 20
0.0
 30
0.0
  9
$PUCSYDIR
 10
0.0
 20
1.0
 30
0.0
  9
$USERI1
 70
     4
  9
$USERI2
 70
     1
  9
$USERI3
 70
     1
  9
$USERI4
 70
     0
  9
$USERI5
 70
     0
  9
$USERR1
 40
1.0
  9
$USERR2
 40
3.0
  9
$USERR3
 40
3.0
  9
$USERR4
 40
3.0
  9
$USERR5
 40
10.0
  9
$WORLDVIEW
 70
     1
  9
$SHADEDGE
 70
     3
  9
$SHADEDIF
 70
    70
  9
$TILEMODE
 70
     1
  9
$MAXACTVP
 70
    16
  9
$PLIMCHECK
 70
     0
  9
$PEXTMIN
 10
1.0000000000000000E+020
 20
1.0000000000000000E+020
 30
1.0000000000000000E+020
  9
$PEXTMAX
 10
-1.0000000000000000E+020
 20
-1.0000000000000000E+020
 30
-1.0000000000000000E+020
  9
$PLIMMIN
 10
0.0
 20
0.0
  9
$PLIMMAX
 10
12.0
 20
9.0
  9
$UNITMODE
 70
     0
  9
$VISRETAIN
 70
     0
  9
$PLINEGEN
 70
     0
  9
$PSLTSCALE
 70
     0
  0
ENDSEC
  0
SECTION
  2
TABLES
  0
TABLE
  2
VPORT
 70
     1
  0
VPORT
  2
*ACTIVE
 70
     0
 10
0.0
 20
0.0
 11
1.0
 21
1.0
 12
260.1957585644372
 22
100.0
 13
0.0
 23
0.0
 14
5.0
 24
5.0
 15
10.0
 25
10.0
 16
0.0
 26
0.0
 36
1.0
 17
0.0
 27
0.0
 37
0.0
 40
200.0
 41
2.6019575856443722
 42
50.0
 43
0.0
 44
0.0
 50
0.0
 51
0.0
 71
     0
 72
   100
 73
     1
 74
     0
 75
     0
 76
     0
 77
     0
 78
     0
  0
ENDTAB
  0
TABLE
  2
LTYPE
 70
     4
  0
LTYPE
  2
CONTINUOUS
 70
     0
  3
Solid Line
 72
    65
 73
     0
 40
0.0
  0
LTYPE
  2
CENTER
 70
     0
  3
____ _ ____ _ ____ _ ____ _ ____ _ ____ _ ____ 
 72
    65
 73
     4
 40
2.0
 49
1.25
 49
-0.25
 49
0.25
 49
-0.25
  0
LTYPE
  2
HIDDEN
 70
     0
  3
__ __ __ __ __ __ __ __ __ __ __ __ __ __ __ __
 72
    65
 73
     2
 40
0.375
 49
0.25
 49
-0.125
  0
LTYPE
  2
PHANTOM2
 70
     0
  3
___ _ _ ___ _ _ ___ _ _ ___ _ _
 72
    65
 73
     6
 40
1.25
 49
0.625
 49
-0.125
 49
0.125
 49
-0.125
 49
0.125
 49
-0.125
  0
ENDTAB
  0
TABLE
  2
LAYER
 70
     5
  0
LAYER
  2
0
 70
     0
 62
     7
  6
CONTINUOUS
  0
LAYER
  2
1
 70
     0
 62
     1
  6
CENTER
  0
LAYER
  2
2
 70
     0
 62
     2
  6
HIDDEN
  0
LAYER
  2
DEFPOINTS
 70
     0
 62
     7
  6
CONTINUOUS
  0
LAYER
  2
3
 70
     0
 62
     3
  6
CONTINUOUS
  0
ENDTAB
  0
TABLE
  2
STYLE
 70
     2
  0
STYLE
  2
STANDARD
 70
     0
 40
0.0
 41
1.0
 50
0.0
 71
     0
 42
0.2
  3
simplex
  4
bigfont
  0
STYLE
  2
STANDARD1
 70
     0
 40
0.0
 41
1.0
 50
0.0
 71
     0
 42
3.0
  3
txt
  4

  0
ENDTAB
  0
TABLE
  2
VIEW
 70
     0
  0
ENDTAB
  0
TABLE
  2
UCS
 70
     0
  0
ENDTAB
  0
TABLE
  2
APPID
 70
     9
  0
APPID
  2
ACAD
 70
     0
  0
APPID
  2
_CALL_MAC$
 70
     0
  0
APPID
  2
ACAD_MLEADERVER
 70
     0
  0
APPID
  2
ACAD_EXEMPT_FROM_CAD_STANDARDS
 70
     0
  0
APPID
  2
ACAD_NAV_VCDISPLAY
 70
     0
  0
APPID
  2
ACAD_DSTYLE_DIMJAG
 70
     0
  0
APPID
  2
ACAD_DSTYLE_DIMTALN
 70
     0
  0
APPID
  2
ACAECLAYERSTANDARD
 70
     0
  0
APPID
  2
ACCMTRANSPARENCY
 70
     0
  0
ENDTAB
  0
TABLE
  2
DIMSTYLE
 70
     1
  0
DIMSTYLE
  2
STANDARD
 70
     0
  3

  4

  5

  6

  7

 40
1.0
 41
0.18
 42
0.0625
 43
0.38
 44
0.18
 45
0.0
 46
0.0
 47
0.0
 48
0.0
140
0.18
141
0.09
142
0.0
143
25.399999999999999
144
1.0
145
0.0
146
1.0
147
0.09
 71
     0
 72
     0
 73
     1
 74
     1
 75
     0
 76
     0
 77
     0
 78
     0
170
     0
171
     2
172
     0
173
     0
174
     0
175
     0
176
     0
177
     0
178
     0
  0
ENDTAB
  0
ENDSEC
  0
SECTION
  2
BLOCKS
  0
BLOCK
  8
0
  2
$MODEL_SPACE
 70
     2
 10
0.0
 20
0.0
 30
0.0
  3
$MODEL_SPACE
  1

  0
ENDBLK
  5
7
  8
0
  0
BLOCK
 67
     1
  8
0
  2
$PAPER_SPACE
 70
     0
 10
0.0
 20
0.0
 30
0.0
  3
$PAPER_SPACE
  1

  0
ENDBLK
  5
A
 67
     1
  8
0
  0
ENDSEC
  0
SECTION
  2
ENTITIES
  0
TEXT
  5
2BF
  8
0
 62
     3
 10
0.0
 20
0.0
 30
0.0
 40
10.0
  1
ZCR-1.0-150-PD
  7
STANDARD1
  0
LINE
  5
3621
  8
0
 10
197.99999445676801
 20
64.000000432133646
 30
0.0
 11
151.766662672162
 21
64.000000432133646
 31
0.0
  0
LINE
  5
3622
  8
0
 10
197.99999445676801
 20
71.50000073015687
 30
0.0
 11
197.99999445676801
 21
64.000000432133646
 31
0.0
  0
LINE
  5
3623
  8
0
 10
151.766662672162
 20
71.50000073015687
 30
0.0
 11
197.99999445676801
 21
71.50000073015687
 31
0.0
  0
LINE
  5
3624
  8
0
 10
151.766662672162
 20
64.000000432133646
 30
0.0
 11
151.766662672162
 21
71.50000073015687
 31
0.0
  0
LINE
  5
3625
  8
0
 10
150.1166626811027
 20
64.000000432133646
 30
0.0
 11
100.8833304047584
 21
64.000000432133646
 31
0.0
  0
LINE
  5
3626
  8
0
 10
150.1166626811027
 20
71.50000073015687
 30
0.0
 11
150.1166626811027
 21
64.000000432133646
 31
0.0
  0
LINE
  5
3627
  8
0
 10
100.8833304047584
 20
71.50000073015687
 30
0.0
 11
150.1166626811027
 21
71.50000073015687
 31
0.0
  0
LINE
  5
3628
  8
0
 10
100.8833304047584
 20
64.000000432133646
 30
0.0
 11
100.8833304047584
 21
71.50000073015687
 31
0.0
  0
LINE
  5
3629
  8
0
 10
99.23333041369915
 20
64.000000432133646
 30
0.0
 11
52.99999862909317
 21
64.000000432133646
 31
0.0
  0
LINE
  5
362A
  8
0
 10
99.23333041369915
 20
71.50000073015687
 30
0.0
 11
99.23333041369915
 21
64.000000432133646
 31
0.0
  0
LINE
  5
362B
  8
0
 10
52.99999862909317
 20
71.50000073015687
 30
0.0
 11
99.23333041369915
 21
71.50000073015687
 31
0.0
  0
LINE
  5
362C
  8
0
 10
52.99999862909317
 20
64.000000432133646
 30
0.0
 11
52.99999862909317
 21
71.50000073015687
 31
0.0
  0
LINE
  5
362D
  8
0
 10
50.000000000000007
 20
74.249999687075558
 30
0.0
 11
50.0
 21
50.0
 31
0.0
  0
LINE
  5
36EF
  8
0
 10
200.99999308586121
 20
50.0
 30
0.0
 11
200.99999308586121
 21
74.249999687075558
 31
0.0
  0
LINE
  5
36F4
  8
0
 10
50.0
 20
60.99999994039532
 30
0.0
 11
200.99999308586121
 21
60.999999940395313
 31
0.0
  0
LINE
  5
36F6
  8
0
 10
151.766662672162
 20
60.99999994039532
 30
0.0
 11
151.766662672162
 21
49.999999999999972
 31
0.0
  0
LINE
  5
36F7
  8
0
 10
150.1166626811027
 20
49.999999999999972
 30
0.0
 11
150.1166626811027
 21
60.99999994039532
 31
0.0
  0
LINE
  5
36F9
  8
0
 10
100.8833304047584
 20
60.99999994039532
 30
0.0
 11
100.8833304047584
 21
49.999999999999972
 31
0.0
  0
LINE
  5
36FA
  8
0
 10
99.23333041369915
 20
49.999999999999972
 30
0.0
 11
99.23333041369915
 21
60.99999994039532
 31
0.0
  0
LINE
  5
36FC
  8
0
 10
50.0
 20
49.999999999999972
 30
0.0
 11
200.99999308586121
 21
49.999999999999972
 31
0.0
  0
LINE
  5
3700
  8
0
 10
250.99999308586121
 20
60.99999994039532
 30
0.0
 11
250.99999308586121
 21
76.499999687075601
 31
0.0
  0
LINE
  5
3701
  8
0
 10
250.99999308586121
 20
74.249999687075558
 30
0.0
 11
265.99999275058508
 21
74.249999687075558
 31
0.0
  0
LINE
  5
3702
  8
0
 10
265.99999275058508
 20
49.999999999999972
 30
0.0
 11
265.99999275058508
 21
76.499999687075601
 31
0.0
  0
LINE
  5
3703
  8
0
 10
262.99999272450799
 20
49.999999999999972
 30
0.0
 11
265.99999275058508
 21
49.999999999999972
 31
0.0
  0
LINE
  5
3704
  8
0
 10
262.99999272450799
 20
49.999999999999972
 30
0.0
 11
262.99999272450799
 21
60.99999994039532
 31
0.0
  0
LINE
  5
3705
  8
0
 10
250.99999308586121
 20
60.99999994039532
 30
0.0
 11
262.99999272450799
 21
60.99999994039532
 31
0.0
  0
LINE
  5
3706
  8
0
 10
250.99999308586121
 20
76.499999687075587
 30
0.0
 11
265.99999275058508
 21
76.499999687075587
 31
0.0
  0
LINE
  5
3709
  8
0
 10
250.99999308586121
 20
60.99999994039532
 30
0.0
 11
262.99999272450799
 21
49.999999999999972
 31
0.0
  0
LINE
  5
370A
  8
2
 10
265.99999275058508
 20
64.000000432133646
 30
0.0
 11
259.99999293126172
 21
64.000000432133646
 31
0.0
  0
LINE
  5
370B
  8
2
 10
265.99999275058508
 20
71.50000073015687
 30
0.0
 11
259.99999293126172
 21
71.50000073015687
 31
0.0
  0
LINE
  5
370C
  8
2
 10
256.99999290518463
 20
64.000000432133646
 30
0.0
 11
256.99999290518463
 21
71.50000073015687
 31
0.0
  0
LINE
  5
370D
  8
2
 10
250.99999308586121
 20
71.50000073015687
 30
0.0
 11
256.99999290518463
 21
71.50000073015687
 31
0.0
  0
LINE
  5
370E
  8
2
 10
250.99999308586121
 20
64.000000432133646
 30
0.0
 11
256.99999290518463
 21
64.000000432133646
 31
0.0
  0
LINE
  5
370F
  8
2
 10
259.99999293126172
 20
64.000000432133646
 30
0.0
 11
259.99999293126172
 21
71.50000073015687
 31
0.0
  0
LINE
  5
38F2
  8
0
 10
200.99999308586121
 20
126.4999996870755
 30
0.0
 11
200.99999308586121
 21
141.4999993517994
 31
0.0
  0
LINE
  5
38F3
  8
0
 10
200.99999308586121
 20
126.4999996870755
 30
0.0
 11
50.0
 21
126.4999996870755
 31
0.0
  0
LINE
  5
38F4
  8
0
 10
200.99999308586121
 20
141.4999993517994
 30
0.0
 11
50.0
 21
141.4999993517994
 31
0.0
  0
LINE
  5
3941
  8
0
 10
50.0
 20
126.4999996870755
 30
0.0
 11
50.0
 21
141.4999993517994
 31
0.0
  0
LINE
  5
3954
  8
2
 10
150.1166626811027
 20
141.4999993517994
 30
0.0
 11
150.1166626811027
 21
126.4999996870755
 31
0.0
  0
LINE
  5
3955
  8
2
 10
100.8833304047584
 20
141.4999993517994
 30
0.0
 11
100.8833304047584
 21
126.4999996870755
 31
0.0
  0
LINE
  5
3956
  8
2
 10
99.23333041369915
 20
141.4999993517994
 30
0.0
 11
99.23333041369915
 21
126.4999996870755
 31
0.0
  0
LINE
  5
3957
  8
2
 10
52.99999862909317
 20
141.4999993517994
 30
0.0
 11
52.99999862909317
 21
135.49999953247601
 31
0.0
  0
LINE
  5
3958
  8
2
 10
151.766662672162
 20
141.4999993517994
 30
0.0
 11
151.766662672162
 21
126.4999996870755
 31
0.0
  0
LINE
  5
3959
  8
2
 10
197.99999445676801
 20
141.4999993517994
 30
0.0
 11
197.99999445676801
 21
135.49999953247601
 31
0.0
  0
LINE
  5
395A
  8
2
 10
150.1166626811027
 20
135.49999953247601
 30
0.0
 11
100.8833304047584
 21
135.49999953247601
 31
0.0
  0
LINE
  5
395B
  8
2
 10
99.23333041369915
 20
135.49999953247601
 30
0.0
 11
52.99999862909317
 21
135.49999953247601
 31
0.0
  0
LINE
  5
395C
  8
2
 10
197.99999445676801
 20
135.49999953247601
 30
0.0
 11
151.766662672162
 21
135.49999953247601
 31
0.0
  0
LINE
  5
395D
  8
2
 10
150.1166626811027
 20
132.49999950639901
 30
0.0
 11
100.8833304047584
 21
132.49999950639901
 31
0.0
  0
LINE
  5
3960
  8
2
 10
99.23333041369915
 20
132.49999950639901
 30
0.0
 11
52.99999862909317
 21
132.49999950639901
 31
0.0
  0
LINE
  5
3961
  8
2
 10
52.99999862909317
 20
126.4999996870755
 30
0.0
 11
52.99999862909317
 21
132.49999950639901
 31
0.0
  0
LINE
  5
3962
  8
2
 10
197.99999445676801
 20
132.49999950639901
 30
0.0
 11
151.766662672162
 21
132.49999950639901
 31
0.0
  0
LINE
  5
3963
  8
2
 10
197.99999445676801
 20
126.4999996870755
 30
0.0
 11
197.99999445676801
 21
132.49999950639901
 31
0.0
  0
LINE
  5
396B
  8
2
 10
200.99999308586121
 20
138.4999993257224
 30
0.0
 11
50.0
 21
138.4999993257224
 31
0.0
  0
LINE
  5
3CAE
  8
0
 10
50.139996409416199
 20
74.249999687075558
 30
0.0
 11
50.0
 21
74.249999687075558
 31
0.0
  0
LINE
  5
3CAF
  8
1
 10
203.29492199508229
 20
75.499999351799474
 30
0.0
 11
47.139996409416199
 21
75.499999351799474
 31
0.0
  0
LINE
  5
3CB0
  8
0
 10
51.80198896798283
 20
76.499999687075572
 30
0.0
 11
50.958929436515241
 21
76.499999687075572
 31
0.0
  0
LINE
  5
3CB1
  8
0
 10
54.94398896798311
 20
76.499999687075572
 30
0.0
 11
54.100929436515521
 21
76.499999687075572
 31
0.0
  0
LINE
  5
3CB2
  8
0
 10
58.085988967982942
 20
76.499999687075572
 30
0.0
 11
57.24292943651534
 21
76.499999687075572
 31
0.0
  0
LINE
  5
3CB3
  8
0
 10
61.22798896798276
 20
76.499999687075572
 30
0.0
 11
60.384929436515172
 21
76.499999687075572
 31
0.0
  0
LINE
  5
3CB4
  8
0
 10
64.369988967983033
 20
76.499999687075572
 30
0.0
 11
63.526929436515452
 21
76.499999687075572
 31
0.0
  0
LINE
  5
3CB5
  8
0
 10
67.511988967982845
 20
76.499999687075572
 30
0.0
 11
66.66892943651527
 21
76.499999687075572
 31
0.0
  0
LINE
  5
3CB6
  8
0
 10
51.80198896798283
 20
76.499999687075572
 30
0.0
 11
52.620921995081808
 21
74.249999687075572
 31
0.0
  0
LINE
  5
3CB7
  8
0
 10
50.139996409416199
 20
74.249999687075572
 30
0.0
 11
50.958929436515241
 21
76.499999687075572
 31
0.0
  0
LINE
  5
3CB8
  8
0
 10
67.511988967982845
 20
76.499999687075572
 30
0.0
 11
68.330921995081823
 21
74.249999687075572
 31
0.0
  0
LINE
  5
3CB9
  8
0
 10
65.849996409416235
 20
74.249999687075572
 30
0.0
 11
66.66892943651527
 21
76.499999687075572
 31
0.0
  0
LINE
  5
3CBA
  8
0
 10
64.369988967983033
 20
76.499999687075572
 30
0.0
 11
65.188921995082012
 21
74.249999687075572
 31
0.0
  0
LINE
  5
3CBB
  8
0
 10
62.707996409416417
 20
74.249999687075572
 30
0.0
 11
63.526929436515452
 21
76.499999687075572
 31
0.0
  0
LINE
  5
3CBC
  8
0
 10
61.22798896798276
 20
76.499999687075572
 30
0.0
 11
62.046921995081739
 21
74.249999687075572
 31
0.0
  0
LINE
  5
3CBD
  8
0
 10
59.565996409416137
 20
74.249999687075572
 30
0.0
 11
60.384929436515172
 21
76.499999687075572
 31
0.0
  0
LINE
  5
3CBE
  8
0
 10
58.085988967982942
 20
76.499999687075572
 30
0.0
 11
58.904921995081907
 21
74.249999687075572
 31
0.0
  0
LINE
  5
3CBF
  8
0
 10
56.423996409416311
 20
74.249999687075572
 30
0.0
 11
57.24292943651534
 21
76.499999687075572
 31
0.0
  0
LINE
  5
3CC0
  8
0
 10
54.94398896798311
 20
76.499999687075572
 30
0.0
 11
55.762921995081577
 21
74.249999687075572
 31
0.0
  0
LINE
  5
3CC1
  8
0
 10
53.281996409416479
 20
74.249999687075572
 30
0.0
 11
54.100929436515521
 21
76.499999687075572
 31
0.0
  0
LINE
  5
3CC2
  8
0
 10
65.849996409416235
 20
74.249999687075572
 30
0.0
 11
65.188921995082012
 21
74.249999687075544
 31
0.0
  0
LINE
  5
3CC3
  8
0
 10
62.707996409416417
 20
74.249999687075558
 30
0.0
 11
62.046921995081739
 21
74.249999687075558
 31
0.0
  0
LINE
  5
3CC4
  8
0
 10
59.565996409416137
 20
74.249999687075558
 30
0.0
 11
58.904921995081907
 21
74.249999687075558
 31
0.0
  0
LINE
  5
3CC5
  8
0
 10
56.423996409416311
 20
74.249999687075558
 30
0.0
 11
55.762921995081577
 21
74.249999687075558
 31
0.0
  0
LINE
  5
3CC6
  8
0
 10
53.281996409416479
 20
74.249999687075558
 30
0.0
 11
52.620921995081808
 21
74.249999687075572
 31
0.0
  0
LINE
  5
3CC7
  8
0
 10
70.653988967983125
 20
76.499999687075572
 30
0.0
 11
69.810929436515551
 21
76.499999687075572
 31
0.0
  0
LINE
  5
3CC8
  8
0
 10
73.795988967982964
 20
76.499999687075572
 30
0.0
 11
72.952929436515376
 21
76.499999687075572
 31
0.0
  0
LINE
  5
3CC9
  8
0
 10
76.93798896798279
 20
76.499999687075572
 30
0.0
 11
76.094929436515201
 21
76.499999687075572
 31
0.0
  0
LINE
  5
3CCA
  8
0
 10
80.07998896798307
 20
76.499999687075572
 30
0.0
 11
79.236929436515481
 21
76.499999687075572
 31
0.0
  0
LINE
  5
3CCB
  8
0
 10
83.221988967982895
 20
76.499999687075572
 30
0.0
 11
82.378929436515307
 21
76.499999687075572
 31
0.0
  0
LINE
  5
3CCC
  8
0
 10
83.221988967982895
 20
76.499999687075572
 30
0.0
 11
84.040921995081874
 21
74.249999687075572
 31
0.0
  0
LINE
  5
3CCD
  8
0
 10
81.559996409416286
 20
74.249999687075572
 30
0.0
 11
82.378929436515307
 21
76.499999687075572
 31
0.0
  0
LINE
  5
3CCE
  8
0
 10
80.07998896798307
 20
76.499999687075572
 30
0.0
 11
80.898921995082034
 21
74.249999687075572
 31
0.0
  0
LINE
  5
3CCF
  8
0
 10
78.417996409416446
 20
74.249999687075572
 30
0.0
 11
79.236929436515481
 21
76.499999687075572
 31
0.0
  0
LINE
  5
3CD0
  8
0
 10
76.93798896798279
 20
76.499999687075572
 30
0.0
 11
77.756921995081768
 21
74.249999687075572
 31
0.0
  0
LINE
  5
3CD1
  8
0
 10
75.275996409416166
 20
74.249999687075572
 30
0.0
 11
76.094929436515201
 21
76.499999687075572
 31
0.0
  0
LINE
  5
3CD2
  8
0
 10
73.795988967982964
 20
76.499999687075572
 30
0.0
 11
74.614921995081943
 21
74.249999687075572
 31
0.0
  0
LINE
  5
3CD3
  8
0
 10
72.133996409416341
 20
74.249999687075572
 30
0.0
 11
72.952929436515376
 21
76.499999687075572
 31
0.0
  0
LINE
  5
3CD4
  8
0
 10
70.653988967983125
 20
76.499999687075572
 30
0.0
 11
71.472921995081606
 21
74.249999687075572
 31
0.0
  0
LINE
  5
3CD5
  8
0
 10
68.991996409416515
 20
74.249999687075572
 30
0.0
 11
69.810929436515551
 21
76.499999687075572
 31
0.0
  0
LINE
  5
3CD6
  8
0
 10
81.559996409416286
 20
74.249999687075572
 30
0.0
 11
80.898921995082034
 21
74.249999687075544
 31
0.0
  0
LINE
  5
3CD7
  8
0
 10
78.417996409416446
 20
74.249999687075558
 30
0.0
 11
77.756921995081768
 21
74.249999687075558
 31
0.0
  0
LINE
  5
3CD8
  8
0
 10
75.275996409416166
 20
74.249999687075558
 30
0.0
 11
74.614921995081943
 21
74.249999687075558
 31
0.0
  0
LINE
  5
3CD9
  8
0
 10
72.133996409416341
 20
74.249999687075558
 30
0.0
 11
71.472921995081606
 21
74.249999687075558
 31
0.0
  0
LINE
  5
3CDA
  8
0
 10
68.991996409416515
 20
74.249999687075558
 30
0.0
 11
68.330921995081823
 21
74.249999687075572
 31
0.0
  0
LINE
  5
3CDB
  8
0
 10
86.363988967983175
 20
76.499999687075572
 30
0.0
 11
85.520929436515587
 21
76.499999687075572
 31
0.0
  0
LINE
  5
3CDC
  8
0
 10
89.505988967983001
 20
76.499999687075572
 30
0.0
 11
88.662929436515427
 21
76.499999687075572
 31
0.0
  0
LINE
  5
3CDD
  8
0
 10
92.647988967982826
 20
76.499999687075572
 30
0.0
 11
91.804929436515238
 21
76.499999687075572
 31
0.0
  0
LINE
  5
3CDE
  8
0
 10
95.789988967983106
 20
76.499999687075572
 30
0.0
 11
94.946929436515518
 21
76.499999687075572
 31
0.0
  0
LINE
  5
3CDF
  8
0
 10
98.931988967982946
 20
76.499999687075572
 30
0.0
 11
98.088929436515343
 21
76.499999687075572
 31
0.0
  0
LINE
  5
3CE0
  8
0
 10
98.931988967982946
 20
76.499999687075572
 30
0.0
 11
99.75092199508191
 21
74.249999687075572
 31
0.0
  0
LINE
  5
3CE1
  8
0
 10
97.269996409416308
 20
74.249999687075572
 30
0.0
 11
98.088929436515343
 21
76.499999687075572
 31
0.0
  0
LINE
  5
3CE2
  8
0
 10
95.789988967983106
 20
76.499999687075572
 30
0.0
 11
96.608921995082085
 21
74.249999687075572
 31
0.0
  0
LINE
  5
3CE3
  8
0
 10
94.127996409416468
 20
74.249999687075572
 30
0.0
 11
94.946929436515518
 21
76.499999687075572
 31
0.0
  0
LINE
  5
3CE4
  8
0
 10
92.647988967982826
 20
76.499999687075572
 30
0.0
 11
93.466921995081805
 21
74.249999687075572
 31
0.0
  0
LINE
  5
3CE5
  8
0
 10
90.985996409416188
 20
74.249999687075572
 30
0.0
 11
91.804929436515238
 21
76.499999687075572
 31
0.0
  0
LINE
  5
3CE6
  8
0
 10
89.505988967983001
 20
76.499999687075572
 30
0.0
 11
90.324921995081965
 21
74.249999687075572
 31
0.0
  0
LINE
  5
3CE7
  8
0
 10
87.843996409416377
 20
74.249999687075572
 30
0.0
 11
88.662929436515427
 21
76.499999687075572
 31
0.0
  0
LINE
  5
3CE8
  8
0
 10
86.363988967983175
 20
76.499999687075572
 30
0.0
 11
87.182921995081642
 21
74.249999687075572
 31
0.0
  0
LINE
  5
3CE9
  8
0
 10
84.701996409416566
 20
74.249999687075572
 30
0.0
 11
85.520929436515587
 21
76.499999687075572
 31
0.0
  0
LINE
  5
3CEA
  8
0
 10
97.269996409416308
 20
74.249999687075572
 30
0.0
 11
96.608921995082085
 21
74.249999687075544
 31
0.0
  0
LINE
  5
3CEB
  8
0
 10
94.127996409416468
 20
74.249999687075558
 30
0.0
 11
93.466921995081805
 21
74.249999687075558
 31
0.0
  0
LINE
  5
3CEC
  8
0
 10
90.985996409416188
 20
74.249999687075558
 30
0.0
 11
90.324921995081965
 21
74.249999687075558
 31
0.0
  0
LINE
  5
3CED
  8
0
 10
87.843996409416377
 20
74.249999687075558
 30
0.0
 11
87.182921995081642
 21
74.249999687075558
 31
0.0
  0
LINE
  5
3CEE
  8
0
 10
84.701996409416566
 20
74.249999687075558
 30
0.0
 11
84.040921995081874
 21
74.249999687075572
 31
0.0
  0
LINE
  5
3CEF
  8
0
 10
102.0739889679832
 20
76.499999687075572
 30
0.0
 11
101.23092943651559
 21
76.499999687075572
 31
0.0
  0
LINE
  5
3CF0
  8
0
 10
105.21598896798299
 20
76.499999687075572
 30
0.0
 11
104.37292943651541
 21
76.499999687075572
 31
0.0
  0
LINE
  5
3CF1
  8
0
 10
108.35798896798281
 20
76.499999687075572
 30
0.0
 11
107.5149294365153
 21
76.499999687075572
 31
0.0
  0
LINE
  5
3CF2
  8
0
 10
111.4999889679831
 20
76.499999687075572
 30
0.0
 11
110.6569294365155
 21
76.499999687075572
 31
0.0
  0
LINE
  5
3CF3
  8
0
 10
114.6419889679829
 20
76.499999687075572
 30
0.0
 11
113.79892943651529
 21
76.499999687075572
 31
0.0
  0
LINE
  5
3CF4
  8
0
 10
114.6419889679829
 20
76.499999687075572
 30
0.0
 11
115.4609219950819
 21
74.249999687075572
 31
0.0
  0
LINE
  5
3CF5
  8
0
 10
112.9799964094163
 20
74.249999687075572
 30
0.0
 11
113.79892943651529
 21
76.499999687075572
 31
0.0
  0
LINE
  5
3CF6
  8
0
 10
111.4999889679831
 20
76.499999687075572
 30
0.0
 11
112.31892199508211
 21
74.249999687075572
 31
0.0
  0
LINE
  5
3CF7
  8
0
 10
109.8379964094165
 20
74.249999687075572
 30
0.0
 11
110.6569294365155
 21
76.499999687075572
 31
0.0
  0
LINE
  5
3CF8
  8
0
 10
108.35798896798281
 20
76.499999687075572
 30
0.0
 11
109.1769219950818
 21
74.249999687075572
 31
0.0
  0
LINE
  5
3CF9
  8
0
 10
106.6959964094162
 20
74.249999687075572
 30
0.0
 11
107.5149294365153
 21
76.499999687075572
 31
0.0
  0
LINE
  5
3CFA
  8
0
 10
105.21598896798299
 20
76.499999687075572
 30
0.0
 11
106.034921995082
 21
74.249999687075572
 31
0.0
  0
LINE
  5
3CFB
  8
0
 10
103.5539964094164
 20
74.249999687075572
 30
0.0
 11
104.37292943651541
 21
76.499999687075572
 31
0.0
  0
LINE
  5
3CFC
  8
0
 10
102.0739889679832
 20
76.499999687075572
 30
0.0
 11
102.89292199508169
 21
74.249999687075572
 31
0.0
  0
LINE
  5
3CFD
  8
0
 10
100.4119964094166
 20
74.249999687075572
 30
0.0
 11
101.23092943651559
 21
76.499999687075572
 31
0.0
  0
LINE
  5
3CFE
  8
0
 10
112.9799964094163
 20
74.249999687075572
 30
0.0
 11
112.31892199508211
 21
74.249999687075544
 31
0.0
  0
LINE
  5
3CFF
  8
0
 10
109.8379964094165
 20
74.249999687075558
 30
0.0
 11
109.1769219950818
 21
74.249999687075558
 31
0.0
  0
LINE
  5
3D00
  8
0
 10
106.6959964094162
 20
74.249999687075558
 30
0.0
 11
106.034921995082
 21
74.249999687075558
 31
0.0
  0
LINE
  5
3D01
  8
0
 10
103.5539964094164
 20
74.249999687075558
 30
0.0
 11
102.89292199508169
 21
74.249999687075558
 31
0.0
  0
LINE
  5
3D02
  8
0
 10
100.4119964094166
 20
74.249999687075558
 30
0.0
 11
99.75092199508191
 21
74.249999687075572
 31
0.0
  0
LINE
  5
3D03
  8
0
 10
117.78398896798321
 20
76.499999687075572
 30
0.0
 11
116.9409294365156
 21
76.499999687075572
 31
0.0
  0
LINE
  5
3D04
  8
0
 10
120.925988967983
 20
76.499999687075572
 30
0.0
 11
120.0829294365154
 21
76.499999687075572
 31
0.0
  0
LINE
  5
3D05
  8
0
 10
124.0679889679828
 20
76.499999687075572
 30
0.0
 11
123.2249294365152
 21
76.499999687075572
 31
0.0
  0
LINE
  5
3D06
  8
0
 10
127.20998896798309
 20
76.499999687075572
 30
0.0
 11
126.36692943651551
 21
76.499999687075572
 31
0.0
  0
LINE
  5
3D07
  8
0
 10
130.35198896798289
 20
76.499999687075572
 30
0.0
 11
129.5089294365153
 21
76.499999687075572
 31
0.0
  0
LINE
  5
3D08
  8
0
 10
130.35198896798289
 20
76.499999687075572
 30
0.0
 11
131.17092199508201
 21
74.249999687075572
 31
0.0
  0
LINE
  5
3D09
  8
0
 10
128.68999640941641
 20
74.249999687075572
 30
0.0
 11
129.5089294365153
 21
76.499999687075572
 31
0.0
  0
LINE
  5
3D0A
  8
0
 10
127.20998896798309
 20
76.499999687075572
 30
0.0
 11
128.02892199508219
 21
74.249999687075572
 31
0.0
  0
LINE
  5
3D0B
  8
0
 10
125.5479964094165
 20
74.249999687075572
 30
0.0
 11
126.36692943651551
 21
76.499999687075572
 31
0.0
  0
LINE
  5
3D0C
  8
0
 10
124.0679889679828
 20
76.499999687075572
 30
0.0
 11
124.88692199508191
 21
74.249999687075572
 31
0.0
  0
LINE
  5
3D0D
  8
0
 10
122.4059964094162
 20
74.249999687075572
 30
0.0
 11
123.2249294365152
 21
76.499999687075572
 31
0.0
  0
LINE
  5
3D0E
  8
0
 10
120.925988967983
 20
76.499999687075572
 30
0.0
 11
121.74492199508209
 21
74.249999687075572
 31
0.0
  0
LINE
  5
3D0F
  8
0
 10
119.26399640941639
 20
74.249999687075572
 30
0.0
 11
120.0829294365154
 21
76.499999687075572
 31
0.0
  0
LINE
  5
3D10
  8
0
 10
117.78398896798321
 20
76.499999687075572
 30
0.0
 11
118.6029219950817
 21
74.249999687075572
 31
0.0
  0
LINE
  5
3D11
  8
0
 10
116.1219964094166
 20
74.249999687075572
 30
0.0
 11
116.9409294365156
 21
76.499999687075572
 31
0.0
  0
LINE
  5
3D12
  8
0
 10
128.68999640941641
 20
74.249999687075572
 30
0.0
 11
128.02892199508219
 21
74.249999687075544
 31
0.0
  0
LINE
  5
3D13
  8
0
 10
125.5479964094165
 20
74.249999687075558
 30
0.0
 11
124.88692199508191
 21
74.249999687075558
 31
0.0
  0
LINE
  5
3D14
  8
0
 10
122.4059964094162
 20
74.249999687075558
 30
0.0
 11
121.74492199508209
 21
74.249999687075558
 31
0.0
  0
LINE
  5
3D15
  8
0
 10
119.26399640941639
 20
74.249999687075558
 30
0.0
 11
118.6029219950817
 21
74.249999687075558
 31
0.0
  0
LINE
  5
3D16
  8
0
 10
116.1219964094166
 20
74.249999687075558
 30
0.0
 11
115.4609219950819
 21
74.249999687075572
 31
0.0
  0
LINE
  5
3D17
  8
0
 10
133.4939889679832
 20
76.499999687075572
 30
0.0
 11
132.65092943651561
 21
76.499999687075572
 31
0.0
  0
LINE
  5
3D18
  8
0
 10
136.635988967983
 20
76.499999687075572
 30
0.0
 11
135.79292943651541
 21
76.499999687075572
 31
0.0
  0
LINE
  5
3D19
  8
0
 10
139.77798896798291
 20
76.499999687075572
 30
0.0
 11
138.93492943651529
 21
76.499999687075572
 31
0.0
  0
LINE
  5
3D1A
  8
0
 10
142.9199889679831
 20
76.499999687075572
 30
0.0
 11
142.0769294365156
 21
76.499999687075572
 31
0.0
  0
LINE
  5
3D1B
  8
0
 10
146.06198896798301
 20
76.499999687075572
 30
0.0
 11
145.2189294365154
 21
76.499999687075572
 31
0.0
  0
LINE
  5
3D1C
  8
0
 10
146.06198896798301
 20
76.499999687075572
 30
0.0
 11
146.88092199508199
 21
74.249999687075572
 31
0.0
  0
LINE
  5
3D1D
  8
0
 10
144.39999640941639
 20
74.249999687075572
 30
0.0
 11
145.2189294365154
 21
76.499999687075572
 31
0.0
  0
LINE
  5
3D1E
  8
0
 10
142.9199889679831
 20
76.499999687075572
 30
0.0
 11
143.73892199508219
 21
74.249999687075572
 31
0.0
  0
LINE
  5
3D1F
  8
0
 10
141.25799640941659
 20
74.249999687075572
 30
0.0
 11
142.0769294365156
 21
76.499999687075572
 31
0.0
  0
LINE
  5
3D20
  8
0
 10
139.77798896798291
 20
76.499999687075572
 30
0.0
 11
140.596921995082
 21
74.249999687075572
 31
0.0
  0
LINE
  5
3D21
  8
0
 10
138.11599640941631
 20
74.249999687075572
 30
0.0
 11
138.93492943651529
 21
76.499999687075572
 31
0.0
  0
LINE
  5
3D22
  8
0
 10
136.635988967983
 20
76.499999687075572
 30
0.0
 11
137.45492199508209
 21
74.249999687075572
 31
0.0
  0
LINE
  5
3D23
  8
0
 10
134.97399640941649
 20
74.249999687075572
 30
0.0
 11
135.79292943651541
 21
76.499999687075572
 31
0.0
  0
LINE
  5
3D24
  8
0
 10
133.4939889679832
 20
76.499999687075572
 30
0.0
 11
134.31292199508169
 21
74.249999687075572
 31
0.0
  0
LINE
  5
3D25
  8
0
 10
131.8319964094166
 20
74.249999687075572
 30
0.0
 11
132.65092943651561
 21
76.499999687075572
 31
0.0
  0
LINE
  5
3D26
  8
0
 10
144.39999640941639
 20
74.249999687075572
 30
0.0
 11
143.73892199508219
 21
74.249999687075544
 31
0.0
  0
LINE
  5
3D27
  8
0
 10
141.25799640941659
 20
74.249999687075558
 30
0.0
 11
140.596921995082
 21
74.249999687075558
 31
0.0
  0
LINE
  5
3D28
  8
0
 10
138.11599640941631
 20
74.249999687075558
 30
0.0
 11
137.45492199508209
 21
74.249999687075558
 31
0.0
  0
LINE
  5
3D29
  8
0
 10
134.97399640941649
 20
74.249999687075558
 30
0.0
 11
134.31292199508169
 21
74.249999687075558
 31
0.0
  0
LINE
  5
3D2A
  8
0
 10
131.8319964094166
 20
74.249999687075558
 30
0.0
 11
131.17092199508201
 21
74.249999687075572
 31
0.0
  0
LINE
  5
3D2B
  8
0
 10
149.20398896798321
 20
76.499999687075572
 30
0.0
 11
148.3609294365157
 21
76.499999687075572
 31
0.0
  0
LINE
  5
3D2C
  8
0
 10
152.34598896798309
 20
76.499999687075572
 30
0.0
 11
151.5029294365155
 21
76.499999687075572
 31
0.0
  0
LINE
  5
3D2D
  8
0
 10
155.48798896798289
 20
76.499999687075572
 30
0.0
 11
154.6449294365153
 21
76.499999687075572
 31
0.0
  0
LINE
  5
3D2E
  8
0
 10
158.62998896798319
 20
76.499999687075572
 30
0.0
 11
157.78692943651561
 21
76.499999687075572
 31
0.0
  0
LINE
  5
3D2F
  8
0
 10
161.77198896798299
 20
76.499999687075572
 30
0.0
 11
160.9289294365154
 21
76.499999687075572
 31
0.0
  0
LINE
  5
3D30
  8
0
 10
161.77198896798299
 20
76.499999687075572
 30
0.0
 11
162.59092199508211
 21
74.249999687075572
 31
0.0
  0
LINE
  5
3D31
  8
0
 10
160.1099964094164
 20
74.249999687075572
 30
0.0
 11
160.9289294365154
 21
76.499999687075572
 31
0.0
  0
LINE
  5
3D32
  8
0
 10
158.62998896798319
 20
76.499999687075572
 30
0.0
 11
159.44892199508229
 21
74.249999687075572
 31
0.0
  0
LINE
  5
3D33
  8
0
 10
156.9679964094166
 20
74.249999687075572
 30
0.0
 11
157.78692943651561
 21
76.499999687075572
 31
0.0
  0
LINE
  5
3D34
  8
0
 10
155.48798896798289
 20
76.499999687075572
 30
0.0
 11
156.30692199508201
 21
74.249999687075572
 31
0.0
  0
LINE
  5
3D35
  8
0
 10
153.82599640941629
 20
74.249999687075572
 30
0.0
 11
154.6449294365153
 21
76.499999687075572
 31
0.0
  0
LINE
  5
3D36
  8
0
 10
152.34598896798309
 20
76.499999687075572
 30
0.0
 11
153.1649219950821
 21
74.249999687075572
 31
0.0
  0
LINE
  5
3D37
  8
0
 10
150.68399640941649
 20
74.249999687075572
 30
0.0
 11
151.5029294365155
 21
76.499999687075572
 31
0.0
  0
LINE
  5
3D38
  8
0
 10
149.20398896798321
 20
76.499999687075572
 30
0.0
 11
150.02292199508179
 21
74.249999687075572
 31
0.0
  0
LINE
  5
3D39
  8
0
 10
147.5419964094167
 20
74.249999687075572
 30
0.0
 11
148.3609294365157
 21
76.499999687075572
 31
0.0
  0
LINE
  5
3D3A
  8
0
 10
160.1099964094164
 20
74.249999687075572
 30
0.0
 11
159.44892199508229
 21
74.249999687075544
 31
0.0
  0
LINE
  5
3D3B
  8
0
 10
156.9679964094166
 20
74.249999687075558
 30
0.0
 11
156.30692199508201
 21
74.249999687075558
 31
0.0
  0
LINE
  5
3D3C
  8
0
 10
153.82599640941629
 20
74.249999687075558
 30
0.0
 11
153.1649219950821
 21
74.249999687075558
 31
0.0
  0
LINE
  5
3D3D
  8
0
 10
150.68399640941649
 20
74.249999687075558
 30
0.0
 11
150.02292199508179
 21
74.249999687075558
 31
0.0
  0
LINE
  5
3D3E
  8
0
 10
147.5419964094167
 20
74.249999687075558
 30
0.0
 11
146.88092199508199
 21
74.249999687075572
 31
0.0
  0
LINE
  5
3D3F
  8
0
 10
164.9139889679833
 20
76.499999687075572
 30
0.0
 11
164.07092943651571
 21
76.499999687075572
 31
0.0
  0
LINE
  5
3D40
  8
0
 10
168.0559889679831
 20
76.499999687075572
 30
0.0
 11
167.21292943651551
 21
76.499999687075572
 31
0.0
  0
LINE
  5
3D41
  8
0
 10
171.19798896798289
 20
76.499999687075572
 30
0.0
 11
170.35492943651531
 21
76.499999687075572
 31
0.0
  0
LINE
  5
3D42
  8
0
 10
174.3399889679832
 20
76.499999687075572
 30
0.0
 11
173.49692943651559
 21
76.499999687075572
 31
0.0
  0
LINE
  5
3D43
  8
0
 10
177.481988967983
 20
76.499999687075572
 30
0.0
 11
176.63892943651541
 21
76.499999687075572
 31
0.0
  0
LINE
  5
3D44
  8
0
 10
177.481988967983
 20
76.499999687075572
 30
0.0
 11
178.30092199508209
 21
74.249999687075572
 31
0.0
  0
LINE
  5
3D45
  8
0
 10
175.81999640941649
 20
74.249999687075572
 30
0.0
 11
176.63892943651541
 21
76.499999687075572
 31
0.0
  0
LINE
  5
3D46
  8
0
 10
174.3399889679832
 20
76.499999687075572
 30
0.0
 11
175.1589219950823
 21
74.249999687075572
 31
0.0
  0
LINE
  5
3D47
  8
0
 10
172.67799640941661
 20
74.249999687075572
 30
0.0
 11
173.49692943651559
 21
76.499999687075572
 31
0.0
  0
LINE
  5
3D48
  8
0
 10
171.19798896798289
 20
76.499999687075572
 30
0.0
 11
172.01692199508199
 21
74.249999687075572
 31
0.0
  0
LINE
  5
3D49
  8
0
 10
169.53599640941641
 20
74.249999687075572
 30
0.0
 11
170.35492943651531
 21
76.499999687075572
 31
0.0
  0
LINE
  5
3D4A
  8
0
 10
168.0559889679831
 20
76.499999687075572
 30
0.0
 11
168.87492199508219
 21
74.249999687075572
 31
0.0
  0
LINE
  5
3D4B
  8
0
 10
166.3939964094165
 20
74.249999687075572
 30
0.0
 11
167.21292943651551
 21
76.499999687075572
 31
0.0
  0
LINE
  5
3D4C
  8
0
 10
164.9139889679833
 20
76.499999687075572
 30
0.0
 11
165.7329219950818
 21
74.249999687075572
 31
0.0
  0
LINE
  5
3D4D
  8
0
 10
163.25199640941671
 20
74.249999687075572
 30
0.0
 11
164.07092943651571
 21
76.499999687075572
 31
0.0
  0
LINE
  5
3D4E
  8
0
 10
175.81999640941649
 20
74.249999687075572
 30
0.0
 11
175.1589219950823
 21
74.249999687075544
 31
0.0
  0
LINE
  5
3D4F
  8
0
 10
172.67799640941661
 20
74.249999687075558
 30
0.0
 11
172.01692199508199
 21
74.249999687075558
 31
0.0
  0
LINE
  5
3D50
  8
0
 10
169.53599640941641
 20
74.249999687075558
 30
0.0
 11
168.87492199508219
 21
74.249999687075558
 31
0.0
  0
LINE
  5
3D51
  8
0
 10
166.3939964094165
 20
74.249999687075558
 30
0.0
 11
165.7329219950818
 21
74.249999687075558
 31
0.0
  0
LINE
  5
3D52
  8
0
 10
163.25199640941671
 20
74.249999687075558
 30
0.0
 11
162.59092199508211
 21
74.249999687075572
 31
0.0
  0
LINE
  5
3D53
  8
0
 10
180.62398896798331
 20
76.499999687075572
 30
0.0
 11
179.78092943651569
 21
76.499999687075572
 31
0.0
  0
LINE
  5
3D54
  8
0
 10
183.76598896798319
 20
76.499999687075572
 30
0.0
 11
182.9229294365156
 21
76.499999687075572
 31
0.0
  0
LINE
  5
3D55
  8
0
 10
186.90798896798299
 20
76.499999687075572
 30
0.0
 11
186.0649294365154
 21
76.499999687075572
 31
0.0
  0
LINE
  5
3D56
  8
0
 10
190.04998896798321
 20
76.499999687075572
 30
0.0
 11
189.20692943651571
 21
76.499999687075572
 31
0.0
  0
LINE
  5
3D57
  8
0
 10
193.19198896798309
 20
76.499999687075572
 30
0.0
 11
192.3489294365155
 21
76.499999687075572
 31
0.0
  0
LINE
  5
3D58
  8
0
 10
193.19198896798309
 20
76.499999687075572
 30
0.0
 11
194.0109219950821
 21
74.249999687075572
 31
0.0
  0
LINE
  5
3D59
  8
0
 10
191.5299964094165
 20
74.249999687075572
 30
0.0
 11
192.3489294365155
 21
76.499999687075572
 31
0.0
  0
LINE
  5
3D5A
  8
0
 10
190.04998896798321
 20
76.499999687075572
 30
0.0
 11
190.8689219950823
 21
74.249999687075572
 31
0.0
  0
LINE
  5
3D5B
  8
0
 10
188.3879964094167
 20
74.249999687075572
 30
0.0
 11
189.20692943651571
 21
76.499999687075572
 31
0.0
  0
LINE
  5
3D5C
  8
0
 10
186.90798896798299
 20
76.499999687075572
 30
0.0
 11
187.72692199508211
 21
74.249999687075572
 31
0.0
  0
LINE
  5
3D5D
  8
0
 10
185.24599640941639
 20
74.249999687075572
 30
0.0
 11
186.0649294365154
 21
76.499999687075572
 31
0.0
  0
LINE
  5
3D5E
  8
0
 10
183.76598896798319
 20
76.499999687075572
 30
0.0
 11
184.5849219950822
 21
74.249999687075572
 31
0.0
  0
LINE
  5
3D5F
  8
0
 10
182.1039964094166
 20
74.249999687075572
 30
0.0
 11
182.9229294365156
 21
76.499999687075572
 31
0.0
  0
LINE
  5
3D60
  8
0
 10
180.62398896798331
 20
76.499999687075572
 30
0.0
 11
181.4429219950818
 21
74.249999687075572
 31
0.0
  0
LINE
  5
3D61
  8
0
 10
178.96199640941671
 20
74.249999687075572
 30
0.0
 11
179.78092943651569
 21
76.499999687075572
 31
0.0
  0
LINE
  5
3D62
  8
0
 10
191.5299964094165
 20
74.249999687075572
 30
0.0
 11
190.8689219950823
 21
74.249999687075544
 31
0.0
  0
LINE
  5
3D63
  8
0
 10
188.3879964094167
 20
74.249999687075558
 30
0.0
 11
187.72692199508211
 21
74.249999687075558
 31
0.0
  0
LINE
  5
3D64
  8
0
 10
185.24599640941639
 20
74.249999687075558
 30
0.0
 11
184.5849219950822
 21
74.249999687075558
 31
0.0
  0
LINE
  5
3D65
  8
0
 10
182.1039964094166
 20
74.249999687075558
 30
0.0
 11
181.4429219950818
 21
74.249999687075558
 31
0.0
  0
LINE
  5
3D66
  8
0
 10
178.96199640941671
 20
74.249999687075558
 30
0.0
 11
178.30092199508209
 21
74.249999687075572
 31
0.0
  0
LINE
  5
3D67
  8
0
 10
196.3339889679834
 20
76.499999687075572
 30
0.0
 11
195.4909294365157
 21
76.499999687075572
 31
0.0
  0
LINE
  5
3D68
  8
0
 10
199.4759889679832
 20
76.499999687075572
 30
0.0
 11
198.63292943651561
 21
76.499999687075572
 31
0.0
  0
LINE
  5
3D6F
  8
0
 10
199.4759889679832
 20
76.499999687075572
 30
0.0
 11
200.29492199508229
 21
74.249999687075572
 31
0.0
  0
LINE
  5
3D70
  8
0
 10
197.8139964094166
 20
74.249999687075572
 30
0.0
 11
198.63292943651561
 21
76.499999687075572
 31
0.0
  0
LINE
  5
3D71
  8
0
 10
196.3339889679834
 20
76.499999687075572
 30
0.0
 11
197.1529219950819
 21
74.249999687075572
 31
0.0
  0
LINE
  5
3D72
  8
0
 10
194.67199640941681
 20
74.249999687075572
 30
0.0
 11
195.4909294365157
 21
76.499999687075572
 31
0.0
  0
LINE
  5
3D75
  8
0
 10
200.99999308586121
 20
74.249999687075558
 30
0.0
 11
200.29492199508229
 21
74.249999687075558
 31
0.0
  0
LINE
  5
3D76
  8
0
 10
197.8139964094166
 20
74.249999687075558
 30
0.0
 11
197.1529219950819
 21
74.249999687075558
 31
0.0
  0
LINE
  5
3D77
  8
0
 10
194.67199640941681
 20
74.249999687075558
 30
0.0
 11
194.0109219950821
 21
74.249999687075572
 31
0.0
  0
LINE
  5
3D96
  8
1
 10
268.99999275058508
 20
75.499999351799488
 30
0.0
 11
247.99999308586121
 21
75.499999351799474
 31
0.0
  0
LINE
  5
3DB1
  8
3
 10
50.958929436515241
 20
126.4999996870756
 30
0.0
 11
50.958929436515241
 21
141.49999935179949
 31
0.0
  0
LINE
  5
3DB2
  8
3
 10
51.80198896798283
 20
126.4999996870756
 30
0.0
 11
51.80198896798283
 21
141.49999935179949
 31
0.0
  0
LINE
  5
3DB3
  8
3
 10
54.100929436515521
 20
126.4999996870756
 30
0.0
 11
54.100929436515521
 21
141.49999935179949
 31
0.0
  0
LINE
  5
3DB4
  8
3
 10
54.94398896798311
 20
126.4999996870756
 30
0.0
 11
54.94398896798311
 21
141.49999935179949
 31
0.0
  0
LINE
  5
3DB5
  8
3
 10
57.24292943651534
 20
126.4999996870756
 30
0.0
 11
57.24292943651534
 21
141.49999935179949
 31
0.0
  0
LINE
  5
3DB6
  8
3
 10
58.085988967982942
 20
126.4999996870756
 30
0.0
 11
58.085988967982942
 21
141.49999935179949
 31
0.0
  0
LINE
  5
3DB7
  8
3
 10
60.384929436515172
 20
126.4999996870756
 30
0.0
 11
60.384929436515172
 21
141.49999935179949
 31
0.0
  0
LINE
  5
3DB8
  8
3
 10
61.22798896798276
 20
126.4999996870756
 30
0.0
 11
61.22798896798276
 21
141.49999935179949
 31
0.0
  0
LINE
  5
3DB9
  8
3
 10
63.526929436515452
 20
126.4999996870756
 30
0.0
 11
63.526929436515452
 21
141.49999935179949
 31
0.0
  0
LINE
  5
3DBA
  8
3
 10
64.369988967983033
 20
126.4999996870756
 30
0.0
 11
64.369988967983033
 21
141.49999935179949
 31
0.0
  0
LINE
  5
3DBB
  8
3
 10
66.66892943651527
 20
126.4999996870756
 30
0.0
 11
66.66892943651527
 21
141.49999935179949
 31
0.0
  0
LINE
  5
3DBC
  8
3
 10
67.511988967982845
 20
126.4999996870756
 30
0.0
 11
67.511988967982845
 21
141.49999935179949
 31
0.0
  0
LINE
  5
3DBD
  8
3
 10
69.810929436515551
 20
126.4999996870756
 30
0.0
 11
69.810929436515551
 21
141.49999935179949
 31
0.0
  0
LINE
  5
3DBE
  8
3
 10
70.653988967983125
 20
126.4999996870756
 30
0.0
 11
70.653988967983125
 21
141.49999935179949
 31
0.0
  0
LINE
  5
3DBF
  8
3
 10
72.952929436515831
 20
126.4999996870756
 30
0.0
 11
72.952929436515831
 21
141.49999935179949
 31
0.0
  0
LINE
  5
3DC0
  8
3
 10
73.795988967983405
 20
126.4999996870756
 30
0.0
 11
73.795988967983405
 21
141.49999935179949
 31
0.0
  0
LINE
  5
3DC1
  8
3
 10
76.094929436515656
 20
126.4999996870756
 30
0.0
 11
76.094929436515656
 21
141.49999935179949
 31
0.0
  0
LINE
  5
3DC2
  8
3
 10
76.937988967983244
 20
126.4999996870756
 30
0.0
 11
76.937988967983244
 21
141.49999935179949
 31
0.0
  0
LINE
  5
3DC3
  8
3
 10
79.236929436515481
 20
126.4999996870756
 30
0.0
 11
79.236929436515481
 21
141.49999935179949
 31
0.0
  0
LINE
  5
3DC4
  8
3
 10
80.07998896798307
 20
126.4999996870756
 30
0.0
 11
80.07998896798307
 21
141.49999935179949
 31
0.0
  0
LINE
  5
3DC5
  8
3
 10
82.378929436515762
 20
126.4999996870756
 30
0.0
 11
82.378929436515762
 21
141.49999935179949
 31
0.0
  0
LINE
  5
3DC6
  8
3
 10
83.22198896798335
 20
126.4999996870756
 30
0.0
 11
83.22198896798335
 21
141.49999935179949
 31
0.0
  0
LINE
  5
3DC7
  8
3
 10
85.520929436515587
 20
126.4999996870756
 30
0.0
 11
85.520929436515587
 21
141.49999935179949
 31
0.0
  0
LINE
  5
3DC8
  8
3
 10
86.363988967983175
 20
126.4999996870756
 30
0.0
 11
86.363988967983175
 21
141.49999935179949
 31
0.0
  0
LINE
  5
3DC9
  8
3
 10
88.662929436515427
 20
126.4999996870756
 30
0.0
 11
88.662929436515427
 21
141.49999935179949
 31
0.0
  0
LINE
  5
3DCA
  8
3
 10
89.505988967983001
 20
126.4999996870756
 30
0.0
 11
89.505988967983001
 21
141.49999935179949
 31
0.0
  0
LINE
  5
3DCB
  8
3
 10
91.804929436515707
 20
126.4999996870756
 30
0.0
 11
91.804929436515707
 21
141.49999935179949
 31
0.0
  0
LINE
  5
3DCC
  8
3
 10
92.647988967983281
 20
126.4999996870756
 30
0.0
 11
92.647988967983281
 21
141.49999935179949
 31
0.0
  0
LINE
  5
3DCD
  8
3
 10
94.946929436515518
 20
126.4999996870756
 30
0.0
 11
94.946929436515518
 21
141.49999935179949
 31
0.0
  0
LINE
  5
3DCE
  8
3
 10
95.789988967983106
 20
126.4999996870756
 30
0.0
 11
95.789988967983106
 21
141.49999935179949
 31
0.0
  0
LINE
  5
3DCF
  8
3
 10
98.088929436515343
 20
126.4999996870756
 30
0.0
 11
98.088929436515343
 21
141.49999935179949
 31
0.0
  0
LINE
  5
3DD0
  8
3
 10
98.931988967982946
 20
126.4999996870756
 30
0.0
 11
98.931988967982946
 21
141.49999935179949
 31
0.0
  0
LINE
  5
3DD1
  8
3
 10
101.23092943651559
 20
126.4999996870756
 30
0.0
 11
101.23092943651559
 21
141.49999935179949
 31
0.0
  0
LINE
  5
3DD2
  8
3
 10
102.0739889679832
 20
126.4999996870756
 30
0.0
 11
102.0739889679832
 21
141.49999935179949
 31
0.0
  0
LINE
  5
3DD3
  8
3
 10
104.37292943651541
 20
126.4999996870756
 30
0.0
 11
104.37292943651541
 21
141.49999935179949
 31
0.0
  0
LINE
  5
3DD4
  8
3
 10
105.21598896798299
 20
126.4999996870756
 30
0.0
 11
105.21598896798299
 21
141.49999935179949
 31
0.0
  0
LINE
  5
3DD5
  8
3
 10
107.5149294365157
 20
126.4999996870756
 30
0.0
 11
107.5149294365157
 21
141.49999935179949
 31
0.0
  0
LINE
  5
3DD6
  8
3
 10
108.3579889679833
 20
126.4999996870756
 30
0.0
 11
108.3579889679833
 21
141.49999935179949
 31
0.0
  0
LINE
  5
3DD7
  8
3
 10
110.65692943651599
 20
126.4999996870756
 30
0.0
 11
110.65692943651599
 21
141.49999935179949
 31
0.0
  0
LINE
  5
3DD8
  8
3
 10
111.4999889679836
 20
126.4999996870756
 30
0.0
 11
111.4999889679836
 21
141.49999935179949
 31
0.0
  0
LINE
  5
3DD9
  8
3
 10
113.79892943651581
 20
126.4999996870756
 30
0.0
 11
113.79892943651581
 21
141.49999935179949
 31
0.0
  0
LINE
  5
3DDA
  8
3
 10
114.64198896798339
 20
126.4999996870756
 30
0.0
 11
114.64198896798339
 21
141.49999935179949
 31
0.0
  0
LINE
  5
3DDB
  8
3
 10
116.9409294365156
 20
126.4999996870756
 30
0.0
 11
116.9409294365156
 21
141.49999935179949
 31
0.0
  0
LINE
  5
3DDC
  8
3
 10
117.78398896798321
 20
126.4999996870756
 30
0.0
 11
117.78398896798321
 21
141.49999935179949
 31
0.0
  0
LINE
  5
3DDD
  8
3
 10
120.0829294365159
 20
126.4999996870756
 30
0.0
 11
120.0829294365159
 21
141.49999935179949
 31
0.0
  0
LINE
  5
3DDE
  8
3
 10
120.9259889679835
 20
126.4999996870756
 30
0.0
 11
120.9259889679835
 21
141.49999935179949
 31
0.0
  0
LINE
  5
3DDF
  8
3
 10
123.22492943651569
 20
126.4999996870756
 30
0.0
 11
123.22492943651569
 21
141.49999935179949
 31
0.0
  0
LINE
  5
3DE0
  8
3
 10
124.0679889679833
 20
126.4999996870756
 30
0.0
 11
124.0679889679833
 21
141.49999935179949
 31
0.0
  0
LINE
  5
3DE1
  8
3
 10
126.36692943651551
 20
126.4999996870756
 30
0.0
 11
126.36692943651551
 21
141.49999935179949
 31
0.0
  0
LINE
  5
3DE2
  8
3
 10
127.20998896798309
 20
126.4999996870756
 30
0.0
 11
127.20998896798309
 21
141.49999935179949
 31
0.0
  0
LINE
  5
3DE3
  8
3
 10
129.50892943651581
 20
126.4999996870756
 30
0.0
 11
129.50892943651581
 21
141.49999935179949
 31
0.0
  0
LINE
  5
3DE4
  8
3
 10
130.3519889679834
 20
126.4999996870756
 30
0.0
 11
130.3519889679834
 21
141.49999935179949
 31
0.0
  0
LINE
  5
3DE5
  8
3
 10
132.65092943651561
 20
126.4999996870756
 30
0.0
 11
132.65092943651561
 21
141.49999935179949
 31
0.0
  0
LINE
  5
3DE6
  8
3
 10
133.4939889679832
 20
126.4999996870756
 30
0.0
 11
133.4939889679832
 21
141.49999935179949
 31
0.0
  0
LINE
  5
3DE7
  8
3
 10
135.79292943651541
 20
126.4999996870756
 30
0.0
 11
135.79292943651541
 21
141.49999935179949
 31
0.0
  0
LINE
  5
3DE8
  8
3
 10
136.635988967983
 20
126.4999996870756
 30
0.0
 11
136.635988967983
 21
141.49999935179949
 31
0.0
  0
LINE
  5
3DE9
  8
3
 10
138.93492943651569
 20
126.4999996870756
 30
0.0
 11
138.93492943651569
 21
141.49999935179949
 31
0.0
  0
LINE
  5
3DEA
  8
3
 10
139.7779889679833
 20
126.4999996870756
 30
0.0
 11
139.7779889679833
 21
141.49999935179949
 31
0.0
  0
LINE
  5
3DEB
  8
3
 10
142.0769294365156
 20
126.4999996870756
 30
0.0
 11
142.0769294365156
 21
141.49999935179949
 31
0.0
  0
LINE
  5
3DEC
  8
3
 10
142.9199889679831
 20
126.4999996870756
 30
0.0
 11
142.9199889679831
 21
141.49999935179949
 31
0.0
  0
LINE
  5
3DED
  8
3
 10
145.21892943651579
 20
126.4999996870756
 30
0.0
 11
145.21892943651579
 21
141.49999935179949
 31
0.0
  0
LINE
  5
3DEE
  8
3
 10
146.06198896798341
 20
126.4999996870756
 30
0.0
 11
146.06198896798341
 21
141.49999935179949
 31
0.0
  0
LINE
  5
3DEF
  8
3
 10
148.3609294365161
 20
126.4999996870756
 30
0.0
 11
148.3609294365161
 21
141.49999935179949
 31
0.0
  0
LINE
  5
3DF0
  8
3
 10
149.20398896798369
 20
126.4999996870756
 30
0.0
 11
149.20398896798369
 21
141.49999935179949
 31
0.0
  0
LINE
  5
3DF1
  8
3
 10
151.5029294365159
 20
126.4999996870756
 30
0.0
 11
151.5029294365159
 21
141.49999935179949
 31
0.0
  0
LINE
  5
3DF2
  8
3
 10
152.34598896798349
 20
126.4999996870756
 30
0.0
 11
152.34598896798349
 21
141.49999935179949
 31
0.0
  0
LINE
  5
3DF3
  8
3
 10
154.6449294365157
 20
126.4999996870756
 30
0.0
 11
154.6449294365157
 21
141.49999935179949
 31
0.0
  0
LINE
  5
3DF4
  8
3
 10
155.48798896798331
 20
126.4999996870756
 30
0.0
 11
155.48798896798331
 21
141.49999935179949
 31
0.0
  0
LINE
  5
3DF5
  8
3
 10
157.786929436516
 20
126.4999996870756
 30
0.0
 11
157.786929436516
 21
141.49999935179949
 31
0.0
  0
LINE
  5
3DF6
  8
3
 10
158.62998896798359
 20
126.4999996870756
 30
0.0
 11
158.62998896798359
 21
141.49999935179949
 31
0.0
  0
LINE
  5
3DF7
  8
3
 10
160.92892943651589
 20
126.4999996870756
 30
0.0
 11
160.92892943651589
 21
141.49999935179949
 31
0.0
  0
LINE
  5
3DF8
  8
3
 10
161.77198896798339
 20
126.4999996870756
 30
0.0
 11
161.77198896798339
 21
141.49999935179949
 31
0.0
  0
LINE
  5
3DF9
  8
3
 10
164.07092943651571
 20
126.4999996870756
 30
0.0
 11
164.07092943651571
 21
141.49999935179949
 31
0.0
  0
LINE
  5
3DFA
  8
3
 10
164.9139889679833
 20
126.4999996870756
 30
0.0
 11
164.9139889679833
 21
141.49999935179949
 31
0.0
  0
LINE
  5
3DFB
  8
3
 10
167.21292943651599
 20
126.4999996870756
 30
0.0
 11
167.21292943651599
 21
141.49999935179949
 31
0.0
  0
LINE
  5
3DFC
  8
3
 10
168.05598896798361
 20
126.4999996870756
 30
0.0
 11
168.05598896798361
 21
141.49999935179949
 31
0.0
  0
LINE
  5
3DFD
  8
3
 10
170.35492943651579
 20
126.4999996870756
 30
0.0
 11
170.35492943651579
 21
141.49999935179949
 31
0.0
  0
LINE
  5
3DFE
  8
3
 10
171.19798896798341
 20
126.4999996870756
 30
0.0
 11
171.19798896798341
 21
141.49999935179949
 31
0.0
  0
LINE
  5
3DFF
  8
3
 10
173.49692943651559
 20
126.4999996870756
 30
0.0
 11
173.49692943651559
 21
141.49999935179949
 31
0.0
  0
LINE
  5
3E00
  8
3
 10
174.3399889679832
 20
126.4999996870756
 30
0.0
 11
174.3399889679832
 21
141.49999935179949
 31
0.0
  0
LINE
  5
3E01
  8
3
 10
176.63892943651589
 20
126.4999996870756
 30
0.0
 11
176.63892943651589
 21
141.49999935179949
 31
0.0
  0
LINE
  5
3E02
  8
3
 10
177.48198896798351
 20
126.4999996870756
 30
0.0
 11
177.48198896798351
 21
141.49999935179949
 31
0.0
  0
LINE
  5
3E03
  8
3
 10
179.78092943651569
 20
126.4999996870756
 30
0.0
 11
179.78092943651569
 21
141.49999935179949
 31
0.0
  0
LINE
  5
3E04
  8
3
 10
180.62398896798331
 20
126.4999996870756
 30
0.0
 11
180.62398896798331
 21
141.49999935179949
 31
0.0
  0
LINE
  5
3E05
  8
3
 10
182.922929436516
 20
126.4999996870756
 30
0.0
 11
182.922929436516
 21
141.49999935179949
 31
0.0
  0
LINE
  5
3E06
  8
3
 10
183.76598896798359
 20
126.4999996870756
 30
0.0
 11
183.76598896798359
 21
141.49999935179949
 31
0.0
  0
LINE
  5
3E07
  8
3
 10
186.06492943651631
 20
126.4999996870756
 30
0.0
 11
186.06492943651631
 21
141.49999935179949
 31
0.0
  0
LINE
  5
3E08
  8
3
 10
186.9079889679839
 20
126.4999996870756
 30
0.0
 11
186.9079889679839
 21
141.49999935179949
 31
0.0
  0
LINE
  5
3E09
  8
3
 10
189.20692943651611
 20
126.4999996870756
 30
0.0
 11
189.20692943651611
 21
141.49999935179949
 31
0.0
  0
LINE
  5
3E0A
  8
3
 10
190.04998896798369
 20
126.4999996870756
 30
0.0
 11
190.04998896798369
 21
141.49999935179949
 31
0.0
  0
LINE
  5
3E0B
  8
3
 10
192.3489294365159
 20
126.4999996870756
 30
0.0
 11
192.3489294365159
 21
141.49999935179949
 31
0.0
  0
LINE
  5
3E0C
  8
3
 10
193.19198896798349
 20
126.4999996870756
 30
0.0
 11
193.19198896798349
 21
141.49999935179949
 31
0.0
  0
LINE
  5
3E0D
  8
3
 10
195.49092943651621
 20
126.4999996870756
 30
0.0
 11
195.49092943651621
 21
141.49999935179949
 31
0.0
  0
LINE
  5
3E0E
  8
3
 10
196.3339889679838
 20
126.4999996870756
 30
0.0
 11
196.3339889679838
 21
141.49999935179949
 31
0.0
  0
LINE
  5
3E0F
  8
3
 10
198.63292943651601
 20
126.4999996870756
 30
0.0
 11
198.63292943651601
 21
141.49999935179949
 31
0.0
  0
LINE
  5
3E10
  8
3
 10
199.4759889679836
 20
126.4999996870756
 30
0.0
 11
199.4759889679836
 21
141.49999935179949
 31
0.0
  0
LINE
  5
3E11
  8
1
 10
205.99999308586121
 20
133.99999951943749
 30
0.0
 11
45.0
 21
133.99999951943749
 31
0.0
  0
ENDSEC
  0
EOF
