  0
SECTION
  2
HEADER
  9
$ACADVER
  1
AC1009
  9
$INSBASE
 10
0.0
 20
0.0
 30
0.0
  9
$EXTMIN
 10
0.0
 20
-1.4802182810368341
 30
0.0
  9
$EXTMAX
 10
150.70997411158251
 20
114.2203498322928
 30
0.0
  9
$LIMMIN
 10
0.0
 20
0.0
  9
$LIMMAX
 10
187.5
 20
135.0
  9
$ORTHOMODE
 70
     0
  9
$REGENMODE
 70
     1
  9
$FILLMODE
 70
     1
  9
$QTEXTMODE
 70
     0
  9
$MIRRTEXT
 70
     0
  9
$DRAGMODE
 70
     2
  9
$LTSCALE
 40
5.0
  9
$OSMODE
 70
    55
  9
$ATTMODE
 70
     1
  9
$TEXTSIZE
 40
0.2
  9
$TRACEWID
 40
0.05
  9
$TEXTSTYLE
  7
STANDARD
  9
$CLAYER
  8
0
  9
$CELTYPE
  6
BYLAYER
  9
$CECOLOR
 62
   256
  9
$DIMSCALE
 40
0.5
  9
$DIMASZ
 40
3.0
  9
$DIMEXO
 40
2.0
  9
$DIMDLI
 40
0.38
  9
$DIMRND
 40
0.0
  9
$DIMDLE
 40
0.0
  9
$DIMEXE
 40
2.0
  9
$DIMTP
 40
0.0
  9
$DIMTM
 40
0.0
  9
$DIMTXT
 40
3.0
  9
$DIMCEN
 40
0.0
  9
$DIMTSZ
 40
0.0
  9
$DIMTOL
 70
     0
  9
$DIMLIM
 70
     0
  9
$DIMTIH
 70
     0
  9
$DIMTOH
 70
     0
  9
$DIMSE1
 70
     0
  9
$DIMSE2
 70
     0
  9
$DIMTAD
 70
     1
  9
$DIMZIN
 70
     0
  9
$DIMBLK
  1

  9
$DIMASO
 70
     1
  9
$DIMSHO
 70
     0
  9
$DIMPOST
  1

  9
$DIMAPOST
  1

  9
$DIMALT
 70
     0
  9
$DIMALTD
 70
     2
  9
$DIMALTF
 40
25.399999999999999
  9
$DIMLFAC
 40
1.0
  9
$DIMTOFL
 70
     1
  9
$DIMTVP
 40
1.6000000000000001
  9
$DIMTIX
 70
     1
  9
$DIMSOXD
 70
     0
  9
$DIMSAH
 70
     0
  9
$DIMBLK1
  1

  9
$DIMBLK2
  1

  9
$DIMSTYLE
  2
STANDARD
  9
$DIMCLRD
 70
     0
  9
$DIMCLRE
 70
     0
  9
$DIMCLRT
 70
     0
  9
$DIMTFAC
 40
1.0
  9
$DIMGAP
 40
0.09
  9
$LUNITS
 70
     2
  9
$LUPREC
 70
     4
  9
$SKETCHINC
 40
0.1
  9
$FILLETRAD
 40
0.0
  9
$AUNITS
 70
     0
  9
$AUPREC
 70
     4
  9
$MENU
  1
E:\r13\win\SUPPORT\ACAD
  9
$ELEVATION
 40
0.0
  9
$PELEVATION
 40
0.0
  9
$THICKNESS
 40
0.0
  9
$LIMCHECK
 70
     0
  9
$BLIPMODE
 70
     0
  9
$CHAMFERA
 40
0.0
  9
$CHAMFERB
 40
0.0
  9
$SKPOLY
 70
     0
  9
$TDCREATE
 40
2449840.6181944441
  9
$TDUPDATE
 40
2456598.3848354281
  9
$TDINDWG
 40
0.0778728009
  9
$TDUSRTIMER
 40
0.0778728009
  9
$USRTIMER
 70
     1
  9
$ANGBASE
 50
0.0
  9
$ANGDIR
 70
     0
  9
$PDMODE
 70
     0
  9
$PDSIZE
 40
0.0
  9
$PLINEWID
 40
0.0
  9
$COORDS
 70
     1
  9
$SPLFRAME
 70
     0
  9
$SPLINETYPE
 70
     6
  9
$SPLINESEGS
 70
     8
  9
$ATTDIA
 70
     0
  9
$ATTREQ
 70
     1
  9
$HANDLING
 70
     1
  9
$HANDSEED
  5
360
  9
$SURFTAB1
 70
     6
  9
$SURFTAB2
 70
     6
  9
$SURFTYPE
 70
     6
  9
$SURFU
 70
     6
  9
$SURFV
 70
     6
  9
$UCSNAME
  2

  9
$UCSORG
 10
0.0
 20
0.0
 30
0.0
  9
$UCSXDIR
 10
1.0
 20
0.0
 30
0.0
  9
$UCSYDIR
 10
0.0
 20
1.0
 30
0.0
  9
$PUCSNAME
  2

  9
$PUCSORG
 10
0.0
 20
0.0
 30
0.0
  9
$PUCSXDIR
 10
1.0
 20
0.0
 30
0.0
  9
$PUCSYDIR
 10
0.0
 20
1.0
 30
0.0
  9
$USERI1
 70
     0
  9
$USERI2
 70
     1
  9
$USERI3
 70
     1
  9
$USERI4
 70
     0
  9
$USERI5
 70
     0
  9
$USERR1
 40
0.0
  9
$USERR2
 40
0.0
  9
$USERR3
 40
0.0
  9
$USERR4
 40
0.0
  9
$USERR5
 40
0.0
  9
$WORLDVIEW
 70
     1
  9
$SHADEDGE
 70
     3
  9
$SHADEDIF
 70
    70
  9
$TILEMODE
 70
     1
  9
$MAXACTVP
 70
    16
  9
$PLIMCHECK
 70
     0
  9
$PEXTMIN
 10
1.0000000000000000E+020
 20
1.0000000000000000E+020
 30
1.0000000000000000E+020
  9
$PEXTMAX
 10
-1.0000000000000000E+020
 20
-1.0000000000000000E+020
 30
-1.0000000000000000E+020
  9
$PLIMMIN
 10
0.0
 20
0.0
  9
$PLIMMAX
 10
12.0
 20
9.0
  9
$UNITMODE
 70
     0
  9
$VISRETAIN
 70
     0
  9
$PLINEGEN
 70
     0
  9
$PSLTSCALE
 70
     0
  0
ENDSEC
  0
SECTION
  2
TABLES
  0
TABLE
  2
VPORT
 70
     1
  0
VPORT
  2
*ACTIVE
 70
     0
 10
0.0
 20
0.0
 11
1.0
 21
1.0
 12
93.747139195326184
 22
98.525452793007162
 13
0.0
 23
0.0
 14
5.0
 24
5.0
 15
5.0
 25
5.0
 16
0.0
 26
0.0
 36
1.0
 17
0.0
 27
0.0
 37
0.0
 40
201.7865794149663
 41
1.7807262569832401
 42
50.0
 43
0.0
 44
0.0
 50
0.0
 51
0.0
 71
     0
 72
   100
 73
     1
 74
     0
 75
     0
 76
     0
 77
     0
 78
     2
  0
ENDTAB
  0
TABLE
  2
LTYPE
 70
     4
  0
LTYPE
  2
CONTINUOUS
 70
     0
  3
Solid Line
 72
    65
 73
     0
 40
0.0
  0
LTYPE
  2
CENTER
 70
     0
  3
____ _ ____ _ ____ _ ____ _ ____ _ ____ _ ____
 72
    65
 73
     4
 40
2.0
 49
1.25
 49
-0.25
 49
0.25
 49
-0.25
  0
LTYPE
  2
HIDDEN
 70
     0
  3
_ _ _ _ _ _ _ _ _ _ _ _ _ _ _ _ _ _ _ _ _ _ _
 72
    65
 73
     2
 40
0.375
 49
0.25
 49
-0.125
  0
LTYPE
  2
PHANTOM2
 70
     0
  3
___ _ _ ___ _ _ ___ _ _ ___ _ _
 72
    65
 73
     6
 40
1.25
 49
0.625
 49
-0.125
 49
0.125
 49
-0.125
 49
0.125
 49
-0.125
  0
ENDTAB
  0
TABLE
  2
LAYER
 70
     4
  0
LAYER
  2
0
 70
     0
 62
     7
  6
CONTINUOUS
  0
LAYER
  2
1
 70
     0
 62
     1
  6
CENTER
  0
LAYER
  2
2
 70
     0
 62
     2
  6
HIDDEN
  0
LAYER
  2
3
 70
     0
 62
     3
  6
CONTINUOUS
  0
ENDTAB
  0
TABLE
  2
STYLE
 70
     2
  0
STYLE
  2
STANDARD
 70
     0
 40
0.0
 41
1.0
 50
0.0
 71
     0
 42
0.2
  3
TXT
  4
BIGFONT
  0
STYLE
  2
STANDARD1
 70
     0
 40
0.0
 41
1.0
 50
0.0
 71
     0
 42
3.0
  3
txt
  4

  0
ENDTAB
  0
TABLE
  2
VIEW
 70
     1
  0
VIEW
  2
ALL
 70
     0
 40
135.0
 10
110.49579799999999
 20
67.5
 41
0.0
 11
0.0
 21
0.0
 31
1.0
 12
0.0
 22
0.0
 32
0.0
 42
0.0
 43
0.0
 44
0.0
 50
0.0
 71
     0
  0
ENDTAB
  0
TABLE
  2
UCS
 70
     0
  0
ENDTAB
  0
TABLE
  2
APPID
 70
     3
  0
APPID
  2
ACAD
 70
     0
  0
APPID
  2
ACAD_MLEADERVER
 70
     0
  0
APPID
  2
ACAD_NAV_VCDISPLAY
 70
     0
  0
ENDTAB
  0
TABLE
  2
DIMSTYLE
 70
     1
  0
DIMSTYLE
  2
STANDARD
 70
     0
  3

  4

  5

  6

  7

 40
1.0
 41
0.18
 42
0.0625
 43
0.38
 44
0.18
 45
0.0
 46
0.0
 47
0.0
 48
0.0
140
0.18
141
0.09
142
0.0
143
25.399999999999999
144
1.0
145
0.0
146
1.0
147
0.09
 71
     0
 72
     0
 73
     1
 74
     1
 75
     0
 76
     0
 77
     0
 78
     0
170
     0
171
     2
172
     0
173
     0
174
     0
175
     0
176
     0
177
     0
178
     0
  0
ENDTAB
  0
ENDSEC
  0
SECTION
  2
BLOCKS
  0
BLOCK
  8
0
  2
$MODEL_SPACE
 70
     0
 10
0.0
 20
0.0
 30
0.0
  3
$MODEL_SPACE
  1

  0
ENDBLK
  5
C4
  8
0
  0
BLOCK
 67
     1
  8
0
  2
$PAPER_SPACE
 70
     0
 10
0.0
 20
0.0
 30
0.0
  3
$PAPER_SPACE
  1

  0
ENDBLK
  5
C2
 67
     1
  8
0
  0
ENDSEC
  0
SECTION
  2
ENTITIES
  0
LINE
  5
37
  8
1
 10
36.127303111582577
 20
73.26916083229284
 30
0.0
 11
49.127303111582577
 21
73.26916083229284
 31
0.0
  0
LINE
  5
38
  8
1
 10
78.871971111582567
 20
73.26916083229284
 30
0.0
 11
108.8719711115825
 21
73.26916083229284
 31
0.0
  0
LINE
  5
39
  8
1
 10
137.70997411158251
 20
73.26916083229284
 30
0.0
 11
150.70997411158251
 21
73.26916083229284
 31
0.0
  0
LINE
  5
3A
  8
1
 10
42.62730311158257
 20
79.76916083229284
 30
0.0
 11
42.62730311158257
 21
66.76916083229284
 31
0.0
  0
LINE
  5
3B
  8
1
 10
144.20997411158251
 20
79.76916083229284
 30
0.0
 11
144.20997411158251
 21
66.76916083229284
 31
0.0
  0
CIRCLE
  5
3C
  8
0
 10
144.20997411158251
 20
73.26916083229284
 30
0.0
 40
4.0
  0
CIRCLE
  5
3D
  8
3
 10
144.20997411158251
 20
73.26916083229284
 30
0.0
 40
3.3235000000000001
  0
CIRCLE
  5
3E
  8
0
 10
42.62730311158257
 20
73.26916083229284
 30
0.0
 40
4.0
  0
CIRCLE
  5
3F
  8
3
 10
42.62730311158257
 20
73.26916083229284
 30
0.0
 40
3.3235000000000001
  0
LINE
  5
40
  8
0
 10
101.9719711115826
 20
77.26916083229284
 30
0.0
 11
82.771971111582559
 21
77.26916083229284
 31
0.0
  0
LINE
  5
41
  8
3
 10
102.6484711115825
 20
76.592660832292836
 30
0.0
 11
82.095471111582555
 21
76.592660832292836
 31
0.0
  0
LINE
  5
42
  8
3
 10
102.6484711115825
 20
69.94566083229283
 30
0.0
 11
82.095471111582555
 21
69.94566083229283
 31
0.0
  0
LINE
  5
43
  8
0
 10
101.9719711115826
 20
69.26916083229284
 30
0.0
 11
82.771971111582559
 21
69.26916083229284
 31
0.0
  0
LINE
  5
44
  8
0
 10
81.371971111582553
 20
75.869160832292835
 30
0.0
 11
81.371971111582553
 21
70.669160832292832
 31
0.0
  0
LINE
  5
45
  8
0
 10
103.3719711115825
 20
75.869160832292835
 30
0.0
 11
103.3719711115825
 21
70.669160832292832
 31
0.0
  0
LINE
  5
46
  8
0
 10
103.3719711115825
 20
75.01916083229284
 30
0.0
 11
104.62197211158249
 21
75.01916083229284
 31
0.0
  0
LINE
  5
47
  8
0
 10
103.3719711115825
 20
71.51916083229284
 30
0.0
 11
104.62197311158261
 21
71.51916083229284
 31
0.0
  0
ARC
  5
48
  8
0
 10
104.6219711115826
 20
73.26916083229284
 30
0.0
 40
1.75
 50
270.00003099999998
 51
89.999956000000012
  0
LINE
  5
49
  8
0
 10
41.37730311158257
 20
73.990848832292841
 30
0.0
 11
41.37730311158257
 21
72.54747283229284
 31
0.0
  0
LINE
  5
4A
  8
0
 10
42.62730311158257
 20
74.712536832292841
 30
0.0
 11
41.37730311158257
 21
73.990848832292841
 31
0.0
  0
LINE
  5
4B
  8
0
 10
43.87730311158257
 20
73.990848832292841
 30
0.0
 11
42.62730311158257
 21
74.712536832292841
 31
0.0
  0
LINE
  5
4C
  8
0
 10
43.87730311158257
 20
72.54747283229284
 30
0.0
 11
43.87730311158257
 21
73.990848832292841
 31
0.0
  0
LINE
  5
4D
  8
0
 10
42.62730311158257
 20
71.825785832292837
 30
0.0
 11
43.87730311158257
 21
72.54747283229284
 31
0.0
  0
LINE
  5
4E
  8
0
 10
41.37730311158257
 20
72.54747283229284
 30
0.0
 11
42.62730311158257
 21
71.825785832292837
 31
0.0
  0
CIRCLE
  5
4F
  8
0
 10
42.62730311158257
 20
73.26916083229284
 30
0.0
 40
2.0669999999999988
  0
CIRCLE
  5
50
  8
3
 10
42.62730311158257
 20
73.26916083229284
 30
0.0
 40
2.5
  0
CIRCLE
  5
51
  8
0
 10
144.20997411158251
 20
73.26916083229284
 30
0.0
 40
1.75
  0
LINE
  5
52
  8
0
 10
144.80997411158259
 20
77.223904832292831
 30
0.0
 11
144.80997411158259
 21
74.913088832292829
 31
0.0
  0
LINE
  5
53
  8
0
 10
143.6099741115826
 20
77.223904832292831
 30
0.0
 11
143.6099741115826
 21
74.913088832292829
 31
0.0
  0
LINE
  5
54
  8
3
 10
143.6099741115826
 20
71.625232832292824
 30
0.0
 11
143.6099741115826
 21
69.314416832292835
 31
0.0
  0
LINE
  5
55
  8
0
 10
144.80997411158259
 20
71.625232832292824
 30
0.0
 11
144.80997411158259
 21
69.314416832292835
 31
0.0
  0
LINE
  5
56
  8
0
 10
82.771971111582559
 20
77.26916083229284
 30
0.0
 11
81.371971111582553
 21
75.869160832292835
 31
0.0
  0
LINE
  5
57
  8
0
 10
81.371971111582553
 20
70.669160832292832
 30
0.0
 11
82.771971111582559
 21
69.26916083229284
 31
0.0
  0
LINE
  5
58
  8
0
 10
102.0172271115826
 20
77.223904832292831
 30
0.0
 11
103.3719711115825
 21
75.869160832292835
 31
0.0
  0
LINE
  5
59
  8
0
 10
102.0172271115826
 20
69.314416832292835
 30
0.0
 11
103.3719711115825
 21
70.669160832292832
 31
0.0
  0
LINE
  5
5A
  8
0
 10
101.9719711115826
 20
77.26916083229284
 30
0.0
 11
101.9719711115826
 21
69.26916083229284
 31
0.0
  0
LINE
  5
5B
  8
0
 10
82.771971111582559
 20
77.26916083229284
 30
0.0
 11
82.771971111582559
 21
69.26916083229284
 31
0.0
  0
ARC
  5
5C
  8
2
 10
101.6219711115825
 20
73.26916083229284
 30
0.0
 40
1.75
 50
270.00003099999998
 51
89.999956000000012
  0
ARC
  5
61
  8
2
 10
101.6219711115825
 20
110.2203498322928
 30
0.0
 40
1.75
 50
270.00003099999998
 51
89.999956000000012
  0
LINE
  5
62
  8
0
 10
82.771971111582559
 20
114.2203498322928
 30
0.0
 11
82.771971111582559
 21
106.2203498322928
 31
0.0
  0
LINE
  5
63
  8
0
 10
101.9719711115826
 20
114.2203498322928
 30
0.0
 11
101.9719711115826
 21
106.2203498322928
 31
0.0
  0
LINE
  5
64
  8
0
 10
101.9719711115826
 20
106.2203498322928
 30
0.0
 11
103.3719711115825
 21
107.6203498322928
 31
0.0
  0
LINE
  5
65
  8
0
 10
101.9719711115826
 20
114.2203498322928
 30
0.0
 11
103.3719711115825
 21
112.82034983229281
 31
0.0
  0
LINE
  5
66
  8
0
 10
81.371971111582553
 20
107.6203498322928
 30
0.0
 11
82.771971111582559
 21
106.2203498322928
 31
0.0
  0
LINE
  5
67
  8
0
 10
82.771971111582559
 20
114.2203498322928
 30
0.0
 11
81.371971111582553
 21
112.82034983229281
 31
0.0
  0
ARC
  5
68
  8
0
 10
104.6219711115826
 20
110.2203498322928
 30
0.0
 40
1.75
 50
270.00003099999998
 51
89.999956000000012
  0
LINE
  5
69
  8
0
 10
103.3719711115825
 20
108.4703498322928
 30
0.0
 11
104.62197311158261
 21
108.4703498322928
 31
0.0
  0
LINE
  5
6A
  8
0
 10
103.3719711115825
 20
111.9703498322928
 30
0.0
 11
104.62197211158249
 21
111.9703498322928
 31
0.0
  0
LINE
  5
6B
  8
0
 10
103.3719711115825
 20
112.82034983229281
 30
0.0
 11
103.3719711115825
 21
110.82034983229281
 31
0.0
  0
LINE
  5
6C
  8
0
 10
81.371971111582553
 20
112.82034983229281
 30
0.0
 11
81.371971111582553
 21
107.6203498322928
 31
0.0
  0
LINE
  5
6D
  8
0
 10
101.9719711115826
 20
106.2203498322928
 30
0.0
 11
82.771971111582559
 21
106.2203498322928
 31
0.0
  0
LINE
  5
6E
  8
3
 10
102.6484711115825
 20
106.8968498322928
 30
0.0
 11
82.095471111582555
 21
106.8968498322928
 31
0.0
  0
LINE
  5
6F
  8
3
 10
102.6484711115825
 20
113.54384983229281
 30
0.0
 11
82.095471111582555
 21
113.54384983229281
 31
0.0
  0
LINE
  5
70
  8
0
 10
101.9719711115826
 20
114.2203498322928
 30
0.0
 11
82.771971111582559
 21
114.2203498322928
 31
0.0
  0
LINE
  5
71
  8
1
 10
78.871971111582567
 20
110.2203498322928
 30
0.0
 11
108.8719711115825
 21
110.2203498322928
 31
0.0
  0
LINE
  5
77
  8
0
 10
102.0172271115826
 20
77.223904832292831
 30
0.0
 11
101.9719711115826
 21
77.223904832292831
 31
0.0
  0
LINE
  5
78
  8
0
 10
102.0172271115826
 20
69.314416832292835
 30
0.0
 11
101.9719711115826
 21
69.314416832292835
 31
0.0
  0
LINE
  5
79
  8
0
 10
101.9719711115826
 20
110.82034983229281
 30
0.0
 11
103.3719711115825
 21
110.82034983229281
 31
0.0
  0
LINE
  5
7A
  8
0
 10
101.9719711115826
 20
109.6203498322928
 30
0.0
 11
103.3719711115825
 21
109.6203498322928
 31
0.0
  0
LINE
  5
7B
  8
0
 10
103.3719711115825
 20
109.6203498322928
 30
0.0
 11
103.3719711115825
 21
107.6203498322928
 31
0.0
  0
LINE
  5
7C
  8
0
 10
103.3719711115825
 20
36.917971832292821
 30
0.0
 11
103.3719711115825
 21
38.917971832292821
 31
0.0
  0
LINE
  5
7D
  8
0
 10
101.9719711115826
 20
36.917971832292821
 30
0.0
 11
103.3719711115825
 21
36.917971832292821
 31
0.0
  0
LINE
  5
7E
  8
0
 10
101.9719711115826
 20
35.717971832292818
 30
0.0
 11
103.3719711115825
 21
35.717971832292818
 31
0.0
  0
LINE
  5
7F
  8
1
 10
78.871971111582567
 20
36.317971832292827
 30
0.0
 11
108.8719711115825
 21
36.317971832292827
 31
0.0
  0
LINE
  5
80
  8
0
 10
101.9719711115826
 20
32.317971832292827
 30
0.0
 11
82.771971111582559
 21
32.317971832292827
 31
0.0
  0
LINE
  5
81
  8
3
 10
102.6484711115825
 20
32.994471832292831
 30
0.0
 11
82.095471111582555
 21
32.994471832292831
 31
0.0
  0
LINE
  5
82
  8
3
 10
102.6484711115825
 20
39.641471832292822
 30
0.0
 11
82.095471111582555
 21
39.641471832292822
 31
0.0
  0
LINE
  5
83
  8
0
 10
101.9719711115826
 20
40.31797183229282
 30
0.0
 11
82.771971111582559
 21
40.31797183229282
 31
0.0
  0
LINE
  5
84
  8
0
 10
81.371971111582553
 20
33.717971832292832
 30
0.0
 11
81.371971111582553
 21
38.917971832292821
 31
0.0
  0
LINE
  5
85
  8
0
 10
103.3719711115825
 20
33.717971832292832
 30
0.0
 11
103.3719711115825
 21
35.717971832292818
 31
0.0
  0
LINE
  5
86
  8
0
 10
103.3719711115825
 20
34.567971832292827
 30
0.0
 11
104.62197211158249
 21
34.567971832292827
 31
0.0
  0
LINE
  5
87
  8
0
 10
103.3719711115825
 20
38.067971832292827
 30
0.0
 11
104.62197311158261
 21
38.067971832292827
 31
0.0
  0
ARC
  5
88
  8
0
 10
104.6219711115826
 20
36.317971832292827
 30
0.0
 40
1.75
 50
270.000044
 51
89.999968999999993
  0
LINE
  5
89
  8
0
 10
82.771971111582559
 20
32.317971832292827
 30
0.0
 11
81.371971111582553
 21
33.717971832292832
 31
0.0
  0
LINE
  5
8A
  8
0
 10
81.371971111582553
 20
38.917971832292821
 30
0.0
 11
82.771971111582559
 21
40.31797183229282
 31
0.0
  0
LINE
  5
8B
  8
0
 10
101.9719711115826
 20
32.317971832292827
 30
0.0
 11
103.3719711115825
 21
33.717971832292832
 31
0.0
  0
LINE
  5
8C
  8
0
 10
101.9719711115826
 20
40.31797183229282
 30
0.0
 11
103.3719711115825
 21
38.917971832292821
 31
0.0
  0
LINE
  5
8D
  8
0
 10
101.9719711115826
 20
32.317971832292827
 30
0.0
 11
101.9719711115826
 21
40.31797183229282
 31
0.0
  0
LINE
  5
8E
  8
0
 10
82.771971111582559
 20
32.317971832292827
 30
0.0
 11
82.771971111582559
 21
40.31797183229282
 31
0.0
  0
ARC
  5
8F
  8
2
 10
101.6219711115825
 20
36.317971832292827
 30
0.0
 40
1.75
 50
270.000044
 51
89.999968999999993
  0
LINE
  5
1A0
  8
2
 10
84.371971111582567
 20
71.825785832292837
 30
0.0
 11
84.371971111582567
 21
74.71253717589147
 31
0.0
  0
LINE
  5
1A1
  8
2
 10
81.371971111582553
 20
71.825785832292837
 30
0.0
 11
84.371971111582567
 21
71.825785832292837
 31
0.0
  0
LINE
  5
1A2
  8
2
 10
81.371971111582553
 20
72.547473668192964
 30
0.0
 11
84.371971111582567
 21
72.547473668192964
 31
0.0
  0
LINE
  5
1A3
  8
2
 10
81.371971111582553
 20
73.990849339991314
 30
0.0
 11
84.371971111582567
 21
73.990849339991314
 31
0.0
  0
LINE
  5
1A4
  8
2
 10
81.371971111582553
 20
74.712537175891455
 30
0.0
 11
84.371971111582567
 21
74.71253717589147
 31
0.0
  0
LINE
  5
1AA
  8
2
 10
84.371971111582582
 20
108.9703498322928
 30
0.0
 11
84.371971111582567
 21
111.4703498322928
 31
0.0
  0
LINE
  5
1AB
  8
2
 10
81.371971111582553
 20
108.9703498322928
 30
0.0
 11
84.371971111582567
 21
108.9703498322928
 31
0.0
  0
LINE
  5
1AD
  8
2
 10
81.371971111582553
 20
110.2203498322928
 30
0.0
 11
84.371971111582582
 21
110.2203498322928
 31
0.0
  0
LINE
  5
1AE
  8
2
 10
81.371971111582553
 20
111.4703498322928
 30
0.0
 11
84.371971111582567
 21
111.4703498322928
 31
0.0
  0
LINE
  5
256
  8
2
 10
84.371971111582582
 20
35.067971832292827
 30
0.0
 11
84.371971111582567
 21
37.567971832292841
 31
0.0
  0
LINE
  5
257
  8
2
 10
81.371971111582553
 20
35.067971832292827
 30
0.0
 11
84.371971111582567
 21
35.067971832292827
 31
0.0
  0
LINE
  5
258
  8
2
 10
81.371971111582553
 20
36.317971832292827
 30
0.0
 11
84.371971111582582
 21
36.317971832292827
 31
0.0
  0
LINE
  5
259
  8
2
 10
81.371971111582553
 20
37.567971832292827
 30
0.0
 11
84.371971111582567
 21
37.567971832292841
 31
0.0
  0
TEXT
  5
2FA
  8
0
 62
     3
 10
0.0
 20
0.0
 30
0.0
 40
5.0
  1
ZN8
  7
STANDARD1
  0
ENDSEC
  0
EOF
