  0
SECTION
  2
HEADER
  9
$ACADVER
  1
AC1009
  9
$INSBASE
 10
0.0
 20
0.0
 30
0.0
  9
$EXTMIN
 10
0.0
 20
-1.4802182810368341
 30
0.0
  9
$EXTMAX
 10
75.257611491541169
 20
55.20883631738203
 30
0.0
  9
$LIMMIN
 10
0.0
 20
0.0
  9
$LIMMAX
 10
75.0
 20
54.0
  9
$ORTHOMODE
 70
     1
  9
$REGENMODE
 70
     1
  9
$FILLMODE
 70
     1
  9
$QTEXTMODE
 70
     0
  9
$MIRRTEXT
 70
     0
  9
$DRAGMODE
 70
     2
  9
$LTSCALE
 40
2.0
  9
$OSMODE
 70
    55
  9
$ATTMODE
 70
     1
  9
$TEXTSIZE
 40
0.2
  9
$TRACEWID
 40
0.05
  9
$TEXTSTYLE
  7
STANDARD
  9
$CLAYER
  8
0
  9
$CELTYPE
  6
BYLAYER
  9
$CECOLOR
 62
   256
  9
$DIMSCALE
 40
0.2
  9
$DIMASZ
 40
3.0
  9
$DIMEXO
 40
2.0
  9
$DIMDLI
 40
0.38
  9
$DIMRND
 40
0.0
  9
$DIMDLE
 40
0.0
  9
$DIMEXE
 40
2.0
  9
$DIMTP
 40
0.0
  9
$DIMTM
 40
0.0
  9
$DIMTXT
 40
3.0
  9
$DIMCEN
 40
0.0
  9
$DIMTSZ
 40
0.0
  9
$DIMTOL
 70
     0
  9
$DIMLIM
 70
     0
  9
$DIMTIH
 70
     0
  9
$DIMTOH
 70
     0
  9
$DIMSE1
 70
     0
  9
$DIMSE2
 70
     0
  9
$DIMTAD
 70
     1
  9
$DIMZIN
 70
     0
  9
$DIMBLK
  1

  9
$DIMASO
 70
     1
  9
$DIMSHO
 70
     0
  9
$DIMPOST
  1

  9
$DIMAPOST
  1

  9
$DIMALT
 70
     0
  9
$DIMALTD
 70
     2
  9
$DIMALTF
 40
25.399999999999999
  9
$DIMLFAC
 40
1.0
  9
$DIMTOFL
 70
     1
  9
$DIMTVP
 40
1.6000000000000001
  9
$DIMTIX
 70
     1
  9
$DIMSOXD
 70
     0
  9
$DIMSAH
 70
     0
  9
$DIMBLK1
  1

  9
$DIMBLK2
  1

  9
$DIMSTYLE
  2
STANDARD
  9
$DIMCLRD
 70
     0
  9
$DIMCLRE
 70
     0
  9
$DIMCLRT
 70
     0
  9
$DIMTFAC
 40
1.0
  9
$DIMGAP
 40
0.09
  9
$LUNITS
 70
     2
  9
$LUPREC
 70
     4
  9
$SKETCHINC
 40
0.1
  9
$FILLETRAD
 40
0.0
  9
$AUNITS
 70
     0
  9
$AUPREC
 70
     4
  9
$MENU
  1
E:\r13\win\SUPPORT\ACAD
  9
$ELEVATION
 40
0.0
  9
$PELEVATION
 40
0.0
  9
$THICKNESS
 40
0.0
  9
$LIMCHECK
 70
     0
  9
$BLIPMODE
 70
     0
  9
$CHAMFERA
 40
0.0
  9
$CHAMFERB
 40
0.0
  9
$SKPOLY
 70
     0
  9
$TDCREATE
 40
2449840.6181597221
  9
$TDUPDATE
 40
2456598.3849813188
  9
$TDINDWG
 40
0.0109356019
  9
$TDUSRTIMER
 40
0.0109356019
  9
$USRTIMER
 70
     1
  9
$ANGBASE
 50
0.0
  9
$ANGDIR
 70
     0
  9
$PDMODE
 70
     0
  9
$PDSIZE
 40
0.0
  9
$PLINEWID
 40
0.0
  9
$COORDS
 70
     1
  9
$SPLFRAME
 70
     0
  9
$SPLINETYPE
 70
     6
  9
$SPLINESEGS
 70
     8
  9
$ATTDIA
 70
     0
  9
$ATTREQ
 70
     1
  9
$HANDLING
 70
     1
  9
$HANDSEED
  5
372
  9
$SURFTAB1
 70
     6
  9
$SURFTAB2
 70
     6
  9
$SURFTYPE
 70
     6
  9
$SURFU
 70
     6
  9
$SURFV
 70
     6
  9
$UCSNAME
  2

  9
$UCSORG
 10
0.0
 20
0.0
 30
0.0
  9
$UCSXDIR
 10
1.0
 20
0.0
 30
0.0
  9
$UCSYDIR
 10
0.0
 20
1.0
 30
0.0
  9
$PUCSNAME
  2

  9
$PUCSORG
 10
0.0
 20
0.0
 30
0.0
  9
$PUCSXDIR
 10
1.0
 20
0.0
 30
0.0
  9
$PUCSYDIR
 10
0.0
 20
1.0
 30
0.0
  9
$USERI1
 70
     0
  9
$USERI2
 70
     1
  9
$USERI3
 70
     1
  9
$USERI4
 70
     0
  9
$USERI5
 70
     0
  9
$USERR1
 40
0.0
  9
$USERR2
 40
0.0
  9
$USERR3
 40
0.0
  9
$USERR4
 40
0.0
  9
$USERR5
 40
0.0
  9
$WORLDVIEW
 70
     1
  9
$SHADEDGE
 70
     3
  9
$SHADEDIF
 70
    70
  9
$TILEMODE
 70
     1
  9
$MAXACTVP
 70
    16
  9
$PLIMCHECK
 70
     0
  9
$PEXTMIN
 10
1.0000000000000000E+020
 20
1.0000000000000000E+020
 30
1.0000000000000000E+020
  9
$PEXTMAX
 10
-1.0000000000000000E+020
 20
-1.0000000000000000E+020
 30
-1.0000000000000000E+020
  9
$PLIMMIN
 10
0.0
 20
0.0
  9
$PLIMMAX
 10
12.0
 20
9.0
  9
$UNITMODE
 70
     0
  9
$VISRETAIN
 70
     0
  9
$PLINEGEN
 70
     0
  9
$PSLTSCALE
 70
     0
  0
ENDSEC
  0
SECTION
  2
TABLES
  0
TABLE
  2
VPORT
 70
     1
  0
VPORT
  2
*ACTIVE
 70
     0
 10
0.0
 20
0.0
 11
1.0
 21
1.0
 12
37.628805920993379
 22
40.059515057492682
 13
0.0
 23
0.0
 14
2.0
 24
2.0
 15
2.0
 25
2.0
 16
0.0
 26
0.0
 36
1.0
 17
0.0
 27
0.0
 37
0.0
 40
83.819264545648579
 41
1.7807262569832401
 42
50.0
 43
0.0
 44
0.0
 50
0.0
 51
0.0
 71
     0
 72
   100
 73
     1
 74
     0
 75
     0
 76
     0
 77
     0
 78
     2
  0
ENDTAB
  0
TABLE
  2
LTYPE
 70
     4
  0
LTYPE
  2
CONTINUOUS
 70
     0
  3
Solid Line
 72
    65
 73
     0
 40
0.0
  0
LTYPE
  2
CENTER
 70
     0
  3
____ _ ____ _ ____ _ ____ _ ____ _ ____ _ ____
 72
    65
 73
     4
 40
2.0
 49
1.25
 49
-0.25
 49
0.25
 49
-0.25
  0
LTYPE
  2
HIDDEN
 70
     0
  3
_ _ _ _ _ _ _ _ _ _ _ _ _ _ _ _ _ _ _ _ _ _ _
 72
    65
 73
     2
 40
0.375
 49
0.25
 49
-0.125
  0
LTYPE
  2
PHANTOM2
 70
     0
  3
___ _ _ ___ _ _ ___ _ _ ___ _ _
 72
    65
 73
     6
 40
1.25
 49
0.625
 49
-0.125
 49
0.125
 49
-0.125
 49
0.125
 49
-0.125
  0
ENDTAB
  0
TABLE
  2
LAYER
 70
     4
  0
LAYER
  2
0
 70
     0
 62
     7
  6
CONTINUOUS
  0
LAYER
  2
1
 70
     0
 62
     1
  6
CENTER
  0
LAYER
  2
2
 70
     0
 62
     2
  6
HIDDEN
  0
LAYER
  2
3
 70
     0
 62
     3
  6
CONTINUOUS
  0
ENDTAB
  0
TABLE
  2
STYLE
 70
     2
  0
STYLE
  2
STANDARD
 70
     0
 40
0.0
 41
1.0
 50
0.0
 71
     0
 42
0.2
  3
TXT
  4
BIGFONT
  0
STYLE
  2
STANDARD1
 70
     0
 40
0.0
 41
1.0
 50
0.0
 71
     0
 42
3.0
  3
txt
  4

  0
ENDTAB
  0
TABLE
  2
VIEW
 70
     1
  0
VIEW
  2
ALL
 70
     0
 40
54.0
 10
44.198318999999998
 20
27.0
 41
0.0
 11
0.0
 21
0.0
 31
1.0
 12
0.0
 22
0.0
 32
0.0
 42
0.0
 43
0.0
 44
0.0
 50
0.0
 71
     0
  0
ENDTAB
  0
TABLE
  2
UCS
 70
     0
  0
ENDTAB
  0
TABLE
  2
APPID
 70
     3
  0
APPID
  2
ACAD
 70
     0
  0
APPID
  2
ACAD_MLEADERVER
 70
     0
  0
APPID
  2
ACAD_NAV_VCDISPLAY
 70
     0
  0
ENDTAB
  0
TABLE
  2
DIMSTYLE
 70
     1
  0
DIMSTYLE
  2
STANDARD
 70
     0
  3

  4

  5

  6

  7

 40
1.0
 41
0.18
 42
0.0625
 43
0.38
 44
0.18
 45
0.0
 46
0.0
 47
0.0
 48
0.0
140
0.18
141
0.09
142
0.0
143
25.399999999999999
144
1.0
145
0.0
146
1.0
147
0.09
 71
     0
 72
     0
 73
     1
 74
     1
 75
     0
 76
     0
 77
     0
 78
     0
170
     0
171
     2
172
     0
173
     0
174
     0
175
     0
176
     0
177
     0
178
     0
  0
ENDTAB
  0
ENDSEC
  0
SECTION
  2
BLOCKS
  0
BLOCK
  8
0
  2
$MODEL_SPACE
 70
     0
 10
0.0
 20
0.0
 30
0.0
  3
$MODEL_SPACE
  1

  0
ENDBLK
  5
C4
  8
0
  0
BLOCK
 67
     1
  8
0
  2
$PAPER_SPACE
 70
     0
 10
0.0
 20
0.0
 30
0.0
  3
$PAPER_SPACE
  1

  0
ENDBLK
  5
C2
 67
     1
  8
0
  0
ENDSEC
  0
SECTION
  2
ENTITIES
  0
LINE
  5
37
  8
1
 10
19.290452491541171
 20
36.042969317382031
 30
0.0
 11
26.290452491541171
 21
36.042969317382031
 31
0.0
  0
LINE
  5
38
  8
1
 10
68.257611491541169
 20
36.042969317382031
 30
0.0
 11
75.257611491541169
 21
36.042969317382031
 31
0.0
  0
LINE
  5
39
  8
1
 10
22.790452491541171
 20
32.542969317382031
 30
0.0
 11
22.790452491541171
 21
39.542969317382031
 31
0.0
  0
LINE
  5
3A
  8
1
 10
71.757611491541169
 20
39.542969317382031
 30
0.0
 11
71.757611491541169
 21
32.542969317382031
 31
0.0
  0
LINE
  5
3B
  8
0
 10
53.062320491541158
 20
38.542969317382031
 30
0.0
 11
36.662320491541173
 21
38.542969317382031
 31
0.0
  0
LINE
  5
3C
  8
3
 10
53.495320491541172
 20
38.109969317382017
 30
0.0
 11
36.229320491541181
 21
38.109969317382017
 31
0.0
  0
LINE
  5
3D
  8
3
 10
53.495320491541172
 20
33.975969317382031
 30
0.0
 11
36.229320491541181
 21
33.975969317382031
 31
0.0
  0
LINE
  5
3E
  8
0
 10
53.062320491541158
 20
33.542969317382031
 30
0.0
 11
36.662320491541173
 21
33.542969317382031
 31
0.0
  0
CIRCLE
  5
3F
  8
3
 10
71.757611491541169
 20
36.042969317382031
 30
0.0
 40
2.0669999999999988
  0
CIRCLE
  5
40
  8
0
 10
71.757611491541169
 20
36.042969317382031
 30
0.0
 40
2.5
  0
CIRCLE
  5
41
  8
3
 10
22.790452491541171
 20
36.042969317382031
 30
0.0
 40
2.0669999999999988
  0
CIRCLE
  5
42
  8
0
 10
22.790452491541171
 20
36.042969317382031
 30
0.0
 40
2.5
  0
LINE
  5
43
  8
0
 10
35.862320491541169
 20
37.742969317382027
 30
0.0
 11
35.862320491541169
 21
34.342969317382028
 31
0.0
  0
LINE
  5
44
  8
0
 10
53.862320491541162
 20
37.742969317382027
 30
0.0
 11
53.862320491541162
 21
34.342969317382028
 31
0.0
  0
LINE
  5
45
  8
0
 10
53.862320491541162
 20
37.242969317382027
 30
0.0
 11
54.96232049154117
 21
37.242969317382027
 31
0.0
  0
LINE
  5
46
  8
0
 10
53.862320491541162
 20
34.842969317382028
 30
0.0
 11
54.96232049154117
 21
34.842969317382028
 31
0.0
  0
LINE
  5
47
  8
1
 10
34.862320491541169
 20
36.042969317382031
 30
0.0
 11
57.162320491541159
 21
36.042969317382031
 31
0.0
  0
ARC
  5
48
  8
0
 10
54.96232049154117
 20
36.042969317382031
 30
0.0
 40
1.1999999999999991
 50
270.0
 51
90.0
  0
LINE
  5
49
  8
0
 10
35.862320491541169
 20
34.342969317382028
 30
0.0
 11
36.662320491541173
 21
33.542969317382031
 31
0.0
  0
LINE
  5
4A
  8
0
 10
35.862320491541169
 20
37.742969317382027
 30
0.0
 11
36.662320491541173
 21
38.542969317382031
 31
0.0
  0
LINE
  5
4B
  8
0
 10
53.862320491541162
 20
34.342969317382028
 30
0.0
 11
53.094527491541172
 21
33.575176317382031
 31
0.0
  0
LINE
  5
4C
  8
0
 10
53.094527491541172
 20
38.510761317382027
 30
0.0
 11
53.862320491541162
 21
37.742969317382027
 31
0.0
  0
LINE
  5
4D
  8
0
 10
53.062320491541158
 20
38.542969317382031
 30
0.0
 11
53.062320491541158
 21
33.542969317382031
 31
0.0
  0
LINE
  5
4E
  8
0
 10
36.662320491541173
 20
33.542969317382031
 30
0.0
 11
36.662320491541173
 21
38.542969317382031
 31
0.0
  0
CIRCLE
  5
4F
  8
0
 10
71.757611491541169
 20
36.042969317382031
 30
0.0
 40
1.1999999999999991
  0
LINE
  5
50
  8
0
 10
22.040452491541171
 20
36.475982317382041
 30
0.0
 11
22.040452491541171
 21
35.609956317382029
 31
0.0
  0
LINE
  5
51
  8
0
 10
22.790452491541171
 20
36.908994317382017
 30
0.0
 11
22.040452491541171
 21
36.475982317382041
 31
0.0
  0
LINE
  5
52
  8
0
 10
23.540452491541171
 20
36.475982317382041
 30
0.0
 11
22.790452491541171
 21
36.908994317382017
 31
0.0
  0
LINE
  5
53
  8
0
 10
23.540452491541171
 20
35.609956317382029
 30
0.0
 11
23.540452491541171
 21
36.475982317382041
 31
0.0
  0
LINE
  5
54
  8
0
 10
22.790452491541171
 20
35.176944317382031
 30
0.0
 11
23.540452491541171
 21
35.609956317382029
 31
0.0
  0
LINE
  5
55
  8
0
 10
22.040452491541171
 20
35.609956317382029
 30
0.0
 11
22.790452491541171
 21
35.176944317382031
 31
0.0
  0
CIRCLE
  5
56
  8
3
 10
22.790452491541171
 20
36.042969317382031
 30
0.0
 40
1.5
  0
LINE
  5
57
  8
0
 10
71.357611491541164
 20
38.510761317382027
 30
0.0
 11
71.357611491541164
 21
37.174340317382033
 31
0.0
  0
LINE
  5
58
  8
0
 10
72.157611491541161
 20
38.510761317382027
 30
0.0
 11
72.157611491541161
 21
37.174340317382033
 31
0.0
  0
LINE
  5
59
  8
0
 10
72.157611491541161
 20
34.91159831738203
 30
0.0
 11
72.157611491541161
 21
33.575176317382031
 31
0.0
  0
LINE
  5
5A
  8
0
 10
71.357611491541164
 20
34.91159831738203
 30
0.0
 11
71.357611491541164
 21
33.575176317382031
 31
0.0
  0
CIRCLE
  5
5B
  8
0
 10
22.790452491541171
 20
36.042969317382031
 30
0.0
 40
1.2295
  0
ARC
  5
5C
  8
2
 10
52.662320491541159
 20
36.042969317382031
 30
0.0
 40
1.1999999999999991
 50
270.0
 51
90.0
  0
ARC
  5
61
  8
2
 10
52.662320491541159
 20
52.70883631738203
 30
0.0
 40
1.1999999999999991
 50
270.0
 51
90.0
  0
LINE
  5
62
  8
0
 10
36.662320491541173
 20
50.20883631738203
 30
0.0
 11
36.662320491541173
 21
55.20883631738203
 31
0.0
  0
LINE
  5
63
  8
0
 10
53.062320491541158
 20
55.20883631738203
 30
0.0
 11
53.062320491541158
 21
50.20883631738203
 31
0.0
  0
LINE
  5
64
  8
0
 10
53.062320491541158
 20
55.20883631738203
 30
0.0
 11
53.862320491541162
 21
54.408836317382033
 31
0.0
  0
LINE
  5
65
  8
0
 10
53.862320491541162
 20
51.008836317382027
 30
0.0
 11
53.062320491541158
 21
50.20883631738203
 31
0.0
  0
LINE
  5
66
  8
0
 10
35.862320491541169
 20
54.408836317382033
 30
0.0
 11
36.662320491541173
 21
55.20883631738203
 31
0.0
  0
LINE
  5
67
  8
0
 10
35.862320491541169
 20
51.008836317382027
 30
0.0
 11
36.662320491541173
 21
50.20883631738203
 31
0.0
  0
ARC
  5
68
  8
0
 10
54.96232049154117
 20
52.70883631738203
 30
0.0
 40
1.1999999999999991
 50
270.0
 51
90.0
  0
LINE
  5
69
  8
0
 10
53.862320491541162
 20
51.508836317382027
 30
0.0
 11
54.96232049154117
 21
51.508836317382027
 31
0.0
  0
LINE
  5
6A
  8
0
 10
53.862320491541162
 20
53.908836317382033
 30
0.0
 11
54.96232049154117
 21
53.908836317382033
 31
0.0
  0
LINE
  5
6B
  8
0
 10
53.862320491541162
 20
54.408836317382033
 30
0.0
 11
53.862320491541162
 21
53.108836317382028
 31
0.0
  0
LINE
  5
6C
  8
0
 10
35.862320491541169
 20
54.408836317382033
 30
0.0
 11
35.862320491541169
 21
51.008836317382027
 31
0.0
  0
LINE
  5
6D
  8
0
 10
53.062320491541158
 20
50.20883631738203
 30
0.0
 11
36.662320491541173
 21
50.20883631738203
 31
0.0
  0
LINE
  5
6E
  8
3
 10
53.495320491541172
 20
50.641836317382023
 30
0.0
 11
36.229320491541181
 21
50.641836317382023
 31
0.0
  0
LINE
  5
6F
  8
3
 10
53.495320491541172
 20
54.77583631738203
 30
0.0
 11
36.229320491541181
 21
54.77583631738203
 31
0.0
  0
LINE
  5
70
  8
0
 10
53.062320491541158
 20
55.20883631738203
 30
0.0
 11
36.662320491541173
 21
55.20883631738203
 31
0.0
  0
LINE
  5
71
  8
1
 10
34.862320491541169
 20
52.70883631738203
 30
0.0
 11
57.162320491541159
 21
52.70883631738203
 31
0.0
  0
LINE
  5
77
  8
0
 10
53.094527491541172
 20
38.510761317382027
 30
0.0
 11
53.062320491541158
 21
38.510761317382027
 31
0.0
  0
LINE
  5
78
  8
0
 10
53.094527491541172
 20
33.575176317382031
 30
0.0
 11
53.062320491541158
 21
33.575176317382031
 31
0.0
  0
LINE
  5
79
  8
0
 10
53.062320491541158
 20
53.108836317382028
 30
0.0
 11
53.862320491541162
 21
53.108836317382028
 31
0.0
  0
LINE
  5
7A
  8
0
 10
53.062320491541158
 20
52.308836317382031
 30
0.0
 11
53.862320491541162
 21
52.308836317382031
 31
0.0
  0
LINE
  5
7B
  8
0
 10
53.862320491541162
 20
52.308836317382031
 30
0.0
 11
53.862320491541162
 21
51.008836317382027
 31
0.0
  0
LINE
  5
7C
  8
0
 10
53.862320491541162
 20
21.228540317382031
 30
0.0
 11
53.862320491541162
 21
22.528540317382031
 31
0.0
  0
LINE
  5
7D
  8
0
 10
53.062320491541158
 20
21.228540317382031
 30
0.0
 11
53.862320491541162
 21
21.228540317382031
 31
0.0
  0
LINE
  5
7E
  8
0
 10
53.062320491541158
 20
20.42854031738203
 30
0.0
 11
53.862320491541162
 21
20.42854031738203
 31
0.0
  0
LINE
  5
7F
  8
1
 10
34.862320491541169
 20
20.828540317382028
 30
0.0
 11
57.162320491541159
 21
20.828540317382028
 31
0.0
  0
LINE
  5
80
  8
0
 10
53.062320491541158
 20
18.328540317382028
 30
0.0
 11
36.662320491541173
 21
18.328540317382028
 31
0.0
  0
LINE
  5
81
  8
3
 10
53.495320491541172
 20
18.761540317382028
 30
0.0
 11
36.229320491541181
 21
18.761540317382028
 31
0.0
  0
LINE
  5
82
  8
3
 10
53.495320491541172
 20
22.895540317382029
 30
0.0
 11
36.229320491541181
 21
22.895540317382029
 31
0.0
  0
LINE
  5
83
  8
0
 10
53.062320491541158
 20
23.328540317382028
 30
0.0
 11
36.662320491541173
 21
23.328540317382028
 31
0.0
  0
LINE
  5
84
  8
0
 10
35.862320491541169
 20
19.128540317382029
 30
0.0
 11
35.862320491541169
 21
22.528540317382031
 31
0.0
  0
LINE
  5
85
  8
0
 10
53.862320491541162
 20
19.128540317382029
 30
0.0
 11
53.862320491541162
 21
20.42854031738203
 31
0.0
  0
LINE
  5
86
  8
0
 10
53.862320491541162
 20
19.628540317382029
 30
0.0
 11
54.96232049154117
 21
19.628540317382029
 31
0.0
  0
LINE
  5
87
  8
0
 10
53.862320491541162
 20
22.028540317382031
 30
0.0
 11
54.96232049154117
 21
22.028540317382031
 31
0.0
  0
ARC
  5
88
  8
0
 10
54.96232049154117
 20
20.828540317382028
 30
0.0
 40
1.1999999999999991
 50
270.0
 51
90.0
  0
LINE
  5
89
  8
0
 10
35.862320491541169
 20
22.528540317382031
 30
0.0
 11
36.662320491541173
 21
23.328540317382028
 31
0.0
  0
LINE
  5
8A
  8
0
 10
35.862320491541169
 20
19.128540317382029
 30
0.0
 11
36.662320491541173
 21
18.328540317382028
 31
0.0
  0
LINE
  5
8B
  8
0
 10
53.862320491541162
 20
22.528540317382031
 30
0.0
 11
53.062320491541158
 21
23.328540317382028
 31
0.0
  0
LINE
  5
8C
  8
0
 10
53.062320491541158
 20
18.328540317382028
 30
0.0
 11
53.862320491541162
 21
19.128540317382029
 31
0.0
  0
LINE
  5
8D
  8
0
 10
53.062320491541158
 20
18.328540317382028
 30
0.0
 11
53.062320491541158
 21
23.328540317382028
 31
0.0
  0
LINE
  5
8E
  8
0
 10
36.662320491541173
 20
23.328540317382028
 30
0.0
 11
36.662320491541173
 21
18.328540317382028
 31
0.0
  0
ARC
  5
8F
  8
2
 10
52.662320491541159
 20
20.828540317382028
 30
0.0
 40
1.1999999999999991
 50
270.0
 51
90.0
  0
LINE
  5
1FB
  8
2
 10
37.862320491541169
 20
35.176944317382038
 30
0.0
 11
37.862320491541169
 21
36.908995123541217
 31
0.0
  0
LINE
  5
1FC
  8
2
 10
35.862320491541169
 20
35.176944317382031
 30
0.0
 11
37.862320491541169
 21
35.176944317382038
 31
0.0
  0
LINE
  5
1FD
  8
2
 10
35.862320491541169
 20
35.609957018922103
 30
0.0
 11
37.862320491541169
 21
35.609957018922103
 31
0.0
  0
LINE
  5
1FE
  8
2
 10
35.862320491541169
 20
36.475982422001131
 30
0.0
 11
37.862320491541169
 21
36.47598242200111
 31
0.0
  0
LINE
  5
1FF
  8
2
 10
35.862320491541169
 20
36.90899512354121
 30
0.0
 11
37.862320491541169
 21
36.908995123541217
 31
0.0
  0
LINE
  5
205
  8
2
 10
37.862320491541169
 20
51.95883631738203
 30
0.0
 11
37.862320491541169
 21
53.45883631738203
 31
0.0
  0
LINE
  5
206
  8
2
 10
35.862320491541169
 20
51.95883631738203
 30
0.0
 11
37.862320491541169
 21
51.958836317382037
 31
0.0
  0
LINE
  5
208
  8
2
 10
35.862320491541169
 20
52.708836317382037
 30
0.0
 11
37.862320491541169
 21
52.708836317382023
 31
0.0
  0
LINE
  5
209
  8
2
 10
35.862320491541169
 20
53.45883631738203
 30
0.0
 11
37.862320491541169
 21
53.45883631738203
 31
0.0
  0
LINE
  5
268
  8
2
 10
37.862320491541169
 20
20.078540317382028
 30
0.0
 11
37.862320491541169
 21
21.578540317382028
 31
0.0
  0
LINE
  5
269
  8
2
 10
35.862320491541169
 20
20.078540317382028
 30
0.0
 11
37.862320491541169
 21
20.078540317382039
 31
0.0
  0
LINE
  5
26A
  8
2
 10
35.862320491541169
 20
20.828540317382039
 30
0.0
 11
37.862320491541169
 21
20.828540317382021
 31
0.0
  0
LINE
  5
26B
  8
2
 10
35.862320491541169
 20
21.578540317382028
 30
0.0
 11
37.862320491541169
 21
21.578540317382039
 31
0.0
  0
TEXT
  5
30C
  8
0
 62
     3
 10
0.0
 20
0.0
 30
0.0
 40
5.0
  1
ZP5
  7
STANDARD1
  0
ENDSEC
  0
EOF
